  0
SECTION
  2
HEADER
  9
$ACADVER
  1
AC1009
  9
$INSBASE
 10
0.0
 20
0.0
 30
0.0
  9
$EXTMIN
 10
-7.7000000000000002
 20
-2.5999999999999992
 30
0.0
  9
$EXTMAX
 10
33.821108255677373
 20
43.100000000000001
 30
0.0
  9
$LIMMIN
 10
0.0
 20
0.0
  9
$LIMMAX
 10
420.0
 20
297.0
  9
$ORTHOMODE
 70
     0
  9
$REGENMODE
 70
     1
  9
$FILLMODE
 70
     1
  9
$QTEXTMODE
 70
     0
  9
$MIRRTEXT
 70
     1
  9
$DRAGMODE
 70
     2
  9
$LTSCALE
 40
10.0
  9
$OSMODE
 70
    63
  9
$ATTMODE
 70
     1
  9
$TEXTSIZE
 40
3.0
  9
$TRACEWID
 40
1.0
  9
$TEXTSTYLE
  7
YOKO
  9
$CLAYER
  8
245
  9
$CELTYPE
  6
BYLAYER
  9
$CECOLOR
 62
   256
  9
$DIMSCALE
 40
1.0
  9
$DIMASZ
 40
2.2299999999999991
  9
$DIMEXO
 40
0.5
  9
$DIMDLI
 40
2.5
  9
$DIMRND
 40
0.0
  9
$DIMDLE
 40
0.0
  9
$DIMEXE
 40
1.0
  9
$DIMTP
 40
0.0
  9
$DIMTM
 40
0.0
  9
$DIMTXT
 40
2.799999999999998
  9
$DIMCEN
 40
0.0
  9
$DIMTSZ
 40
0.0
  9
$DIMTOL
 70
     0
  9
$DIMLIM
 70
     0
  9
$DIMTIH
 70
     0
  9
$DIMTOH
 70
     0
  9
$DIMSE1
 70
     0
  9
$DIMSE2
 70
     0
  9
$DIMTAD
 70
     3
  9
$DIMZIN
 70
     8
  9
$DIMBLK
  1

  9
$DIMASO
 70
     1
  9
$DIMSHO
 70
     1
  9
$DIMPOST
  1
<>
  9
$DIMAPOST
  1

  9
$DIMALT
 70
     0
  9
$DIMALTD
 70
     2
  9
$DIMALTF
 40
25.399999999999999
  9
$DIMLFAC
 40
1.0
  9
$DIMTOFL
 70
     1
  9
$DIMTVP
 40
0.0
  9
$DIMTIX
 70
     1
  9
$DIMSOXD
 70
     0
  9
$DIMSAH
 70
     1
  9
$DIMBLK1
  1
OPEN
  9
$DIMBLK2
  1
OPEN
  9
$DIMSTYLE
  2
BIGT
  9
$DIMCLRD
 70
   256
  9
$DIMCLRE
 70
   256
  9
$DIMCLRT
 70
    40
  9
$DIMTFAC
 40
1.0
  9
$DIMGAP
 40
1.0
  9
$LUNITS
 70
     2
  9
$LUPREC
 70
     3
  9
$SKETCHINC
 40
1.0
  9
$FILLETRAD
 40
0.0
  9
$AUNITS
 70
     0
  9
$AUPREC
 70
     3
  9
$MENU
  1
.
  9
$ELEVATION
 40
0.0
  9
$PELEVATION
 40
0.0
  9
$THICKNESS
 40
0.0
  9
$LIMCHECK
 70
     0
  9
$BLIPMODE
 70
     0
  9
$CHAMFERA
 40
10.0
  9
$CHAMFERB
 40
10.0
  9
$SKPOLY
 70
     0
  9
$TDCREATE
 40
2455448.707272673
  9
$TDUPDATE
 40
2457157.48190316
  9
$TDINDWG
 40
0.0217965046
  9
$TDUSRTIMER
 40
0.0217962847
  9
$USRTIMER
 70
     1
  9
$ANGBASE
 50
0.0
  9
$ANGDIR
 70
     0
  9
$PDMODE
 70
     1
  9
$PDSIZE
 40
-5.0
  9
$PLINEWID
 40
0.0
  9
$COORDS
 70
     1
  9
$SPLFRAME
 70
     0
  9
$SPLINETYPE
 70
     6
  9
$SPLINESEGS
 70
     8
  9
$ATTDIA
 70
     1
  9
$ATTREQ
 70
     1
  9
$HANDLING
 70
     1
  9
$HANDSEED
  5
EED
  9
$SURFTAB1
 70
     6
  9
$SURFTAB2
 70
     6
  9
$SURFTYPE
 70
     6
  9
$SURFU
 70
     6
  9
$SURFV
 70
     6
  9
$UCSNAME
  2

  9
$UCSORG
 10
0.0
 20
0.0
 30
0.0
  9
$UCSXDIR
 10
1.0
 20
0.0
 30
0.0
  9
$UCSYDIR
 10
0.0
 20
1.0
 30
0.0
  9
$PUCSNAME
  2

  9
$PUCSORG
 10
0.0
 20
0.0
 30
0.0
  9
$PUCSXDIR
 10
1.0
 20
0.0
 30
0.0
  9
$PUCSYDIR
 10
0.0
 20
1.0
 30
0.0
  9
$USERI1
 70
     1
  9
$USERI2
 70
     0
  9
$USERI3
 70
     0
  9
$USERI4
 70
     0
  9
$USERI5
 70
     0
  9
$USERR1
 40
0.0
  9
$USERR2
 40
0.0
  9
$USERR3
 40
0.0
  9
$USERR4
 40
0.0
  9
$USERR5
 40
0.0
  9
$WORLDVIEW
 70
     1
  9
$SHADEDGE
 70
     3
  9
$SHADEDIF
 70
    70
  9
$TILEMODE
 70
     1
  9
$MAXACTVP
 70
    16
  9
$PLIMCHECK
 70
     0
  9
$PEXTMIN
 10
1.0000000000000000E+020
 20
1.0000000000000000E+020
 30
1.0000000000000000E+020
  9
$PEXTMAX
 10
-1.0000000000000000E+020
 20
-1.0000000000000000E+020
 30
-1.0000000000000000E+020
  9
$PLIMMIN
 10
0.0
 20
0.0
  9
$PLIMMAX
 10
420.0
 20
297.0
  9
$UNITMODE
 70
     0
  9
$VISRETAIN
 70
     0
  9
$PLINEGEN
 70
     0
  9
$PSLTSCALE
 70
     1
  0
ENDSEC
  0
SECTION
  2
TABLES
  0
TABLE
  2
VPORT
 70
     1
  0
VPORT
  2
*ACTIVE
 70
     0
 10
0.0
 20
0.0
 11
1.0
 21
1.0
 12
11.56089761474454
 22
19.8364408582833
 13
0.0
 23
0.0
 14
7.0
 24
7.0
 15
7.0
 25
7.0
 16
0.0
 26
0.0
 36
1.0
 17
0.0
 27
0.0
 37
0.0
 40
74.203890710754195
 41
1.433260393873085
 42
50.0
 43
0.0
 44
0.0
 50
0.0
 51
0.0
 71
     0
 72
  2000
 73
     1
 74
     0
 75
     0
 76
     1
 77
     0
 78
     0
  0
ENDTAB
  0
TABLE
  2
LTYPE
 70
    22
  0
LTYPE
  2
CONTINUOUS
 70
     0
  3
Solid line
 72
    65
 73
     0
 40
0.0
  0
LTYPE
  2
CENTER2
 70
     0
  3
___ _ ___ _ ___ _ ___ _ ___ _ ___ _ ___ _ ___ _
 72
    65
 73
     4
 40
1.125
 49
0.75
 49
-0.125
 49
0.125
 49
-0.125
  0
LTYPE
  2
PHANTOM2
 70
     0
  3
___ _ _ ___ _ _ ___ _ _ ___ _ _ ___ _ _ ___ _ _
 72
    65
 73
     6
 40
1.25
 49
0.625
 49
-0.125
 49
0.125
 49
-0.125
 49
0.125
 49
-0.125
  0
LTYPE
  2
HIDDEN2
 70
     0
  3
_ _ _ _ _ _ _ _ _ _ _ _ _ _ _ _ _ _ _ _ _ _ _ _
 72
    65
 73
     2
 40
0.1875
 49
0.125
 49
-0.0625
  0
LTYPE
  2
AMCONSTR
 70
     0
  3
_______________________
 72
    65
 73
     2
 40
9999.0
 49
9999.0
 49
0.0
  0
LTYPE
  2
HIDDEN
 70
     0
  3
Hidden __ __ __ __ __ __ __ __ __ __ __ __ __ _
 72
    65
 73
     2
 40
0.375
 49
0.25
 49
-0.125
  0
LTYPE
  2
CENTER
 70
     0
  3
Center ____ _ ____ _ ____ _ ____ _ ____ _ ____
 72
    65
 73
     4
 40
2.0
 49
1.25
 49
-0.25
 49
0.25
 49
-0.25
  0
LTYPE
  2
AMZIGZAG2
 70
     0
  3
/\/-/\/-/\/-/\/-/\/-/\/
 72
    65
 73
     2
 40
0.4401
 49
0.0001
 49
-0.4400000000000001
  0
LTYPE
  2
ACANSTGB
 70
     0
  3
__ . . __ . .
 72
    65
 73
     6
 40
0.35433070866
 49
0.15748031496
 49
-0.03937007874
 49
0.03937007874
 49
-0.03937007874
 49
0.03937007874
 49
-0.03937007874
  0
LTYPE
  2
ACANSTGL
 70
     0
  3
_ _ _ _ _
 72
    65
 73
     2
 40
0.11811023622
 49
0.07874015748
 49
-0.03937007874
  0
ENDTAB
  0
TABLE
  2
LAYER
 70
     8
  0
LAYER
  2
0
 70
     0
 62
     7
  6
CONTINUOUS
  0
LAYER
  2
245
 70
     0
 62
     2
  6
CENTER2
  0
LAYER
  2
240
 70
     0
 62
     4
  6
CONTINUOUS
  0
LAYER
  2
241
 70
     0
 62
   211
  6
CONTINUOUS
  0
LAYER
  2
250
 70
     0
 62
     3
  6
CONTINUOUS
  0
LAYER
  2
DEFPOINTS
 70
     0
 62
     7
  6
CONTINUOUS
  0
LAYER
  2
246
 70
     0
 62
     3
  6
PHANTOM2
  0
ENDTAB
  0
TABLE
  2
STYLE
 70
    10
  0
STYLE
  2
STANDARD
 70
     0
 40
0.0
 41
1.0
 50
0.0
 71
     0
 42
3.0
  3
romans.shx
  4
BIGFONT.SHX
  0
STYLE
  2
YOKO
 70
     0
 40
0.0
 41
1.0
 50
0.0
 71
     0
 42
3.0
  3
romans.shx
  4
extfont.shx
  0
STYLE
  2
ACJISTS
 70
     0
 40
1.0
 41
1.0
 50
0.0
 71
     0
 42
3.0
  3
amgdt.shx
  4
extfont.shx
  0
STYLE
  2

 70
     1
 40
0.0
 41
1.0
 50
0.0
 71
     0
 42
3.0
  3
genltshp.shx
  4

  0
STYLE
  2
ACANSGDT
 70
     0
 40
0.0
 41
1.0
 50
0.0
 71
     0
 42
3.0
  3
amgdt.shx
  4

  0
ENDTAB
  0
TABLE
  2
VIEW
 70
     1
  0
VIEW
  2
OLE1
 70
     0
 40
46.056834829999993
 10
-0.22014004
 20
13.64412242
 41
64.872033020000003
 11
0.0
 21
0.0
 31
1.0
 12
0.0
 22
0.0
 32
0.0
 42
50.0
 43
0.0
 44
0.0
 50
0.0
 71
     0
  0
ENDTAB
  0
TABLE
  2
UCS
 70
     0
  0
ENDTAB
  0
TABLE
  2
APPID
 70
    42
  0
APPID
  2
ACAD
 70
     0
  0
APPID
  2
ACADANNOTATIVE
 70
     0
  0
APPID
  2
GLOBAL
 70
     0
  0
APPID
  2
DETAIL
 70
     0
  0
APPID
  2
GRPNAME
 70
     0
  0
APPID
  2
GPARA
 70
     0
  0
APPID
  2
DCO15
 70
     0
  0
APPID
  2
ITEMNAME
 70
     0
  0
APPID
  2
GRADE_0
 70
     0
  0
APPID
  2
CONTENTBLOCKICON
 70
     0
  0
APPID
  2
MCAD_NO_VIS
 70
     0
  0
APPID
  2
ACAD_TEMP_GRAPHIC
 70
     0
  0
APPID
  2
ACATTRIBSERVICES
 70
     0
  0
APPID
  2
GENIUS_GENSCREG_15
 70
     0
  0
APPID
  2
GENIUS_GENODEF_13
 70
     0
  0
APPID
  2
GENIUS_GENOBJ-N-SDF_13
 70
     0
  0
APPID
  2
GENIUS_GENREC_14
 70
     0
  0
APPID
  2
GENIUS_GENOBJ-N-REC_13
 70
     0
  0
APPID
  2
GENIUS_GENDIMSH_14
 70
     0
  0
APPID
  2
GENIUS_GENOBJ-N-DIM_13
 70
     0
  0
APPID
  2
GENIUS_GENDIM_13
 70
     0
  0
APPID
  2
GENIUS_GENDTOL_13
 70
     0
  0
APPID
  2
GENIUS_GENOLIS_13
 70
     0
  0
APPID
  2
GENIUS_GENOENT_13
 70
     0
  0
APPID
  2
GENIUS_GENOBJ-F-FEM_13
 70
     0
  0
APPID
  2
GENIUS_GENOREF_13
 70
     0
  0
APPID
  2
GENIUS_GEFFEM_13
 70
     0
  0
APPID
  2
GENIUS_GEFFEMP_13
 70
     0
  0
APPID
  2
AD_DRAW
 70
     0
  0
APPID
  2
DESIGNERASSEMBLIES
 70
     0
  0
APPID
  2
ACADM_DIM_EDIT
 70
     0
  0
APPID
  2
AMDT_DM_ADJ
 70
     0
  0
APPID
  2
GENIUS_GENOBJ-N-FIL_13
 70
     0
  0
APPID
  2
GENIUS_GENFIL_13
 70
     0
  0
APPID
  2
GENIUS_GENOBJ-N-CHA_13
 70
     0
  0
APPID
  2
ACAD_NAV_VCDISPLAY
 70
     0
  0
APPID
  2
ACAECLAYERSTANDARD
 70
     0
  0
APPID
  2
ACAD_MLEADERVER
 70
     0
  0
APPID
  2
ACAD_DSTYLE_DIMJAG
 70
     0
  0
APPID
  2
ACAD_DSTYLE_DIMBREAK
 70
     0
  0
APPID
  2
ACAD_DSTYLE_DIMINSPECT
 70
     0
  0
APPID
  2
ACAD_EXEMPT_FROM_CAD_STANDARDS
 70
     0
  0
ENDTAB
  0
TABLE
  2
DIMSTYLE
 70
    31
  0
DIMSTYLE
  2
STANDARD
 70
     0
  3

  4

  5

  6

  7

 40
1.0
 41
0.18
 42
0.0625
 43
0.38
 44
0.18
 45
0.0
 46
0.0
 47
0.0
 48
0.0
140
0.18
141
0.09
142
0.0
143
25.399999999999999
144
1.0
145
0.0
146
1.0
147
0.09
 71
     0
 72
     0
 73
     1
 74
     1
 75
     0
 76
     0
 77
     0
 78
     0
170
     0
171
     2
172
     0
173
     0
174
     0
175
     0
176
     0
177
     0
178
     0
  0
DIMSTYLE
  2
BIGT
 70
     0
  3

  4

  5

  6

  7

 40
1.0
 41
2.2299999999999991
 42
0.5
 43
7.0
 44
1.0
 45
0.0
 46
0.0
 47
0.0
 48
0.01
140
2.799999999999998
141
0.0
142
0.0
143
25.399999999999999
144
1.0
145
0.0
146
1.0
147
1.0
 71
     0
 72
     0
 73
     0
 74
     0
 75
     0
 76
     0
 77
     3
 78
     9
170
     0
171
     2
172
     1
173
     0
174
     1
175
     0
176
   256
177
   256
178
    40
  0
DIMSTYLE
  2
AM_ANSI
 70
     0
  3

  4
mm
  5

  6

  7

 40
1.0
 41
0.12
 42
0.05
 43
0.5
 44
0.1
 45
0.0
 46
0.0
 47
0.1
 48
0.1
140
0.12
141
0.0
142
0.0
143
25.399999999999999
144
1.0
145
0.0
146
0.71
147
0.06
 71
     0
 72
     0
 73
     1
 74
     1
 75
     0
 76
     0
 77
     0
 78
     7
170
     0
171
     2
172
     0
173
     0
174
     0
175
     0
176
   256
177
   256
178
     2
  0
DIMSTYLE
  2
AM_ANSI$3
 70
     0
  3

  4
mm
  5

  6

  7

 40
1.0
 41
0.12
 42
0.05
 43
0.5
 44
0.1
 45
0.0
 46
0.0
 47
0.1
 48
0.1
140
0.12
141
0.0
142
0.0
143
25.399999999999999
144
1.0
145
0.0
146
0.71
147
0.06
 71
     0
 72
     0
 73
     1
 74
     1
 75
     0
 76
     0
 77
     0
 78
     7
170
     0
171
     2
172
     0
173
     0
174
     0
175
     0
176
   256
177
   256
178
     2
  0
DIMSTYLE
  2
AM_ANSI$4
 70
     0
  3

  4
mm
  5

  6

  7

 40
1.0
 41
0.12
 42
0.05
 43
0.5
 44
0.1
 45
0.0
 46
0.0
 47
0.1
 48
0.1
140
0.12
141
0.0
142
0.0
143
25.399999999999999
144
1.0
145
0.0
146
0.71
147
0.06
 71
     0
 72
     0
 73
     1
 74
     1
 75
     0
 76
     0
 77
     0
 78
     7
170
     0
171
     2
172
     0
173
     0
174
     0
175
     0
176
   256
177
   256
178
     2
  0
DIMSTYLE
  2
AM_ANSI$7
 70
     0
  3

  4
mm
  5

  6

  7

 40
1.0
 41
0.12
 42
0.05
 43
0.5
 44
0.1
 45
0.0
 46
0.0
 47
0.1
 48
0.1
140
0.12
141
0.0
142
0.0
143
25.399999999999999
144
1.0
145
0.0
146
0.71
147
0.06
 71
     0
 72
     0
 73
     1
 74
     1
 75
     0
 76
     0
 77
     0
 78
     7
170
     0
171
     2
172
     0
173
     0
174
     0
175
     0
176
   256
177
   256
178
     2
  0
DIMSTYLE
  2
AM_ANSI$SF
 70
     0
  3

  4
mm
  5

  6

  7

 40
1.0
 41
0.12
 42
0.05
 43
0.5
 44
0.1
 45
0.0
 46
0.0
 47
0.1
 48
0.1
140
0.12
141
0.0
142
0.0
143
25.399999999999999
144
1.0
145
0.0
146
0.71
147
0.06
 71
     0
 72
     0
 73
     1
 74
     1
 75
     1
 76
     1
 77
     0
 78
     7
170
     0
171
     2
172
     0
173
     0
174
     0
175
     0
176
   256
177
   256
178
     2
  0
DIMSTYLE
  2
AM_ANSI$SH
 70
     0
  3

  4
mm
  5

  6
GENAXEH
  7

 40
1.0
 41
0.12
 42
0.05
 43
0.5
 44
0.1
 45
0.0
 46
0.0
 47
0.1
 48
0.1
140
0.12
141
0.0
142
0.0
143
25.399999999999999
144
1.0
145
0.0
146
0.71
147
0.06
 71
     0
 72
     0
 73
     1
 74
     1
 75
     1
 76
     1
 77
     0
 78
     7
170
     0
171
     2
172
     0
173
     1
174
     0
175
     0
176
   256
177
   256
178
     2
  0
ENDTAB
  0
ENDSEC
  0
SECTION
  2
BLOCKS
  0
BLOCK
  8
0
  2
$MODEL_SPACE
 70
     0
 10
0.0
 20
0.0
 30
0.0
  3
$MODEL_SPACE
  1

  0
ENDBLK
  5
D5F
  8
0
  0
BLOCK
 67
     1
  8
0
  2
$PAPER_SPACE
 70
     0
 10
0.0
 20
0.0
 30
0.0
  3
$PAPER_SPACE
  1

  0
ENDBLK
  5
D5B
 67
     1
  8
0
  0
BLOCK
  8
0
  2
_OPEN
 70
     0
 10
0.0
 20
0.0
 30
0.0
  3
_OPEN
  1

  0
LINE
  5
ABB
  8
0
  6
BYBLOCK
 62
     0
 10
-1.0
 20
0.1666666666666666
 30
0.0
 11
0.0
 21
0.0
 31
0.0
  0
LINE
  5
ABC
  8
0
  6
BYBLOCK
 62
     0
 10
-1.0
 20
-0.1666666666666666
 30
0.0
 11
0.0
 21
0.0
 31
0.0
  0
LINE
  5
ABD
  8
0
  6
BYBLOCK
 62
     0
 10
0.0
 20
0.0
 30
0.0
 11
-1.0
 21
0.0
 31
0.0
  0
ENDBLK
  5
ABE
  8
0
  0
BLOCK
  8
0
  2
矢印なし
 70
     0
 10
0.0
 20
0.0
 30
0.0
  3
矢印なし
  1

  0
ENDBLK
  5
6E5
  8
0
  0
BLOCK
  8
0
  2
GENAXEH
 70
     0
 10
0.0
 20
0.0
 30
0.0
  3
GENAXEH
  1

  0
LINE
  5
AF6
  8
0
 10
-1.0
 20
0.0
 30
0.0
 11
1.0
 21
0.0
 31
0.0
  0
ENDBLK
  5
AF7
  8
0
  0
BLOCK
  8
0
  2
_ACMFILLEDHALF
 70
     0
 10
0.0
 20
0.0
 30
0.0
  3
_ACMFILLEDHALF
  1

  0
TRACE
  5
E24
  8
245
 62
     0
 10
-0.8
 20
0.0
 30
0.0
 11
-1.0
 21
0.166666666
 31
0.0
 12
0.0
 22
0.0
 32
0.0
 13
0.0
 23
0.0
 33
0.0
  0
LINE
  5
E25
  8
245
 62
     0
 10
-1.0
 20
0.0
 30
0.0
 11
-0.8
 21
0.0
 31
0.0
  0
ENDBLK
  5
E23
  8
0
  0
ENDSEC
  0
SECTION
  2
ENTITIES
  0
INSERT
  5
6E6
  8
245
  2
矢印なし
 10
175.62382697000001
 20
90.551235719999994
 30
0.0
  0
TEXT
  5
870
  8
241
 10
-7.7000000000000002
 20
38.100000000000001
 30
0.0
 40
5.0
  1
ENH4-1
  7
YOKO
 11
-7.7000000000000002
 21
38.100000000000001
 31
0.0
 73
     1
  0
LINE
  5
B66
  8
240
  6
CONTINUOUS
 10
4.5
 20
6.5999999999999979
 30
0.0
 11
9.5370594900000007
 21
6.5999999999999979
 31
0.0
  0
LINE
  5
B67
  8
240
  6
CONTINUOUS
 10
13.0033321
 20
-2.5999999999999992
 30
0.0
 11
8.5
 21
0.0
 31
0.0
  0
LINE
  5
B68
  8
241
  6
CONTINUOUS
 10
7.31700382
 20
3.000374679999998
 30
0.0
 11
15.37904502
 21
-2.2351760899999991
 31
0.0
1001
GRPNAME
1000
PASTMD03
  0
LINE
  5
B69
  8
241
  6
CONTINUOUS
 10
7.3532632400000004
 20
3.6922455099999989
 30
0.0
 11
14.924403330000001
 21
7.5499340699999982
 31
0.0
1001
GRPNAME
1000
PASTMD03
  0
LINE
  5
B6A
  8
240
  6
CONTINUOUS
 10
-7.7000000000000002
 20
0.0
 30
0.0
 11
-2.23225183
 21
0.0
 31
0.0
  0
POLYLINE
  5
C4D
  8
240
 66
     1
 10
0.0
 20
0.0
 30
0.0
 70
     8
  0
VERTEX
  5
C4E
  8
240
 10
-4.5
 20
6.5999999999999988
 30
0.0
 70
    32
  0
VERTEX
  5
C4F
  8
240
 10
-4.4433999999999987
 20
6.5897899999999989
 30
0.0
 70
    32
  0
VERTEX
  5
C50
  8
240
 10
-4.3867900000000004
 20
6.5795899999999987
 30
0.0
 70
    32
  0
VERTEX
  5
C51
  8
240
 10
-4.3301899999999991
 20
6.5693899999999994
 30
0.0
 70
    32
  0
VERTEX
  5
C52
  8
240
 10
-4.273579999999999
 20
6.5591999999999988
 30
0.0
 70
    32
  0
VERTEX
  5
C53
  8
240
 10
-4.2169800000000004
 20
6.5490300000000001
 30
0.0
 70
    32
  0
VERTEX
  5
C54
  8
240
 10
-4.1603799999999991
 20
6.5388699999999993
 30
0.0
 70
    32
  0
VERTEX
  5
C55
  8
240
 10
-4.103769999999999
 20
6.5287300000000004
 30
0.0
 70
    32
  0
VERTEX
  5
C56
  8
240
 10
-4.0471699999999986
 20
6.5186199999999994
 30
0.0
 70
    32
  0
VERTEX
  5
C57
  8
240
 10
-3.9905699999999991
 20
6.508519999999999
 30
0.0
 70
    32
  0
VERTEX
  5
C58
  8
240
 10
-3.933959999999999
 20
6.4984599999999988
 30
0.0
 70
    32
  0
VERTEX
  5
C59
  8
240
 10
-3.877359999999999
 20
6.4884300000000001
 30
0.0
 70
    32
  0
VERTEX
  5
C5A
  8
240
 10
-3.820749999999999
 20
6.4784399999999991
 30
0.0
 70
    32
  0
VERTEX
  5
C5B
  8
240
 10
-3.764149999999999
 20
6.4684799999999996
 30
0.0
 70
    32
  0
VERTEX
  5
C5C
  8
240
 10
-3.707549999999999
 20
6.458569999999999
 30
0.0
 70
    32
  0
VERTEX
  5
C5D
  8
240
 10
-3.6509399999999999
 20
6.4486999999999988
 30
0.0
 70
    32
  0
VERTEX
  5
C5E
  8
240
 10
-3.5943399999999999
 20
6.4388800000000002
 30
0.0
 70
    32
  0
VERTEX
  5
C5F
  8
240
 10
-3.5377399999999999
 20
6.4291199999999993
 30
0.0
 70
    32
  0
VERTEX
  5
C60
  8
240
 10
-3.4811299999999998
 20
6.4194000000000004
 30
0.0
 70
    32
  0
VERTEX
  5
C61
  8
240
 10
-3.4245299999999999
 20
6.4097499999999989
 30
0.0
 70
    32
  0
VERTEX
  5
C62
  8
240
 10
-3.3679199999999989
 20
6.4001599999999987
 30
0.0
 70
    32
  0
VERTEX
  5
C63
  8
240
 10
-3.3113199999999989
 20
6.3906299999999998
 30
0.0
 70
    32
  0
VERTEX
  5
C64
  8
240
 10
-3.2547199999999998
 20
6.38117
 30
0.0
 70
    32
  0
VERTEX
  5
C65
  8
240
 10
-3.1981099999999989
 20
6.3717800000000002
 30
0.0
 70
    32
  0
VERTEX
  5
C66
  8
240
 10
-3.1415099999999989
 20
6.3624599999999987
 30
0.0
 70
    32
  0
VERTEX
  5
C67
  8
240
 10
-3.0849099999999989
 20
6.3532199999999994
 30
0.0
 70
    32
  0
VERTEX
  5
C68
  8
240
 10
-3.0283000000000002
 20
6.3440699999999994
 30
0.0
 70
    32
  0
VERTEX
  5
C69
  8
240
 10
-2.9716999999999989
 20
6.3349900000000003
 30
0.0
 70
    32
  0
VERTEX
  5
C6A
  8
240
 10
-2.9150900000000002
 20
6.3260100000000001
 30
0.0
 70
    32
  0
VERTEX
  5
C6B
  8
240
 10
-2.8584900000000002
 20
6.3171099999999987
 30
0.0
 70
    32
  0
VERTEX
  5
C6C
  8
240
 10
-2.8018900000000002
 20
6.3083099999999988
 30
0.0
 70
    32
  0
VERTEX
  5
C6D
  8
240
 10
-2.7452799999999988
 20
6.299599999999999
 30
0.0
 70
    32
  0
VERTEX
  5
C6E
  8
240
 10
-2.6886799999999988
 20
6.2910000000000004
 30
0.0
 70
    32
  0
VERTEX
  5
C6F
  8
240
 10
-2.6320799999999989
 20
6.2824999999999989
 30
0.0
 70
    32
  0
VERTEX
  5
C70
  8
240
 10
-2.5754700000000001
 20
6.2740999999999989
 30
0.0
 70
    32
  0
VERTEX
  5
C71
  8
240
 10
-2.5188700000000002
 20
6.2658199999999988
 30
0.0
 70
    32
  0
VERTEX
  5
C72
  8
240
 10
-2.4622599999999988
 20
6.257649999999999
 30
0.0
 70
    32
  0
VERTEX
  5
C73
  8
240
 10
-2.4056599999999988
 20
6.2495900000000004
 30
0.0
 70
    32
  0
VERTEX
  5
C74
  8
240
 10
-2.3490599999999988
 20
6.241649999999999
 30
0.0
 70
    32
  0
VERTEX
  5
C75
  8
240
 10
-2.2924500000000001
 20
6.2338399999999989
 30
0.0
 70
    32
  0
VERTEX
  5
C76
  8
240
 10
-2.2358500000000001
 20
6.2261499999999987
 30
0.0
 70
    32
  0
VERTEX
  5
C77
  8
240
 10
-2.1792500000000001
 20
6.218589999999999
 30
0.0
 70
    32
  0
VERTEX
  5
C78
  8
240
 10
-2.1226400000000001
 20
6.2111700000000001
 30
0.0
 70
    32
  0
VERTEX
  5
C79
  8
240
 10
-2.0660400000000001
 20
6.2038799999999998
 30
0.0
 70
    32
  0
VERTEX
  5
C7A
  8
240
 10
-2.00943
 20
6.1967299999999996
 30
0.0
 70
    32
  0
VERTEX
  5
C7B
  8
240
 10
-1.952829999999999
 20
6.1897199999999986
 30
0.0
 70
    32
  0
VERTEX
  5
C7C
  8
240
 10
-1.896229999999999
 20
6.1828500000000002
 30
0.0
 70
    32
  0
VERTEX
  5
C7D
  8
240
 10
-1.83962
 20
6.1761400000000002
 30
0.0
 70
    32
  0
VERTEX
  5
C7E
  8
240
 10
-1.78302
 20
6.1695799999999998
 30
0.0
 70
    32
  0
VERTEX
  5
C7F
  8
240
 10
-1.7264200000000001
 20
6.16317
 30
0.0
 70
    32
  0
VERTEX
  5
C80
  8
240
 10
-1.6698099999999989
 20
6.1569199999999986
 30
0.0
 70
    32
  0
VERTEX
  5
C81
  8
240
 10
-1.61321
 20
6.15083
 30
0.0
 70
    32
  0
VERTEX
  5
C82
  8
240
 10
-1.5565999999999991
 20
6.1448999999999989
 30
0.0
 70
    32
  0
VERTEX
  5
C83
  8
240
 10
-1.5
 20
6.139149999999999
 30
0.0
 70
    32
  0
VERTEX
  5
C84
  8
240
 10
-1.4434
 20
6.1335600000000001
 30
0.0
 70
    32
  0
VERTEX
  5
C85
  8
240
 10
-1.3867899999999991
 20
6.1281499999999989
 30
0.0
 70
    32
  0
VERTEX
  5
C86
  8
240
 10
-1.3301899999999991
 20
6.1229199999999988
 30
0.0
 70
    32
  0
VERTEX
  5
C87
  8
240
 10
-1.273579999999999
 20
6.117869999999999
 30
0.0
 70
    32
  0
VERTEX
  5
C88
  8
240
 10
-1.2169799999999991
 20
6.1130000000000004
 30
0.0
 70
    32
  0
VERTEX
  5
C89
  8
240
 10
-1.1603799999999991
 20
6.1083199999999991
 30
0.0
 70
    32
  0
VERTEX
  5
C8A
  8
240
 10
-1.1037699999999999
 20
6.1038300000000003
 30
0.0
 70
    32
  0
VERTEX
  5
C8B
  8
240
 10
-1.0471699999999999
 20
6.0995400000000002
 30
0.0
 70
    32
  0
VERTEX
  5
C8C
  8
240
 10
-0.990566
 20
6.0954399999999991
 30
0.0
 70
    32
  0
VERTEX
  5
C8D
  8
240
 10
-0.933962
 20
6.0915400000000002
 30
0.0
 70
    32
  0
VERTEX
  5
C8E
  8
240
 10
-0.8773579999999999
 20
6.087839999999999
 30
0.0
 70
    32
  0
VERTEX
  5
C8F
  8
240
 10
-0.8207549999999999
 20
6.0843499999999988
 30
0.0
 70
    32
  0
VERTEX
  5
C90
  8
240
 10
-0.7641510000000001
 20
6.08108
 30
0.0
 70
    32
  0
VERTEX
  5
C91
  8
240
 10
-0.7075470000000002
 20
6.078009999999999
 30
0.0
 70
    32
  0
VERTEX
  5
C92
  8
240
 10
-0.6509430000000001
 20
6.0751599999999986
 30
0.0
 70
    32
  0
VERTEX
  5
C93
  8
240
 10
-0.59434
 20
6.0725300000000004
 30
0.0
 70
    32
  0
VERTEX
  5
C94
  8
240
 10
-0.537736
 20
6.0701299999999998
 30
0.0
 70
    32
  0
VERTEX
  5
C95
  8
240
 10
-0.481132
 20
6.0679499999999988
 30
0.0
 70
    32
  0
VERTEX
  5
C96
  8
240
 10
-0.424528
 20
6.0659999999999989
 30
0.0
 70
    32
  0
VERTEX
  5
C97
  8
240
 10
-0.367925
 20
6.0642800000000001
 30
0.0
 70
    32
  0
VERTEX
  5
C98
  8
240
 10
-0.311321
 20
6.0627899999999997
 30
0.0
 70
    32
  0
VERTEX
  5
C99
  8
240
 10
-0.254717
 20
6.0615500000000004
 30
0.0
 70
    32
  0
VERTEX
  5
C9A
  8
240
 10
-0.198113
 20
6.0605500000000001
 30
0.0
 70
    32
  0
VERTEX
  5
C9B
  8
240
 10
-0.141509
 20
6.0597899999999996
 30
0.0
 70
    32
  0
VERTEX
  5
C9C
  8
240
 10
-0.0849057
 20
6.059289999999999
 30
0.0
 70
    32
  0
VERTEX
  5
C9D
  8
240
 10
-0.0283019
 20
6.059029999999999
 30
0.0
 70
    32
  0
VERTEX
  5
C9E
  8
240
 10
0.0283019
 20
6.059029999999999
 30
0.0
 70
    32
  0
VERTEX
  5
C9F
  8
240
 10
0.0849057
 20
6.059289999999999
 30
0.0
 70
    32
  0
VERTEX
  5
CA0
  8
240
 10
0.141509
 20
6.0597899999999996
 30
0.0
 70
    32
  0
VERTEX
  5
CA1
  8
240
 10
0.198113
 20
6.0605500000000001
 30
0.0
 70
    32
  0
VERTEX
  5
CA2
  8
240
 10
0.254717
 20
6.0615500000000004
 30
0.0
 70
    32
  0
VERTEX
  5
CA3
  8
240
 10
0.311321
 20
6.0627899999999997
 30
0.0
 70
    32
  0
VERTEX
  5
CA4
  8
240
 10
0.367925
 20
6.0642800000000001
 30
0.0
 70
    32
  0
VERTEX
  5
CA5
  8
240
 10
0.424528
 20
6.0659999999999989
 30
0.0
 70
    32
  0
VERTEX
  5
CA6
  8
240
 10
0.481132
 20
6.0679499999999988
 30
0.0
 70
    32
  0
VERTEX
  5
CA7
  8
240
 10
0.537736
 20
6.0701299999999998
 30
0.0
 70
    32
  0
VERTEX
  5
CA8
  8
240
 10
0.59434
 20
6.0725300000000004
 30
0.0
 70
    32
  0
VERTEX
  5
CA9
  8
240
 10
0.6509430000000001
 20
6.0751599999999986
 30
0.0
 70
    32
  0
VERTEX
  5
CAA
  8
240
 10
0.7075470000000002
 20
6.078009999999999
 30
0.0
 70
    32
  0
VERTEX
  5
CAB
  8
240
 10
0.7641510000000001
 20
6.08108
 30
0.0
 70
    32
  0
VERTEX
  5
CAC
  8
240
 10
0.8207549999999999
 20
6.0843499999999988
 30
0.0
 70
    32
  0
VERTEX
  5
CAD
  8
240
 10
0.8773579999999999
 20
6.087839999999999
 30
0.0
 70
    32
  0
VERTEX
  5
CAE
  8
240
 10
0.933962
 20
6.0915400000000002
 30
0.0
 70
    32
  0
VERTEX
  5
CAF
  8
240
 10
0.990566
 20
6.0954399999999991
 30
0.0
 70
    32
  0
VERTEX
  5
CB0
  8
240
 10
1.0471699999999999
 20
6.0995400000000002
 30
0.0
 70
    32
  0
VERTEX
  5
CB1
  8
240
 10
1.1037699999999999
 20
6.1038300000000003
 30
0.0
 70
    32
  0
VERTEX
  5
CB2
  8
240
 10
1.1603799999999991
 20
6.1083199999999991
 30
0.0
 70
    32
  0
VERTEX
  5
CB3
  8
240
 10
1.2169799999999991
 20
6.1130000000000004
 30
0.0
 70
    32
  0
VERTEX
  5
CB4
  8
240
 10
1.273579999999999
 20
6.117869999999999
 30
0.0
 70
    32
  0
VERTEX
  5
CB5
  8
240
 10
1.3301899999999991
 20
6.1229199999999988
 30
0.0
 70
    32
  0
VERTEX
  5
CB6
  8
240
 10
1.3867899999999991
 20
6.1281499999999989
 30
0.0
 70
    32
  0
VERTEX
  5
CB7
  8
240
 10
1.4434
 20
6.1335600000000001
 30
0.0
 70
    32
  0
VERTEX
  5
CB8
  8
240
 10
1.5
 20
6.139149999999999
 30
0.0
 70
    32
  0
VERTEX
  5
CB9
  8
240
 10
1.5565999999999991
 20
6.1448999999999989
 30
0.0
 70
    32
  0
VERTEX
  5
CBA
  8
240
 10
1.61321
 20
6.15083
 30
0.0
 70
    32
  0
VERTEX
  5
CBB
  8
240
 10
1.6698099999999989
 20
6.1569199999999986
 30
0.0
 70
    32
  0
VERTEX
  5
CBC
  8
240
 10
1.7264200000000001
 20
6.16317
 30
0.0
 70
    32
  0
VERTEX
  5
CBD
  8
240
 10
1.78302
 20
6.1695799999999998
 30
0.0
 70
    32
  0
VERTEX
  5
CBE
  8
240
 10
1.83962
 20
6.1761400000000002
 30
0.0
 70
    32
  0
VERTEX
  5
CBF
  8
240
 10
1.896229999999999
 20
6.1828500000000002
 30
0.0
 70
    32
  0
VERTEX
  5
CC0
  8
240
 10
1.952829999999999
 20
6.1897199999999986
 30
0.0
 70
    32
  0
VERTEX
  5
CC1
  8
240
 10
2.00943
 20
6.1967299999999996
 30
0.0
 70
    32
  0
VERTEX
  5
CC2
  8
240
 10
2.0660400000000001
 20
6.2038799999999998
 30
0.0
 70
    32
  0
VERTEX
  5
CC3
  8
240
 10
2.1226400000000001
 20
6.2111700000000001
 30
0.0
 70
    32
  0
VERTEX
  5
CC4
  8
240
 10
2.1792500000000001
 20
6.218589999999999
 30
0.0
 70
    32
  0
VERTEX
  5
CC5
  8
240
 10
2.2358500000000001
 20
6.2261499999999987
 30
0.0
 70
    32
  0
VERTEX
  5
CC6
  8
240
 10
2.2924500000000001
 20
6.2338399999999989
 30
0.0
 70
    32
  0
VERTEX
  5
CC7
  8
240
 10
2.3490599999999988
 20
6.241649999999999
 30
0.0
 70
    32
  0
VERTEX
  5
CC8
  8
240
 10
2.4056599999999988
 20
6.2495900000000004
 30
0.0
 70
    32
  0
VERTEX
  5
CC9
  8
240
 10
2.4622599999999988
 20
6.257649999999999
 30
0.0
 70
    32
  0
VERTEX
  5
CCA
  8
240
 10
2.5188700000000002
 20
6.2658199999999988
 30
0.0
 70
    32
  0
VERTEX
  5
CCB
  8
240
 10
2.5754700000000001
 20
6.2740999999999989
 30
0.0
 70
    32
  0
VERTEX
  5
CCC
  8
240
 10
2.6320799999999989
 20
6.2824999999999989
 30
0.0
 70
    32
  0
VERTEX
  5
CCD
  8
240
 10
2.6886799999999988
 20
6.2910000000000004
 30
0.0
 70
    32
  0
VERTEX
  5
CCE
  8
240
 10
2.7452799999999988
 20
6.299599999999999
 30
0.0
 70
    32
  0
VERTEX
  5
CCF
  8
240
 10
2.8018900000000002
 20
6.3083099999999988
 30
0.0
 70
    32
  0
VERTEX
  5
CD0
  8
240
 10
2.8584900000000002
 20
6.3171099999999987
 30
0.0
 70
    32
  0
VERTEX
  5
CD1
  8
240
 10
2.9150900000000002
 20
6.3260100000000001
 30
0.0
 70
    32
  0
VERTEX
  5
CD2
  8
240
 10
2.9716999999999989
 20
6.3349900000000003
 30
0.0
 70
    32
  0
VERTEX
  5
CD3
  8
240
 10
3.0283000000000002
 20
6.3440699999999994
 30
0.0
 70
    32
  0
VERTEX
  5
CD4
  8
240
 10
3.0849099999999989
 20
6.3532199999999994
 30
0.0
 70
    32
  0
VERTEX
  5
CD5
  8
240
 10
3.1415099999999989
 20
6.3624599999999987
 30
0.0
 70
    32
  0
VERTEX
  5
CD6
  8
240
 10
3.1981099999999989
 20
6.3717800000000002
 30
0.0
 70
    32
  0
VERTEX
  5
CD7
  8
240
 10
3.2547199999999998
 20
6.38117
 30
0.0
 70
    32
  0
VERTEX
  5
CD8
  8
240
 10
3.3113199999999989
 20
6.3906299999999998
 30
0.0
 70
    32
  0
VERTEX
  5
CD9
  8
240
 10
3.3679199999999989
 20
6.4001599999999987
 30
0.0
 70
    32
  0
VERTEX
  5
CDA
  8
240
 10
3.4245299999999999
 20
6.4097499999999989
 30
0.0
 70
    32
  0
VERTEX
  5
CDB
  8
240
 10
3.4811299999999998
 20
6.4194000000000004
 30
0.0
 70
    32
  0
VERTEX
  5
CDC
  8
240
 10
3.5377399999999999
 20
6.4291199999999993
 30
0.0
 70
    32
  0
VERTEX
  5
CDD
  8
240
 10
3.5943399999999999
 20
6.4388800000000002
 30
0.0
 70
    32
  0
VERTEX
  5
CDE
  8
240
 10
3.6509399999999999
 20
6.4486999999999988
 30
0.0
 70
    32
  0
VERTEX
  5
CDF
  8
240
 10
3.707549999999999
 20
6.458569999999999
 30
0.0
 70
    32
  0
VERTEX
  5
CE0
  8
240
 10
3.764149999999999
 20
6.4684799999999996
 30
0.0
 70
    32
  0
VERTEX
  5
CE1
  8
240
 10
3.820749999999999
 20
6.4784399999999991
 30
0.0
 70
    32
  0
VERTEX
  5
CE2
  8
240
 10
3.877359999999999
 20
6.4884300000000001
 30
0.0
 70
    32
  0
VERTEX
  5
CE3
  8
240
 10
3.933959999999999
 20
6.4984599999999988
 30
0.0
 70
    32
  0
VERTEX
  5
CE4
  8
240
 10
3.9905699999999991
 20
6.508519999999999
 30
0.0
 70
    32
  0
VERTEX
  5
CE5
  8
240
 10
4.0471699999999986
 20
6.5186199999999994
 30
0.0
 70
    32
  0
VERTEX
  5
CE6
  8
240
 10
4.103769999999999
 20
6.5287300000000004
 30
0.0
 70
    32
  0
VERTEX
  5
CE7
  8
240
 10
4.1603799999999991
 20
6.5388699999999993
 30
0.0
 70
    32
  0
VERTEX
  5
CE8
  8
240
 10
4.2169800000000004
 20
6.5490300000000001
 30
0.0
 70
    32
  0
VERTEX
  5
CE9
  8
240
 10
4.273579999999999
 20
6.5591999999999988
 30
0.0
 70
    32
  0
VERTEX
  5
CEA
  8
240
 10
4.3301899999999991
 20
6.5693899999999994
 30
0.0
 70
    32
  0
VERTEX
  5
CEB
  8
240
 10
4.3867900000000004
 20
6.5795899999999987
 30
0.0
 70
    32
  0
VERTEX
  5
CEC
  8
240
 10
4.4433999999999987
 20
6.5897899999999989
 30
0.0
 70
    32
  0
VERTEX
  5
CED
  8
240
 10
4.5
 20
6.5999999999999988
 30
0.0
 70
    32
  0
SEQEND
  5
CEE
  8
240
  0
ARC
  5
B6C
  8
240
  6
CONTINUOUS
 10
-5.7000000000000002
 20
4.5999999999999979
 30
0.0
 40
2.0
 50
90.0
 51
180.0
  0
LINE
  5
B6D
  8
240
  6
CONTINUOUS
 10
-7.7000000000000002
 20
0.0
 30
0.0
 11
-7.7000000000000002
 21
4.5999999999999979
 31
0.0
  0
LINE
  5
B6E
  8
240
  6
CONTINUOUS
 10
-5.7000000000000002
 20
6.5999999999999979
 30
0.0
 11
-4.5
 21
6.5999999999999979
 31
0.0
  0
LINE
  5
B6F
  8
241
  6
CONTINUOUS
 10
7.7000000000000002
 20
3.8689167136077871
 30
0.0
 11
7.7000000000000002
 21
6.5999999999999979
 31
0.0
  0
LINE
  5
B70
  8
241
  6
CONTINUOUS
 10
6.6683956100000001
 20
0.0
 30
0.0
 11
6.6683956100000001
 21
6.349917119999998
 31
0.0
  0
LINE
  5
B72
  8
245
  6
CENTER2
 10
0.0
 20
7.5999999999999988
 30
0.0
 11
0.0
 21
-1.0
 31
0.0
  0
LINE
  5
B73
  8
240
  6
CONTINUOUS
 10
2.23225183
 20
0.0
 30
0.0
 11
8.5
 21
0.0
 31
0.0
  0
LINE
  5
B74
  8
240
  6
CONTINUOUS
 10
2.23225183
 20
0.0
 30
0.0
 11
2.23225183
 21
2.0999999999999992
 31
0.0
  0
LINE
  5
B75
  8
240
  6
CONTINUOUS
 10
-2.23225183
 20
0.0
 30
0.0
 11
-2.23225183
 21
2.0999999999999992
 31
0.0
  0
LINE
  5
B76
  8
240
  6
CONTINUOUS
 10
-2.23225183
 20
2.0999999999999992
 30
0.0
 11
2.23225183
 21
2.0999999999999992
 31
0.0
  0
LINE
  5
B77
  8
241
  6
CONTINUOUS
 10
7.7000000000000002
 20
0.0
 30
0.0
 11
7.6999999999999984
 21
2.7516540526350499
 31
0.0
  0
ARC
  5
B79
  8
241
  6
PHANTOM2
 10
7.5348594399999982
 20
3.335842909999998
 30
0.0
 40
0.3999999999999955
 50
117.00000008000001
 51
237.00000008000009
1001
GRPNAME
1000
PASTMD03
  0
ARC
  5
B7A
  8
241
  6
CONTINUOUS
 10
5.7000000000000002
 20
4.5999999999999979
 30
0.0
 40
2.000000000000004
 50
61.040071889999979
 51
90.0
  0
LINE
  5
B7B
  8
240
  6
PHANTOM2
 10
16.49945181
 20
7.6790656199999976
 30
0.0
 11
15.996352440000001
 21
-1.9206422400000001
 31
0.0
1001
GRPNAME
1000
PASTMD03
  0
LINE
  5
B7C
  8
240
  6
CONTINUOUS
 10
13.0033321
 20
-2.5999999999999992
 30
0.0
 11
15.570213600000001
 21
-2.5999999999999992
 31
0.0
  0
LINE
  5
B7E
  8
240
  6
CONTINUOUS
 10
15.570213600000001
 20
-2.5999999999999992
 30
0.0
 11
15.585959089999999
 21
-2.2995581899999991
 31
0.0
1001
GRPNAME
1000
PASTMD03
  0
ARC
  5
B7F
  8
241
  6
PHANTOM2
 10
15.59690063
 20
-1.899707859999999
 30
0.0
 40
0.3999999999999991
 50
236.99999994000001
 51
268.43252612999999
1001
GRPNAME
1000
PASTMD03
  0
ARC
  5
B80
  8
240
  6
PHANTOM2
 10
15.59690063
 20
-1.899707859999999
 30
0.0
 40
0.3999999999999991
 50
268.43252612999999
 51
356.99999994000001
1001
GRPNAME
1000
PASTMD03
  0
LINE
  5
B81
  8
240
  6
PHANTOM2
 10
14.924403330000001
 20
7.5499340699999982
 30
0.0
 11
15.9184038
 21
8.0564026099999992
 31
0.0
1001
GRPNAME
1000
PASTMD03
  0
LINE
  5
B82
  8
240
  6
CONTINUOUS
 10
9.5370594900000007
 20
6.5999999999999979
 30
0.0
 11
14.924403330000001
 21
7.5499340699999982
 31
0.0
1001
GRPNAME
1000
PASTMD03
  0
ARC
  5
B83
  8
240
  6
PHANTOM2
 10
16.100000000000001
 20
7.6999999999999984
 30
0.0
 40
0.3999999999999788
 50
357.00000002000002
 51
117.00000002
1001
GRPNAME
1000
PASTMD03
  0
CIRCLE
  5
B85
  8
246
 10
13.0772533546104
 20
3.0453783460001991
 30
0.0
 40
3.174999997281795
  0
LINE
  5
BBE
  8
250
 10
0.0
 20
8.0999999999999979
 30
0.0
 11
0.0
 21
18.100000000000001
 31
0.0
  0
LINE
  5
BBF
  8
250
 10
16.5
 20
8.1999999999999975
 30
0.0
 11
16.5
 21
18.100000000000001
 31
0.0
  0
LINE
  5
BC0
  8
250
 10
2.2299999999999991
 20
17.100000000000001
 30
0.0
 11
14.27
 21
17.100000000000001
 31
0.0
  0
TEXT
  5
BCA
  8
250
 10
3.383333333333332
 20
18.100000000000001
 30
0.0
 40
2.799999999999998
  1
16.5
  0
LINE
  5
BCB
  8
250
 10
14.27
 20
17.47166666666666
 30
0.0
 11
16.5
 21
17.100000000000001
 31
0.0
  0
LINE
  5
BCC
  8
250
 10
14.27
 20
16.728333333333332
 30
0.0
 11
16.5
 21
17.100000000000001
 31
0.0
  0
LINE
  5
BCD
  8
250
 10
16.5
 20
17.100000000000001
 30
0.0
 11
14.27
 21
17.100000000000001
 31
0.0
  0
LINE
  5
BCE
  8
250
 10
2.2299999999999991
 20
16.728333333333332
 30
0.0
 11
0.0
 21
17.100000000000001
 31
0.0
  0
LINE
  5
BCF
  8
250
 10
2.2299999999999991
 20
17.47166666666666
 30
0.0
 11
0.0
 21
17.100000000000001
 31
0.0
  0
LINE
  5
BD0
  8
250
 10
0.0
 20
17.100000000000001
 30
0.0
 11
2.2299999999999991
 21
17.100000000000001
 31
0.0
  0
LINE
  5
E7B
  8
250
 10
33.821108255677373
 20
15.31560694350153
 30
0.0
 11
21.002037495619451
 21
15.31560694350153
 31
0.0
  0
LINE
  5
E7C
  8
250
 10
21.002037495619451
 20
15.31560694350153
 30
0.0
 11
16.751200752613538
 21
9.5932910843432797
 31
0.0
  0
LINE
  5
E7D
  8
250
 10
16.751200752613538
 20
9.5932910843432815
 30
0.0
 11
15.421403565
 21
7.8031683399999983
 31
0.0
  0
LINE
  5
E7E
  8
250
 10
16.51552662338425
 20
9.7683622045961798
 30
0.0
 11
15.421403565
 21
7.8031683399999983
 31
0.0
  0
LINE
  5
E7F
  8
250
 10
15.421403565
 20
7.8031683399999983
 30
0.0
 11
16.98687488184283
 21
9.4182199640903796
 31
0.0
  0
TEXT
  5
E80
  8
250
 10
21.154441589010698
 20
16.715606943501541
 30
0.0
 40
2.799999999999998
  1
TC11
  7
ACJISTS
  0
LINE
  5
E83
  8
250
 10
9.0
 20
-0.0000000000000001
 30
0.0
 11
29.0
 21
-0.0000000000000058
 31
0.0
  0
LINE
  5
E84
  8
250
 10
16.600000000000001
 20
8.0999999999999766
 30
0.0
 11
29.0
 21
8.0999999999999712
 31
0.0
  0
LINE
  5
E85
  8
250
 10
28.0
 20
2.2299999999999929
 30
0.0
 11
28.0
 21
5.8699999999999752
 31
0.0
  0
TEXT
  5
E8B
  8
250
 10
27.0
 20
1.116666666666656
 30
0.0
 40
2.799999999999998
  1
8.1
 50
90.0
  0
LINE
  5
E8C
  8
250
 10
27.628333333333341
 20
5.8699999999999743
 30
0.0
 11
28.000000000000011
 21
8.0999999999999712
 31
0.0
  0
LINE
  5
E8D
  8
250
 10
28.37166666666667
 20
5.8699999999999743
 30
0.0
 11
28.000000000000011
 21
8.0999999999999712
 31
0.0
  0
LINE
  5
E8E
  8
250
 10
28.000000000000011
 20
8.0999999999999712
 30
0.0
 11
28.000000000000011
 21
5.8699999999999743
 31
0.0
  0
LINE
  5
E8F
  8
250
 10
28.371666666666659
 20
2.2299999999999929
 30
0.0
 11
28.0
 21
-0.0000000000000055
 31
0.0
  0
LINE
  5
E90
  8
250
 10
27.62833333333333
 20
2.2299999999999929
 30
0.0
 11
28.0
 21
-0.0000000000000055
 31
0.0
  0
LINE
  5
E91
  8
250
 10
28.0
 20
-0.0000000000000055
 30
0.0
 11
28.0
 21
2.2299999999999929
 31
0.0
  0
VIEWPORT
  5
22
 67
     1
  8
0
 10
261.51769911999997
 20
148.5
 30
0.0
 40
523.03539823000006
 41
297.0
 68
     1
 69
     1
1001
ACAD
1000
MVIEW
1002
{
1070
    16
1010
0.0
1020
0.0
1030
0.0
1010
0.0
1020
0.0
1030
1.0
1040
0.0
1040
297.0
1040
261.51769911999997
1040
148.5
1040
50.0
1040
0.0
1040
0.0
1070
     0
1070
   100
1070
     1
1070
     1
1070
     0
1070
     0
1070
     0
1070
     0
1040
0.0
1040
0.0
1040
0.0
1040
1.0
1040
1.0
1040
10.0
1040
10.0
1070
     0
1002
{
1002
}
1002
}
1001
GENIUS_GENODEF_13
1002
{
1000
HIER
1070
     0
1002
}
1002
{
1000
MANEDIT
1070
     0
1002
}
1002
{
1000
NOSEL
1070
     0
1002
}
1002
{
1000
BEHIND
1070
     0
1002
}
1002
{
1000
OTHER
1070
     0
1002
}
1002
{
1000
REACTOR
1002
}
1001
GENIUS_GENOBJ-N-SDF_13
1002
{
1000
OWNER
1000
GEN
1002
}
1001
GENIUS_GENSCREG_15
1000
PF
1040
1.0
1000
DF
1040
1.0
1000
MIN
1011
0.0000000049999471
1021
0.0
1031
0.0
1021
0.0
1031
0.0
1000
MAX
1011
523.035398235
1021
0.0
1031
0.0
1021
297.0
1031
0.0
1000
FLAGS
1070
     4
  0
ENDSEC
  0
EOF
