  0
SECTION
  2
HEADER
  9
$ACADVER
  1
AC1009
  9
$INSBASE
 10
0.0
 20
0.0
 30
0.0
  9
$EXTMIN
 10
-5.6999999999999877
 20
-4.4600000000017754
 30
0.0
  9
$EXTMAX
 10
31.305094508022648
 20
31.0
 30
0.0
  9
$LIMMIN
 10
0.0
 20
0.0
  9
$LIMMAX
 10
297.0
 20
210.0
  9
$ORTHOMODE
 70
     0
  9
$REGENMODE
 70
     1
  9
$FILLMODE
 70
     1
  9
$QTEXTMODE
 70
     0
  9
$MIRRTEXT
 70
     1
  9
$DRAGMODE
 70
     2
  9
$LTSCALE
 40
10.0
  9
$OSMODE
 70
    63
  9
$ATTMODE
 70
     1
  9
$TEXTSIZE
 40
3.0
  9
$TRACEWID
 40
1.0
  9
$TEXTSTYLE
  7
YOKO
  9
$CLAYER
  8
241
  9
$CELTYPE
  6
BYLAYER
  9
$CECOLOR
 62
   256
  9
$DIMSCALE
 40
1.0
  9
$DIMASZ
 40
2.2299999999999991
  9
$DIMEXO
 40
0.5
  9
$DIMDLI
 40
7.0
  9
$DIMRND
 40
0.0
  9
$DIMDLE
 40
0.0
  9
$DIMEXE
 40
1.0
  9
$DIMTP
 40
0.0
  9
$DIMTM
 40
0.01
  9
$DIMTXT
 40
2.7999999999999989
  9
$DIMCEN
 40
0.0
  9
$DIMTSZ
 40
0.0
  9
$DIMTOL
 70
     0
  9
$DIMLIM
 70
     0
  9
$DIMTIH
 70
     0
  9
$DIMTOH
 70
     0
  9
$DIMSE1
 70
     0
  9
$DIMSE2
 70
     0
  9
$DIMTAD
 70
     3
  9
$DIMZIN
 70
     9
  9
$DIMBLK
  1
OPEN
  9
$DIMASO
 70
     1
  9
$DIMSHO
 70
     1
  9
$DIMPOST
  1

  9
$DIMAPOST
  1

  9
$DIMALT
 70
     0
  9
$DIMALTD
 70
     2
  9
$DIMALTF
 40
25.399999999999999
  9
$DIMLFAC
 40
1.0
  9
$DIMTOFL
 70
     1
  9
$DIMTVP
 40
0.0
  9
$DIMTIX
 70
     1
  9
$DIMSOXD
 70
     0
  9
$DIMSAH
 70
     0
  9
$DIMBLK1
  1

  9
$DIMBLK2
  1

  9
$DIMSTYLE
  2
BIGT
  9
$DIMCLRD
 70
   256
  9
$DIMCLRE
 70
   256
  9
$DIMCLRT
 70
    40
  9
$DIMTFAC
 40
1.0
  9
$DIMGAP
 40
1.0
  9
$LUNITS
 70
     2
  9
$LUPREC
 70
     6
  9
$SKETCHINC
 40
1.0
  9
$FILLETRAD
 40
0.0
  9
$AUNITS
 70
     0
  9
$AUPREC
 70
     6
  9
$MENU
  1
.
  9
$ELEVATION
 40
0.0
  9
$PELEVATION
 40
0.0
  9
$THICKNESS
 40
0.0
  9
$LIMCHECK
 70
     0
  9
$BLIPMODE
 70
     0
  9
$CHAMFERA
 40
0.2
  9
$CHAMFERB
 40
0.2
  9
$SKPOLY
 70
     0
  9
$TDCREATE
 40
2457143.7556859842
  9
$TDUPDATE
 40
2457143.7791576278
  9
$TDINDWG
 40
0.0051672569
  9
$TDUSRTIMER
 40
0.0051672222
  9
$USRTIMER
 70
     1
  9
$ANGBASE
 50
0.0
  9
$ANGDIR
 70
     0
  9
$PDMODE
 70
     1
  9
$PDSIZE
 40
0.0
  9
$PLINEWID
 40
0.0
  9
$COORDS
 70
     1
  9
$SPLFRAME
 70
     0
  9
$SPLINETYPE
 70
     6
  9
$SPLINESEGS
 70
     4
  9
$ATTDIA
 70
     1
  9
$ATTREQ
 70
     1
  9
$HANDLING
 70
     1
  9
$HANDSEED
  5
478B
  9
$SURFTAB1
 70
     6
  9
$SURFTAB2
 70
     6
  9
$SURFTYPE
 70
     6
  9
$SURFU
 70
     6
  9
$SURFV
 70
     6
  9
$UCSNAME
  2

  9
$UCSORG
 10
0.0
 20
0.0
 30
0.0
  9
$UCSXDIR
 10
1.0
 20
0.0
 30
0.0
  9
$UCSYDIR
 10
0.0
 20
1.0
 30
0.0
  9
$PUCSNAME
  2

  9
$PUCSORG
 10
0.0
 20
0.0
 30
0.0
  9
$PUCSXDIR
 10
1.0
 20
0.0
 30
0.0
  9
$PUCSYDIR
 10
0.0
 20
1.0
 30
0.0
  9
$USERI1
 70
     1
  9
$USERI2
 70
     0
  9
$USERI3
 70
     0
  9
$USERI4
 70
     0
  9
$USERI5
 70
     0
  9
$USERR1
 40
0.0
  9
$USERR2
 40
0.0
  9
$USERR3
 40
0.0
  9
$USERR4
 40
0.0
  9
$USERR5
 40
0.0
  9
$WORLDVIEW
 70
     1
  9
$SHADEDGE
 70
     3
  9
$SHADEDIF
 70
    70
  9
$TILEMODE
 70
     1
  9
$MAXACTVP
 70
    16
  9
$PLIMCHECK
 70
     0
  9
$PEXTMIN
 10
1.0000000000000000E+020
 20
1.0000000000000000E+020
 30
1.0000000000000000E+020
  9
$PEXTMAX
 10
-1.0000000000000000E+020
 20
-1.0000000000000000E+020
 30
-1.0000000000000000E+020
  9
$PLIMMIN
 10
0.0
 20
0.0
  9
$PLIMMAX
 10
420.0
 20
297.0
  9
$UNITMODE
 70
     0
  9
$VISRETAIN
 70
     1
  9
$PLINEGEN
 70
     0
  9
$PSLTSCALE
 70
     1
  0
ENDSEC
  0
SECTION
  2
TABLES
  0
TABLE
  2
VPORT
 70
     1
  0
VPORT
  2
*ACTIVE
 70
     0
 10
0.0
 20
0.0
 11
1.0
 21
1.0
 12
14.805276778086521
 22
14.69333363155889
 13
0.0
 23
0.0
 14
7.0
 24
7.0
 15
7.0
 25
7.0
 16
0.0
 26
0.0
 36
1.0
 17
0.0
 27
0.0
 37
0.0
 40
47.984383341421818
 41
1.0634278002699049
 42
50.0
 43
0.0
 44
0.0
 50
0.0
 51
0.0
 71
     0
 72
  2000
 73
     1
 74
     0
 75
     1
 76
     1
 77
     0
 78
     0
  0
ENDTAB
  0
TABLE
  2
LTYPE
 70
    13
  0
LTYPE
  2
CONTINUOUS
 70
     0
  3
Solid line
 72
    65
 73
     0
 40
0.0
  0
LTYPE
  2
CENTER2
 70
     0
  3
___ _ ___ _ ___ _ ___ _ ___ _ ___ _ ___ _ ___ _
 72
    65
 73
     4
 40
1.125
 49
0.75
 49
-0.125
 49
0.125
 49
-0.125
  0
LTYPE
  2
HIDDEN2
 70
     0
  3
_ _ _ _ _ _ _ _ _ _ _ _ _ _ _ _ _ _ _ _ _ _ _ _
 72
    65
 73
     2
 40
0.1875
 49
0.125
 49
-0.0625
  0
LTYPE
  2
PHANTOM2
 70
     0
  3
___ _ _ ___ _ _ ___ _ _ ___ _ _ ___ _ _ ___ _ _
 72
    65
 73
     6
 40
1.25
 49
0.625
 49
-0.125
 49
0.125
 49
-0.125
 49
0.125
 49
-0.125
  0
LTYPE
  2
AM_ISO02W050
 70
     0
  3
__ __ __ __ __ __ __ __ __ __ __ __ __ __ __
 72
    65
 73
     2
 40
7.5
 49
6.0
 49
-1.5
  0
LTYPE
  2
AMCONSTR
 70
     0
  3
_______________________
 72
    65
 73
     2
 40
9999.0
 49
9999.0
 49
0.0
  0
LTYPE
  2
ACISOWELD
 70
     0
  3
_ _ _ _ _
 72
    65
 73
     2
 40
2.0
 49
2.0
 49
-1.0
  0
LTYPE
  2
ACISOTGB
 70
     0
  3
__ . . __ . .
 72
    65
 73
     6
 40
9.0
 49
4.0
 49
-1.0
 49
1.0
 49
-1.0
 49
1.0
 49
-1.0
  0
LTYPE
  2
ACISOTGL
 70
     0
  3
_ _ _ _ _
 72
    65
 73
     2
 40
3.0
 49
2.0
 49
-1.0
  0
LTYPE
  2
ACJISTGB
 70
     0
  3
__ . . __ . .
 72
    65
 73
     6
 40
9.0
 49
4.0
 49
-1.0
 49
1.0
 49
-1.0
 49
1.0
 49
-1.0
  0
LTYPE
  2
ACJISTGL
 70
     0
  3
_ _ _ _ _
 72
    65
 73
     2
 40
3.0
 49
2.0
 49
-1.0
  0
ENDTAB
  0
TABLE
  2
LAYER
 70
     7
  0
LAYER
  2
0
 70
     0
 62
     7
  6
CONTINUOUS
  0
LAYER
  2
DEFPOINTS
 70
     0
 62
     7
  6
CONTINUOUS
  0
LAYER
  2
245
 70
     0
 62
     2
  6
CENTER2
  0
LAYER
  2
240
 70
     0
 62
     4
  6
CONTINUOUS
  0
LAYER
  2
241
 70
     0
 62
   211
  6
CONTINUOUS
  0
LAYER
  2
246
 70
     0
 62
     3
  6
PHANTOM2
  0
LAYER
  2
250
 70
     0
 62
     3
  6
CONTINUOUS
  0
ENDTAB
  0
TABLE
  2
STYLE
 70
     6
  0
STYLE
  2
STANDARD
 70
     0
 40
0.0
 41
1.0
 50
0.0
 71
     0
 42
3.0
  3
romans.shx
  4
extfont.shx
  0
STYLE
  2
ACISOTS
 70
     0
 40
1.0
 41
1.0
 50
0.0
 71
     0
 42
3.0
  3
amgdt.shx
  4
extfont.shx
  0
STYLE
  2
ACISOGDT
 70
     0
 40
0.0
 41
1.0
 50
0.0
 71
     0
 42
3.0
  3
amgdt.shx
  4
extfont.shx
  0
STYLE
  2
ACJISTS
 70
     0
 40
1.0
 41
1.0
 50
0.0
 71
     0
 42
3.0
  3
amgdt.shx
  4
extfont.shx
  0
STYLE
  2
ACJISGDT
 70
     0
 40
0.0
 41
1.0
 50
0.0
 71
     0
 42
3.0
  3
amgdt.shx
  4
extfont.shx
  0
STYLE
  2
YOKO
 70
     0
 40
0.0
 41
1.0
 50
0.0
 71
     0
 42
3.0
  3
romans.shx
  4
extfont.shx
  0
ENDTAB
  0
TABLE
  2
VIEW
 70
     0
  0
ENDTAB
  0
TABLE
  2
UCS
 70
     0
  0
ENDTAB
  0
TABLE
  2
APPID
 70
    35
  0
APPID
  2
ACAD
 70
     0
  0
APPID
  2
GLOBAL
 70
     0
  0
APPID
  2
DETAIL
 70
     0
  0
APPID
  2
GRPNAME
 70
     0
  0
APPID
  2
GPARA
 70
     0
  0
APPID
  2
MCAD_NO_VIS
 70
     0
  0
APPID
  2
ACAD_TEMP_GRAPHIC
 70
     0
  0
APPID
  2
ACATTRIBSERVICES
 70
     0
  0
APPID
  2
GENIUS_GENSCREG_15
 70
     0
  0
APPID
  2
GENIUS_GENODEF_13
 70
     0
  0
APPID
  2
GENIUS_GENOBJ-N-SDF_13
 70
     0
  0
APPID
  2
GENIUS_GENREC_14
 70
     0
  0
APPID
  2
GENIUS_GENOBJ-N-REC_13
 70
     0
  0
APPID
  2
GENIUS_GENDIMSH_14
 70
     0
  0
APPID
  2
GENIUS_GENOBJ-N-DIM_13
 70
     0
  0
APPID
  2
GENIUS_GENDIM_13
 70
     0
  0
APPID
  2
GENIUS_GENDTOL_13
 70
     0
  0
APPID
  2
GENIUS_GENOLIS_13
 70
     0
  0
APPID
  2
GENIUS_GENOENT_13
 70
     0
  0
APPID
  2
GENIUS_GENOBJ-F-FEM_13
 70
     0
  0
APPID
  2
GENIUS_GENOREF_13
 70
     0
  0
APPID
  2
GENIUS_GEFFEM_13
 70
     0
  0
APPID
  2
GENIUS_GEFFEMP_13
 70
     0
  0
APPID
  2
AD_DRAW
 70
     0
  0
APPID
  2
DESIGNERASSEMBLIES
 70
     0
  0
APPID
  2
ACADM_DIM_EDIT
 70
     0
  0
APPID
  2
AMDT_DM_ADJ
 70
     0
  0
APPID
  2
ITEMNAME
 70
     0
  0
APPID
  2
GENIUS_GENOBJ-N-FIL_13
 70
     0
  0
APPID
  2
GENIUS_GENFIL_13
 70
     0
  0
APPID
  2
GENIUS_GENOBJ-N-CHA_13
 70
     0
  0
APPID
  2
ACAD_NAV_VCDISPLAY
 70
     0
  0
APPID
  2
ACAD_DSTYLE_DIMINSPECT
 70
     0
  0
APPID
  2
ACAD_EXEMPT_FROM_CAD_STANDARDS
 70
     0
  0
APPID
  2
ACAD_MLEADERVER
 70
     0
  0
ENDTAB
  0
TABLE
  2
DIMSTYLE
 70
    23
  0
DIMSTYLE
  2
BIGT
 70
     0
  3

  4

  5
OPEN
  6

  7

 40
1.0
 41
2.2299999999999991
 42
0.5
 43
7.0
 44
1.0
 45
0.0
 46
0.0
 47
0.0
 48
0.01
140
2.7999999999999989
141
0.0
142
0.0
143
25.399999999999999
144
1.0
145
0.0
146
1.0
147
1.0
 71
     0
 72
     0
 73
     0
 74
     0
 75
     0
 76
     0
 77
     3
 78
     9
170
     0
171
     2
172
     1
173
     0
174
     1
175
     0
176
   256
177
   256
178
    40
  0
DIMSTYLE
  2
AM_ISO
 70
     0
  3

  4
"
  5

  6

  7

 40
1.0
 41
2.5
 42
1.0
 43
10.0
 44
1.0
 45
0.0
 46
0.0
 47
0.1
 48
0.1
140
3.5
141
0.0
142
0.0
143
0.0393701
144
1.0
145
0.0
146
0.71
147
1.5
 71
     0
 72
     0
 73
     0
 74
     0
 75
     0
 76
     0
 77
     1
 78
     8
170
     0
171
     2
172
     1
173
     0
174
     0
175
     0
176
   256
177
   256
178
     2
  0
DIMSTYLE
  2
AM_ISO$3
 70
     0
  3

  4
"
  5

  6

  7

 40
1.0
 41
2.5
 42
1.0
 43
10.0
 44
1.0
 45
0.0
 46
0.0
 47
0.1
 48
0.1
140
3.5
141
0.0
142
0.0
143
0.0393701
144
1.0
145
0.0
146
0.71
147
1.5
 71
     0
 72
     0
 73
     0
 74
     1
 75
     0
 76
     0
 77
     1
 78
     8
170
     0
171
     2
172
     0
173
     0
174
     0
175
     0
176
   256
177
   256
178
     2
  0
DIMSTYLE
  2
AM_ISO$4
 70
     0
  3

  4
"
  5

  6

  7

 40
1.0
 41
2.5
 42
1.0
 43
10.0
 44
1.0
 45
0.0
 46
0.0
 47
0.1
 48
0.1
140
3.5
141
0.0
142
0.0
143
0.0393701
144
1.0
145
0.0
146
0.71
147
1.5
 71
     0
 72
     0
 73
     0
 74
     1
 75
     0
 76
     0
 77
     1
 78
     8
170
     0
171
     2
172
     0
173
     0
174
     0
175
     0
176
   256
177
   256
178
     2
  0
DIMSTYLE
  2
AM_ISO$6
 70
     0
  3

  4
"
  5

  6

  7

 40
1.0
 41
2.5
 42
1.0
 43
10.0
 44
1.0
 45
0.0
 46
0.0
 47
0.1
 48
0.1
140
3.5
141
0.0
142
0.0
143
0.0393701
144
1.0
145
0.0
146
0.71
147
1.5
 71
     0
 72
     0
 73
     0
 74
     0
 75
     0
 76
     0
 77
     0
 78
     8
170
     0
171
     2
172
     1
173
     0
174
     0
175
     0
176
   256
177
   256
178
     2
  0
DIMSTYLE
  2
AM_ISO$7
 70
     0
  3

  4
"
  5

  6

  7

 40
1.0
 41
2.5
 42
1.0
 43
10.0
 44
1.0
 45
0.0
 46
0.0
 47
0.1
 48
0.1
140
5.0
141
0.0
142
0.0
143
0.0393701
144
1.0
145
0.0
146
0.71
147
1.5
 71
     0
 72
     0
 73
     0
 74
     0
 75
     0
 76
     0
 77
     1
 78
     8
170
     0
171
     2
172
     1
173
     0
174
     0
175
     0
176
   256
177
   256
178
     2
  0
DIMSTYLE
  2
AM_ISO$SF
 70
     0
  3

  4
"
  5

  6

  7

 40
1.0
 41
2.5
 42
1.0
 43
10.0
 44
1.0
 45
0.0
 46
0.0
 47
0.1
 48
0.1
140
3.5
141
0.0
142
0.0
143
0.0393701
144
1.0
145
0.0
146
0.71
147
1.5
 71
     0
 72
     0
 73
     0
 74
     0
 75
     1
 76
     1
 77
     1
 78
     8
170
     0
171
     2
172
     1
173
     0
174
     0
175
     0
176
   256
177
   256
178
     2
  0
DIMSTYLE
  2
AM_ISO$SH
 70
     0
  3

  4
"
  5

  6
GENAXEH
  7

 40
1.0
 41
2.5
 42
1.0
 43
10.0
 44
1.0
 45
0.0
 46
0.0
 47
0.1
 48
0.1
140
3.5
141
0.0
142
0.0
143
0.0393701
144
2.0
145
0.0
146
0.71
147
1.5
 71
     0
 72
     0
 73
     0
 74
     0
 75
     1
 76
     1
 77
     1
 78
     8
170
     0
171
     2
172
     1
173
     1
174
     0
175
     0
176
   256
177
   256
178
     2
  0
DIMSTYLE
  2
BIGT$2
 70
     0
  3

  4

  5
OPEN
  6

  7

 40
1.0
 41
2.2299999999999991
 42
0.5
 43
7.0
 44
1.0
 45
0.0
 46
0.0
 47
0.0
 48
0.01
140
2.7999999999999989
141
0.0
142
0.0
143
25.399999999999999
144
1.0
145
0.0
146
1.0
147
1.0
 71
     0
 72
     0
 73
     0
 74
     0
 75
     0
 76
     0
 77
     3
 78
     9
170
     0
171
     2
172
     1
173
     0
174
     0
175
     0
176
   256
177
   256
178
    40
  0
DIMSTYLE
  2
BIGT$3
 70
     0
  3

  4

  5
OPEN
  6

  7

 40
1.0
 41
2.2299999999999991
 42
0.5
 43
2.5
 44
1.0
 45
0.0
 46
0.0
 47
0.0
 48
0.01
140
2.7999999999999989
141
0.0
142
0.0
143
25.399999999999999
144
1.0
145
0.0
146
1.0
147
1.0
 71
     0
 72
     0
 73
     0
 74
     0
 75
     0
 76
     0
 77
     3
 78
     9
170
     0
171
     2
172
     1
173
     0
174
     0
175
     0
176
   256
177
   256
178
    40
  0
DIMSTYLE
  2
BIGT$7
 70
     0
  3

  4

  5
OPEN
  6

  7

 40
0.0
 41
2.2299999999999991
 42
0.5
 43
7.0
 44
1.0
 45
0.0
 46
0.0
 47
0.0
 48
0.01
140
2.7999999999999989
141
0.0
142
0.0
143
25.399999999999999
144
1.0
145
0.0
146
1.0
147
1.0
 71
     0
 72
     0
 73
     0
 74
     0
 75
     0
 76
     0
 77
     3
 78
     9
170
     0
171
     2
172
     0
173
     0
174
     0
175
     0
176
   256
177
   256
178
    40
  0
DIMSTYLE
  2
BIGT$6
 70
     0
  3

  4

  5
OPEN
  6

  7

 40
1.0
 41
2.2299999999999991
 42
0.5
 43
2.5
 44
1.0
 45
0.0
 46
0.0
 47
0.0
 48
0.01
140
2.7999999999999989
141
0.0
142
0.0
143
25.399999999999999
144
1.0
145
0.0
146
1.0
147
1.0
 71
     0
 72
     0
 73
     0
 74
     0
 75
     0
 76
     0
 77
     3
 78
     9
170
     0
171
     2
172
     1
173
     0
174
     0
175
     0
176
   256
177
   256
178
    40
  0
DIMSTYLE
  2
BIGT$0
 70
     0
  3

  4

  5
OPEN
  6

  7

 40
1.0
 41
2.2299999999999991
 42
0.5
 43
7.0
 44
1.0
 45
0.0
 46
0.0
 47
0.0
 48
0.01
140
2.7999999999999989
141
0.0
142
0.0
143
25.399999999999999
144
1.0
145
0.0
146
1.0
147
1.0
 71
     0
 72
     0
 73
     0
 74
     0
 75
     0
 76
     0
 77
     3
 78
     9
170
     0
171
     2
172
     1
173
     0
174
     1
175
     0
176
   256
177
   256
178
    40
  0
DIMSTYLE
  2
BIGT$4
 70
     0
  3

  4

  5
OPEN
  6

  7

 40
1.0
 41
2.2299999999999991
 42
0.5
 43
2.5
 44
1.0
 45
0.0
 46
0.0
 47
0.0
 48
0.01
140
2.7999999999999989
141
0.0
142
0.0
143
25.399999999999999
144
1.0
145
0.0
146
1.0
147
1.0
 71
     0
 72
     0
 73
     0
 74
     0
 75
     0
 76
     0
 77
     3
 78
     9
170
     0
171
     2
172
     1
173
     0
174
     0
175
     0
176
   256
177
   256
178
    40
  0
DIMSTYLE
  2
BIGT$SH
 70
     0
  3

  4

  5
OPEN
  6

  7

 40
1.0
 41
2.2299999999999991
 42
0.5
 43
7.0
 44
1.0
 45
0.0
 46
0.0
 47
0.0
 48
0.0
140
2.7999999999999989
141
0.0
142
0.0
143
25.399999999999999
144
1.0
145
0.0
146
1.0
147
1.0
 71
     0
 72
     0
 73
     0
 74
     0
 75
     0
 76
     0
 77
     3
 78
     9
170
     0
171
     2
172
     1
173
     0
174
     0
175
     0
176
   256
177
   256
178
    40
  0
DIMSTYLE
  2
BIGT$SF
 70
     0
  3

  4

  5
OPEN
  6

  7

 40
1.0
 41
2.2299999999999991
 42
0.5
 43
7.0
 44
1.0
 45
0.0
 46
0.0
 47
0.0
 48
0.0
140
2.7999999999999989
141
0.0
142
0.0
143
25.399999999999999
144
1.0
145
0.0
146
1.0
147
1.0
 71
     0
 72
     0
 73
     0
 74
     0
 75
     0
 76
     0
 77
     3
 78
     9
170
     0
171
     2
172
     1
173
     0
174
     0
175
     0
176
   256
177
   256
178
    40
  0
DIMSTYLE
  2
TECHNICAL_OSAKA
 70
     0
  3

  4
"
  5
OPEN30
  6

  7

 40
1.0
 41
2.5
 42
1.0
 43
10.0
 44
1.0
 45
0.0
 46
0.0
 47
0.1
 48
0.1
140
2.7999999999999989
141
0.0
142
0.0
143
0.0393701
144
1.0
145
0.0
146
0.71
147
1.5
 71
     0
 72
     0
 73
     0
 74
     0
 75
     0
 76
     0
 77
     3
 78
     8
170
     0
171
     2
172
     1
173
     0
174
     0
175
     0
176
   256
177
   256
178
    40
  0
DIMSTYLE
  2
TECHNICAL_OSAKA$3
 70
     0
  3

  4
"
  5
OPEN30
  6

  7

 40
1.0
 41
2.5
 42
1.0
 43
10.0
 44
1.0
 45
0.0
 46
0.0
 47
0.1
 48
0.1
140
2.7999999999999989
141
0.0
142
0.0
143
0.0393701
144
1.0
145
0.0
146
0.71
147
1.5
 71
     0
 72
     0
 73
     0
 74
     1
 75
     0
 76
     0
 77
     3
 78
     8
170
     0
171
     2
172
     0
173
     0
174
     0
175
     0
176
   256
177
   256
178
    40
  0
DIMSTYLE
  2
TECHNICAL_OSAKA$4
 70
     0
  3

  4
"
  5
OPEN30
  6

  7

 40
1.0
 41
2.5
 42
1.0
 43
10.0
 44
1.0
 45
0.0
 46
0.0
 47
0.1
 48
0.1
140
2.7999999999999989
141
0.0
142
0.0
143
0.0393701
144
1.0
145
0.0
146
0.71
147
1.5
 71
     0
 72
     0
 73
     0
 74
     1
 75
     0
 76
     0
 77
     3
 78
     8
170
     0
171
     2
172
     0
173
     0
174
     0
175
     0
176
   256
177
   256
178
    40
  0
DIMSTYLE
  2
TECHNICAL_OSAKA$6
 70
     0
  3

  4
"
  5
OPEN30
  6

  7

 40
1.0
 41
2.5
 42
1.0
 43
10.0
 44
1.0
 45
0.0
 46
0.0
 47
0.1
 48
0.1
140
2.7999999999999989
141
0.0
142
0.0
143
0.0393701
144
1.0
145
0.0
146
0.71
147
1.5
 71
     0
 72
     0
 73
     0
 74
     0
 75
     0
 76
     0
 77
     0
 78
     8
170
     0
171
     2
172
     1
173
     0
174
     0
175
     0
176
   256
177
   256
178
    40
  0
DIMSTYLE
  2
TECHNICAL_OSAKA$7
 70
     0
  3

  4
"
  5
OPEN30
  6

  7

 40
1.0
 41
2.5
 42
1.0
 43
10.0
 44
1.0
 45
0.0
 46
0.0
 47
0.1
 48
0.1
140
2.7999999999999989
141
0.0
142
0.0
143
0.0393701
144
1.0
145
0.0
146
0.71
147
1.5
 71
     0
 72
     0
 73
     0
 74
     0
 75
     0
 76
     0
 77
     3
 78
     8
170
     0
171
     2
172
     1
173
     0
174
     0
175
     0
176
   256
177
   256
178
    40
  0
DIMSTYLE
  2
TECHNICAL_OSAKA$SF
 70
     0
  3

  4
"
  5
OPEN30
  6
OPEN30
  7
OPEN30
 40
1.0
 41
2.5
 42
1.0
 43
10.0
 44
1.0
 45
0.0
 46
0.0
 47
0.1
 48
0.1
140
3.5
141
0.0
142
0.0
143
0.0393701
144
1.0
145
0.0
146
0.71
147
1.5
 71
     0
 72
     0
 73
     0
 74
     0
 75
     1
 76
     1
 77
     3
 78
     8
170
     0
171
     2
172
     1
173
     0
174
     0
175
     0
176
   256
177
   256
178
    40
  0
DIMSTYLE
  2
TECHNICAL_OSAKA$SH
 70
     0
  3

  4
"
  5
OPEN30
  6
GENAXEH
  7
OPEN30
 40
1.0
 41
2.5
 42
1.0
 43
10.0
 44
1.0
 45
0.0
 46
0.0
 47
0.1
 48
0.1
140
3.5
141
0.0
142
0.0
143
0.0393701
144
2.0
145
0.0
146
0.71
147
1.5
 71
     0
 72
     0
 73
     0
 74
     0
 75
     1
 76
     1
 77
     3
 78
     8
170
     0
171
     2
172
     1
173
     1
174
     0
175
     0
176
   256
177
   256
178
    40
  0
ENDTAB
  0
ENDSEC
  0
SECTION
  2
BLOCKS
  0
BLOCK
  8
0
  2
$MODEL_SPACE
 70
     0
 10
0.0
 20
0.0
 30
0.0
  3
$MODEL_SPACE
  1

  0
ENDBLK
  5
1C
  8
0
  0
BLOCK
 67
     1
  8
0
  2
$PAPER_SPACE
 70
     0
 10
0.0
 20
0.0
 30
0.0
  3
$PAPER_SPACE
  1

  0
ENDBLK
  5
19
 67
     1
  8
0
  0
BLOCK
  8
0
  2
_OPEN
 70
     0
 10
0.0
 20
0.0
 30
0.0
  3
_OPEN
  1

  0
LINE
  5
44B8
  8
0
  6
BYBLOCK
 62
     0
 10
-1.0
 20
0.1666666666666666
 30
0.0
 11
0.0
 21
0.0
 31
0.0
  0
LINE
  5
44B9
  8
0
  6
BYBLOCK
 62
     0
 10
-1.0
 20
-0.1666666666666666
 30
0.0
 11
0.0
 21
0.0
 31
0.0
  0
LINE
  5
44BA
  8
0
  6
BYBLOCK
 62
     0
 10
0.0
 20
0.0
 30
0.0
 11
-1.0
 21
0.0
 31
0.0
  0
ENDBLK
  5
44BB
  8
0
  0
BLOCK
  8
0
  2
GENAXEH
 70
     0
 10
0.0
 20
0.0
 30
0.0
  3
GENAXEH
  1

  0
LINE
  5
44F3
  8
0
 10
-1.0
 20
0.0
 30
0.0
 11
1.0
 21
0.0
 31
0.0
  0
ENDBLK
  5
44F4
  8
0
  0
BLOCK
  8
0
  2
_OPEN30
 70
     0
 10
0.0
 20
0.0
 30
0.0
  3
_OPEN30
  1

  0
LINE
  5
452F
  8
0
  6
BYBLOCK
 62
     0
 10
-1.0
 20
0.26794919
 30
0.0
 11
0.0
 21
0.0
 31
0.0
  0
LINE
  5
4530
  8
0
  6
BYBLOCK
 62
     0
 10
0.0
 20
0.0
 30
0.0
 11
-1.0
 21
-0.26794919
 31
0.0
  0
LINE
  5
4531
  8
0
  6
BYBLOCK
 62
     0
 10
0.0
 20
0.0
 30
0.0
 11
-1.0
 21
0.0
 31
0.0
  0
ENDBLK
  5
4532
  8
0
  0
ENDSEC
  0
SECTION
  2
ENTITIES
  0
POLYLINE
  8
240
  5
45A5
  66
     1
 10
0.000000
 20
0.000000
 30
0.000000
  70
     8
  0
VERTEX
  8
240
  5
45A6
 10
-3.04210
 20
5.35378
 30
0.000000
  70
    32
  0
VERTEX
  8
240
  5
45A7
 10
-3.00383
 20
5.34741
 30
0.000000
  70
    32
  0
VERTEX
  8
240
  5
45A8
 10
-2.96557
 20
5.34104
 30
0.000000
  70
    32
  0
VERTEX
  8
240
  5
45A9
 10
-2.92730
 20
5.33467
 30
0.000000
  70
    32
  0
VERTEX
  8
240
  5
45AA
 10
-2.88903
 20
5.32831
 30
0.000000
  70
    32
  0
VERTEX
  8
240
  5
45AB
 10
-2.85077
 20
5.32196
 30
0.000000
  70
    32
  0
VERTEX
  8
240
  5
45AC
 10
-2.81250
 20
5.31562
 30
0.000000
  70
    32
  0
VERTEX
  8
240
  5
45AD
 10
-2.77424
 20
5.30929
 30
0.000000
  70
    32
  0
VERTEX
  8
240
  5
45AE
 10
-2.73597
 20
5.30297
 30
0.000000
  70
    32
  0
VERTEX
  8
240
  5
45AF
 10
-2.69771
 20
5.29667
 30
0.000000
  70
    32
  0
VERTEX
  8
240
  5
45B0
 10
-2.65944
 20
5.29039
 30
0.000000
  70
    32
  0
VERTEX
  8
240
  5
45B1
 10
-2.62118
 20
5.28413
 30
0.000000
  70
    32
  0
VERTEX
  8
240
  5
45B2
 10
-2.58291
 20
5.27789
 30
0.000000
  70
    32
  0
VERTEX
  8
240
  5
45B3
 10
-2.54465
 20
5.27167
 30
0.000000
  70
    32
  0
VERTEX
  8
240
  5
45B4
 10
-2.50638
 20
5.26548
 30
0.000000
  70
    32
  0
VERTEX
  8
240
  5
45B5
 10
-2.46812
 20
5.25932
 30
0.000000
  70
    32
  0
VERTEX
  8
240
  5
45B6
 10
-2.42985
 20
5.25319
 30
0.000000
  70
    32
  0
VERTEX
  8
240
  5
45B7
 10
-2.39159
 20
5.24709
 30
0.000000
  70
    32
  0
VERTEX
  8
240
  5
45B8
 10
-2.35332
 20
5.24103
 30
0.000000
  70
    32
  0
VERTEX
  8
240
  5
45B9
 10
-2.31505
 20
5.23500
 30
0.000000
  70
    32
  0
VERTEX
  8
240
  5
45BA
 10
-2.27679
 20
5.22901
 30
0.000000
  70
    32
  0
VERTEX
  8
240
  5
45BB
 10
-2.23852
 20
5.22306
 30
0.000000
  70
    32
  0
VERTEX
  8
240
  5
45BC
 10
-2.20026
 20
5.21715
 30
0.000000
  70
    32
  0
VERTEX
  8
240
  5
45BD
 10
-2.16199
 20
5.21129
 30
0.000000
  70
    32
  0
VERTEX
  8
240
  5
45BE
 10
-2.12373
 20
5.20547
 30
0.000000
  70
    32
  0
VERTEX
  8
240
  5
45BF
 10
-2.08546
 20
5.19970
 30
0.000000
  70
    32
  0
VERTEX
  8
240
  5
45C0
 10
-2.04720
 20
5.19399
 30
0.000000
  70
    32
  0
VERTEX
  8
240
  5
45C1
 10
-2.00893
 20
5.18832
 30
0.000000
  70
    32
  0
VERTEX
  8
240
  5
45C2
 10
-1.97067
 20
5.18271
 30
0.000000
  70
    32
  0
VERTEX
  8
240
  5
45C3
 10
-1.93240
 20
5.17716
 30
0.000000
  70
    32
  0
VERTEX
  8
240
  5
45C4
 10
-1.89414
 20
5.17166
 30
0.000000
  70
    32
  0
VERTEX
  8
240
  5
45C5
 10
-1.85587
 20
5.16623
 30
0.000000
  70
    32
  0
VERTEX
  8
240
  5
45C6
 10
-1.81760
 20
5.16085
 30
0.000000
  70
    32
  0
VERTEX
  8
240
  5
45C7
 10
-1.77934
 20
5.15555
 30
0.000000
  70
    32
  0
VERTEX
  8
240
  5
45C8
 10
-1.74107
 20
5.15030
 30
0.000000
  70
    32
  0
VERTEX
  8
240
  5
45C9
 10
-1.70281
 20
5.14513
 30
0.000000
  70
    32
  0
VERTEX
  8
240
  5
45CA
 10
-1.66454
 20
5.14003
 30
0.000000
  70
    32
  0
VERTEX
  8
240
  5
45CB
 10
-1.62628
 20
5.13500
 30
0.000000
  70
    32
  0
VERTEX
  8
240
  5
45CC
 10
-1.58801
 20
5.13004
 30
0.000000
  70
    32
  0
VERTEX
  8
240
  5
45CD
 10
-1.54975
 20
5.12516
 30
0.000000
  70
    32
  0
VERTEX
  8
240
  5
45CE
 10
-1.51148
 20
5.12036
 30
0.000000
  70
    32
  0
VERTEX
  8
240
  5
45CF
 10
-1.47322
 20
5.11565
 30
0.000000
  70
    32
  0
VERTEX
  8
240
  5
45D0
 10
-1.43495
 20
5.11101
 30
0.000000
  70
    32
  0
VERTEX
  8
240
  5
45D1
 10
-1.39669
 20
5.10646
 30
0.000000
  70
    32
  0
VERTEX
  8
240
  5
45D2
 10
-1.35842
 20
5.10199
 30
0.000000
  70
    32
  0
VERTEX
  8
240
  5
45D3
 10
-1.32016
 20
5.09762
 30
0.000000
  70
    32
  0
VERTEX
  8
240
  5
45D4
 10
-1.28189
 20
5.09333
 30
0.000000
  70
    32
  0
VERTEX
  8
240
  5
45D5
 10
-1.24362
 20
5.08914
 30
0.000000
  70
    32
  0
VERTEX
  8
240
  5
45D6
 10
-1.20536
 20
5.08504
 30
0.000000
  70
    32
  0
VERTEX
  8
240
  5
45D7
 10
-1.16709
 20
5.08104
 30
0.000000
  70
    32
  0
VERTEX
  8
240
  5
45D8
 10
-1.12883
 20
5.07714
 30
0.000000
  70
    32
  0
VERTEX
  8
240
  5
45D9
 10
-1.09056
 20
5.07333
 30
0.000000
  70
    32
  0
VERTEX
  8
240
  5
45DA
 10
-1.05230
 20
5.06964
 30
0.000000
  70
    32
  0
VERTEX
  8
240
  5
45DB
 10
-1.01403
 20
5.06604
 30
0.000000
  70
    32
  0
VERTEX
  8
240
  5
45DC
 10
-0.975767
 20
5.06256
 30
0.000000
  70
    32
  0
VERTEX
  8
240
  5
45DD
 10
-0.937501
 20
5.05918
 30
0.000000
  70
    32
  0
VERTEX
  8
240
  5
45DE
 10
-0.899236
 20
5.05591
 30
0.000000
  70
    32
  0
VERTEX
  8
240
  5
45DF
 10
-0.860971
 20
5.05276
 30
0.000000
  70
    32
  0
VERTEX
  8
240
  5
45E0
 10
-0.822705
 20
5.04972
 30
0.000000
  70
    32
  0
VERTEX
  8
240
  5
45E1
 10
-0.784440
 20
5.04679
 30
0.000000
  70
    32
  0
VERTEX
  8
240
  5
45E2
 10
-0.746175
 20
5.04399
 30
0.000000
  70
    32
  0
VERTEX
  8
240
  5
45E3
 10
-0.707909
 20
5.04131
 30
0.000000
  70
    32
  0
VERTEX
  8
240
  5
45E4
 10
-0.669644
 20
5.03875
 30
0.000000
  70
    32
  0
VERTEX
  8
240
  5
45E5
 10
-0.631379
 20
5.03632
 30
0.000000
  70
    32
  0
VERTEX
  8
240
  5
45E6
 10
-0.593113
 20
5.03401
 30
0.000000
  70
    32
  0
VERTEX
  8
240
  5
45E7
 10
-0.554848
 20
5.03183
 30
0.000000
  70
    32
  0
VERTEX
  8
240
  5
45E8
 10
-0.516582
 20
5.02978
 30
0.000000
  70
    32
  0
VERTEX
  8
240
  5
45E9
 10
-0.478317
 20
5.02787
 30
0.000000
  70
    32
  0
VERTEX
  8
240
  5
45EA
 10
-0.440052
 20
5.02609
 30
0.000000
  70
    32
  0
VERTEX
  8
240
  5
45EB
 10
-0.401786
 20
5.02445
 30
0.000000
  70
    32
  0
VERTEX
  8
240
  5
45EC
 10
-0.363521
 20
5.02295
 30
0.000000
  70
    32
  0
VERTEX
  8
240
  5
45ED
 10
-0.325256
 20
5.02159
 30
0.000000
  70
    32
  0
VERTEX
  8
240
  5
45EE
 10
-0.286990
 20
5.02037
 30
0.000000
  70
    32
  0
VERTEX
  8
240
  5
45EF
 10
-0.248725
 20
5.01929
 30
0.000000
  70
    32
  0
VERTEX
  8
240
  5
45F0
 10
-0.210460
 20
5.01837
 30
0.000000
  70
    32
  0
VERTEX
  8
240
  5
45F1
 10
-0.172194
 20
5.01759
 30
0.000000
  70
    32
  0
VERTEX
  8
240
  5
45F2
 10
-0.133929
 20
5.01697
 30
0.000000
  70
    32
  0
VERTEX
  8
240
  5
45F3
 10
-0.0956634
 20
5.01650
 30
0.000000
  70
    32
  0
VERTEX
  8
240
  5
45F4
 10
-0.0573980
 20
5.01618
 30
0.000000
  70
    32
  0
VERTEX
  8
240
  5
45F5
 10
-0.0191327
 20
5.01602
 30
0.000000
  70
    32
  0
VERTEX
  8
240
  5
45F6
 10
0.0191327
 20
5.01602
 30
0.000000
  70
    32
  0
VERTEX
  8
240
  5
45F7
 10
0.0573980
 20
5.01618
 30
0.000000
  70
    32
  0
VERTEX
  8
240
  5
45F8
 10
0.0956634
 20
5.01650
 30
0.000000
  70
    32
  0
VERTEX
  8
240
  5
45F9
 10
0.133929
 20
5.01697
 30
0.000000
  70
    32
  0
VERTEX
  8
240
  5
45FA
 10
0.172194
 20
5.01759
 30
0.000000
  70
    32
  0
VERTEX
  8
240
  5
45FB
 10
0.210460
 20
5.01837
 30
0.000000
  70
    32
  0
VERTEX
  8
240
  5
45FC
 10
0.248725
 20
5.01929
 30
0.000000
  70
    32
  0
VERTEX
  8
240
  5
45FD
 10
0.286990
 20
5.02037
 30
0.000000
  70
    32
  0
VERTEX
  8
240
  5
45FE
 10
0.325256
 20
5.02159
 30
0.000000
  70
    32
  0
VERTEX
  8
240
  5
45FF
 10
0.363521
 20
5.02295
 30
0.000000
  70
    32
  0
VERTEX
  8
240
  5
4600
 10
0.401786
 20
5.02445
 30
0.000000
  70
    32
  0
VERTEX
  8
240
  5
4601
 10
0.440052
 20
5.02609
 30
0.000000
  70
    32
  0
VERTEX
  8
240
  5
4602
 10
0.478317
 20
5.02787
 30
0.000000
  70
    32
  0
VERTEX
  8
240
  5
4603
 10
0.516582
 20
5.02978
 30
0.000000
  70
    32
  0
VERTEX
  8
240
  5
4604
 10
0.554848
 20
5.03183
 30
0.000000
  70
    32
  0
VERTEX
  8
240
  5
4605
 10
0.593113
 20
5.03401
 30
0.000000
  70
    32
  0
VERTEX
  8
240
  5
4606
 10
0.631379
 20
5.03632
 30
0.000000
  70
    32
  0
VERTEX
  8
240
  5
4607
 10
0.669644
 20
5.03875
 30
0.000000
  70
    32
  0
VERTEX
  8
240
  5
4608
 10
0.707909
 20
5.04131
 30
0.000000
  70
    32
  0
VERTEX
  8
240
  5
4609
 10
0.746175
 20
5.04399
 30
0.000000
  70
    32
  0
VERTEX
  8
240
  5
460A
 10
0.784440
 20
5.04679
 30
0.000000
  70
    32
  0
VERTEX
  8
240
  5
460B
 10
0.822705
 20
5.04972
 30
0.000000
  70
    32
  0
VERTEX
  8
240
  5
460C
 10
0.860971
 20
5.05276
 30
0.000000
  70
    32
  0
VERTEX
  8
240
  5
460D
 10
0.899236
 20
5.05591
 30
0.000000
  70
    32
  0
VERTEX
  8
240
  5
460E
 10
0.937501
 20
5.05918
 30
0.000000
  70
    32
  0
VERTEX
  8
240
  5
460F
 10
0.975767
 20
5.06256
 30
0.000000
  70
    32
  0
VERTEX
  8
240
  5
4610
 10
1.01403
 20
5.06604
 30
0.000000
  70
    32
  0
VERTEX
  8
240
  5
4611
 10
1.05230
 20
5.06964
 30
0.000000
  70
    32
  0
VERTEX
  8
240
  5
4612
 10
1.09056
 20
5.07333
 30
0.000000
  70
    32
  0
VERTEX
  8
240
  5
4613
 10
1.12883
 20
5.07714
 30
0.000000
  70
    32
  0
VERTEX
  8
240
  5
4614
 10
1.16709
 20
5.08104
 30
0.000000
  70
    32
  0
VERTEX
  8
240
  5
4615
 10
1.20536
 20
5.08504
 30
0.000000
  70
    32
  0
VERTEX
  8
240
  5
4616
 10
1.24362
 20
5.08914
 30
0.000000
  70
    32
  0
VERTEX
  8
240
  5
4617
 10
1.28189
 20
5.09333
 30
0.000000
  70
    32
  0
VERTEX
  8
240
  5
4618
 10
1.32016
 20
5.09762
 30
0.000000
  70
    32
  0
VERTEX
  8
240
  5
4619
 10
1.35842
 20
5.10199
 30
0.000000
  70
    32
  0
VERTEX
  8
240
  5
461A
 10
1.39669
 20
5.10646
 30
0.000000
  70
    32
  0
VERTEX
  8
240
  5
461B
 10
1.43495
 20
5.11101
 30
0.000000
  70
    32
  0
VERTEX
  8
240
  5
461C
 10
1.47322
 20
5.11565
 30
0.000000
  70
    32
  0
VERTEX
  8
240
  5
461D
 10
1.51148
 20
5.12036
 30
0.000000
  70
    32
  0
VERTEX
  8
240
  5
461E
 10
1.54975
 20
5.12516
 30
0.000000
  70
    32
  0
VERTEX
  8
240
  5
461F
 10
1.58801
 20
5.13004
 30
0.000000
  70
    32
  0
VERTEX
  8
240
  5
4620
 10
1.62628
 20
5.13500
 30
0.000000
  70
    32
  0
VERTEX
  8
240
  5
4621
 10
1.66454
 20
5.14003
 30
0.000000
  70
    32
  0
VERTEX
  8
240
  5
4622
 10
1.70281
 20
5.14513
 30
0.000000
  70
    32
  0
VERTEX
  8
240
  5
4623
 10
1.74107
 20
5.15030
 30
0.000000
  70
    32
  0
VERTEX
  8
240
  5
4624
 10
1.77934
 20
5.15555
 30
0.000000
  70
    32
  0
VERTEX
  8
240
  5
4625
 10
1.81760
 20
5.16085
 30
0.000000
  70
    32
  0
VERTEX
  8
240
  5
4626
 10
1.85587
 20
5.16623
 30
0.000000
  70
    32
  0
VERTEX
  8
240
  5
4627
 10
1.89414
 20
5.17166
 30
0.000000
  70
    32
  0
VERTEX
  8
240
  5
4628
 10
1.93240
 20
5.17716
 30
0.000000
  70
    32
  0
VERTEX
  8
240
  5
4629
 10
1.97067
 20
5.18271
 30
0.000000
  70
    32
  0
VERTEX
  8
240
  5
462A
 10
2.00893
 20
5.18832
 30
0.000000
  70
    32
  0
VERTEX
  8
240
  5
462B
 10
2.04720
 20
5.19399
 30
0.000000
  70
    32
  0
VERTEX
  8
240
  5
462C
 10
2.08546
 20
5.19970
 30
0.000000
  70
    32
  0
VERTEX
  8
240
  5
462D
 10
2.12373
 20
5.20547
 30
0.000000
  70
    32
  0
VERTEX
  8
240
  5
462E
 10
2.16199
 20
5.21129
 30
0.000000
  70
    32
  0
VERTEX
  8
240
  5
462F
 10
2.20026
 20
5.21715
 30
0.000000
  70
    32
  0
VERTEX
  8
240
  5
4630
 10
2.23852
 20
5.22306
 30
0.000000
  70
    32
  0
VERTEX
  8
240
  5
4631
 10
2.27679
 20
5.22901
 30
0.000000
  70
    32
  0
VERTEX
  8
240
  5
4632
 10
2.31505
 20
5.23500
 30
0.000000
  70
    32
  0
VERTEX
  8
240
  5
4633
 10
2.35332
 20
5.24103
 30
0.000000
  70
    32
  0
VERTEX
  8
240
  5
4634
 10
2.39159
 20
5.24709
 30
0.000000
  70
    32
  0
VERTEX
  8
240
  5
4635
 10
2.42985
 20
5.25319
 30
0.000000
  70
    32
  0
VERTEX
  8
240
  5
4636
 10
2.46812
 20
5.25932
 30
0.000000
  70
    32
  0
VERTEX
  8
240
  5
4637
 10
2.50638
 20
5.26548
 30
0.000000
  70
    32
  0
VERTEX
  8
240
  5
4638
 10
2.54465
 20
5.27167
 30
0.000000
  70
    32
  0
VERTEX
  8
240
  5
4639
 10
2.58291
 20
5.27789
 30
0.000000
  70
    32
  0
VERTEX
  8
240
  5
463A
 10
2.62118
 20
5.28413
 30
0.000000
  70
    32
  0
VERTEX
  8
240
  5
463B
 10
2.65944
 20
5.29039
 30
0.000000
  70
    32
  0
VERTEX
  8
240
  5
463C
 10
2.69771
 20
5.29667
 30
0.000000
  70
    32
  0
VERTEX
  8
240
  5
463D
 10
2.73597
 20
5.30297
 30
0.000000
  70
    32
  0
VERTEX
  8
240
  5
463E
 10
2.77424
 20
5.30929
 30
0.000000
  70
    32
  0
VERTEX
  8
240
  5
463F
 10
2.81250
 20
5.31562
 30
0.000000
  70
    32
  0
VERTEX
  8
240
  5
4640
 10
2.85077
 20
5.32196
 30
0.000000
  70
    32
  0
VERTEX
  8
240
  5
4641
 10
2.88903
 20
5.32831
 30
0.000000
  70
    32
  0
VERTEX
  8
240
  5
4642
 10
2.92730
 20
5.33467
 30
0.000000
  70
    32
  0
VERTEX
  8
240
  5
4643
 10
2.96557
 20
5.34104
 30
0.000000
  70
    32
  0
VERTEX
  8
240
  5
4644
 10
3.00383
 20
5.34741
 30
0.000000
  70
    32
  0
VERTEX
  8
240
  5
4645
 10
3.04210
 20
5.35378
 30
0.000000
  70
    32
  0
SEQEND
  8
240
  5
4646
  0
LINE
  5
41EB
  8
240
 10
2.4330629563673929
 20
-0.0000000000017693
 30
0.0
 11
2.0330629563673588
 21
0.3999999999982648
 31
0.0
1001
GRPNAME
1000
PASTMD0O
  0
LINE
  5
41EC
  8
245
  6
CENTER2
 10
0.0
 20
6.8036859053050227
 30
0.0
 11
0.0
 21
-2.506367819996917
 31
0.0
1001
GRPNAME
1000
PASTMD13
  0
LINE
  5
41ED
  8
240
 10
1.8991888691023171
 20
1.1999999999982189
 30
0.0
 11
1.8991888691023171
 21
1.599999999998253
 31
0.0
1001
GRPNAME
1000
PASTMD0O
  0
LINE
  5
41EE
  8
240
 10
-1.89918886910226
 20
1.1999999999982189
 30
0.0
 11
-1.89918886910226
 21
1.599999999998253
 31
0.0
1001
GRPNAME
1000
PASTMD0O
  0
LINE
  5
41F1
  8
240
 10
-5.6999999999999877
 20
-0.0000000000017693
 30
0.0
 11
-5.6999999999999877
 21
4.0999999999982526
 31
0.0
1001
GRPNAME
1000
PASTMD10
  0
LINE
  5
41F2
  8
240
 10
-5.6999999999999877
 20
-0.0000000000017693
 30
0.0
 11
-2.4330629563692412
 21
-0.0000000000017693
 31
0.0
1001
GRPNAME
1000
PASTMD10
  0
LINE
  5
41F3
  8
240
 10
-2.433062956367336
 20
-0.0000000000017693
 30
0.0
 11
-2.0330629563673588
 21
0.3999999999982648
 31
0.0
1001
GRPNAME
1000
PASTMD0O
  0
LINE
  5
41F4
  8
240
 10
-2.0330629563674161
 20
0.399999999998208
 30
0.0
 11
-1.89918886910226
 21
1.1999999999982189
 31
0.0
1001
GRPNAME
1000
PASTMD0O
  0
LINE
  5
41F5
  8
240
 10
2.0330629563674161
 20
0.399999999998208
 30
0.0
 11
1.8991888691023171
 21
1.1999999999982189
 31
0.0
1001
GRPNAME
1000
PASTMD0O
  0
POLYLINE
  8
240
  5
4647
  66
     1
 10
0.000000
 20
0.000000
 30
0.000000
  70
     8
  0
VERTEX
  8
240
  5
4648
 10
-4.00000
 20
5.60000
 30
0.000000
  70
    32
  0
VERTEX
  8
240
  5
4649
 10
-3.99401
 20
5.59830
 30
0.000000
  70
    32
  0
VERTEX
  8
240
  5
464A
 10
-3.98803
 20
5.59661
 30
0.000000
  70
    32
  0
VERTEX
  8
240
  5
464B
 10
-3.98204
 20
5.59491
 30
0.000000
  70
    32
  0
VERTEX
  8
240
  5
464C
 10
-3.97605
 20
5.59321
 30
0.000000
  70
    32
  0
VERTEX
  8
240
  5
464D
 10
-3.97007
 20
5.59152
 30
0.000000
  70
    32
  0
VERTEX
  8
240
  5
464E
 10
-3.96408
 20
5.58982
 30
0.000000
  70
    32
  0
VERTEX
  8
240
  5
464F
 10
-3.95809
 20
5.58813
 30
0.000000
  70
    32
  0
VERTEX
  8
240
  5
4650
 10
-3.95211
 20
5.58643
 30
0.000000
  70
    32
  0
VERTEX
  8
240
  5
4651
 10
-3.94612
 20
5.58474
 30
0.000000
  70
    32
  0
VERTEX
  8
240
  5
4652
 10
-3.94013
 20
5.58304
 30
0.000000
  70
    32
  0
VERTEX
  8
240
  5
4653
 10
-3.93415
 20
5.58135
 30
0.000000
  70
    32
  0
VERTEX
  8
240
  5
4654
 10
-3.92816
 20
5.57966
 30
0.000000
  70
    32
  0
VERTEX
  8
240
  5
4655
 10
-3.92217
 20
5.57796
 30
0.000000
  70
    32
  0
VERTEX
  8
240
  5
4656
 10
-3.91618
 20
5.57627
 30
0.000000
  70
    32
  0
VERTEX
  8
240
  5
4657
 10
-3.91020
 20
5.57458
 30
0.000000
  70
    32
  0
VERTEX
  8
240
  5
4658
 10
-3.90421
 20
5.57289
 30
0.000000
  70
    32
  0
VERTEX
  8
240
  5
4659
 10
-3.89822
 20
5.57120
 30
0.000000
  70
    32
  0
VERTEX
  8
240
  5
465A
 10
-3.89223
 20
5.56951
 30
0.000000
  70
    32
  0
VERTEX
  8
240
  5
465B
 10
-3.88624
 20
5.56782
 30
0.000000
  70
    32
  0
VERTEX
  8
240
  5
465C
 10
-3.88025
 20
5.56613
 30
0.000000
  70
    32
  0
VERTEX
  8
240
  5
465D
 10
-3.87426
 20
5.56445
 30
0.000000
  70
    32
  0
VERTEX
  8
240
  5
465E
 10
-3.86828
 20
5.56276
 30
0.000000
  70
    32
  0
VERTEX
  8
240
  5
465F
 10
-3.86229
 20
5.56107
 30
0.000000
  70
    32
  0
VERTEX
  8
240
  5
4660
 10
-3.85630
 20
5.55939
 30
0.000000
  70
    32
  0
VERTEX
  8
240
  5
4661
 10
-3.85031
 20
5.55771
 30
0.000000
  70
    32
  0
VERTEX
  8
240
  5
4662
 10
-3.84432
 20
5.55603
 30
0.000000
  70
    32
  0
VERTEX
  8
240
  5
4663
 10
-3.83832
 20
5.55435
 30
0.000000
  70
    32
  0
VERTEX
  8
240
  5
4664
 10
-3.83233
 20
5.55267
 30
0.000000
  70
    32
  0
VERTEX
  8
240
  5
4665
 10
-3.82634
 20
5.55099
 30
0.000000
  70
    32
  0
VERTEX
  8
240
  5
4666
 10
-3.82035
 20
5.54931
 30
0.000000
  70
    32
  0
VERTEX
  8
240
  5
4667
 10
-3.81436
 20
5.54764
 30
0.000000
  70
    32
  0
VERTEX
  8
240
  5
4668
 10
-3.80837
 20
5.54597
 30
0.000000
  70
    32
  0
VERTEX
  8
240
  5
4669
 10
-3.80237
 20
5.54429
 30
0.000000
  70
    32
  0
VERTEX
  8
240
  5
466A
 10
-3.79638
 20
5.54262
 30
0.000000
  70
    32
  0
VERTEX
  8
240
  5
466B
 10
-3.79039
 20
5.54096
 30
0.000000
  70
    32
  0
VERTEX
  8
240
  5
466C
 10
-3.78439
 20
5.53929
 30
0.000000
  70
    32
  0
VERTEX
  8
240
  5
466D
 10
-3.77840
 20
5.53762
 30
0.000000
  70
    32
  0
VERTEX
  8
240
  5
466E
 10
-3.77240
 20
5.53596
 30
0.000000
  70
    32
  0
VERTEX
  8
240
  5
466F
 10
-3.76641
 20
5.53430
 30
0.000000
  70
    32
  0
VERTEX
  8
240
  5
4670
 10
-3.76041
 20
5.53264
 30
0.000000
  70
    32
  0
VERTEX
  8
240
  5
4671
 10
-3.75441
 20
5.53098
 30
0.000000
  70
    32
  0
VERTEX
  8
240
  5
4672
 10
-3.74842
 20
5.52932
 30
0.000000
  70
    32
  0
VERTEX
  8
240
  5
4673
 10
-3.74242
 20
5.52767
 30
0.000000
  70
    32
  0
VERTEX
  8
240
  5
4674
 10
-3.73642
 20
5.52602
 30
0.000000
  70
    32
  0
VERTEX
  8
240
  5
4675
 10
-3.73042
 20
5.52437
 30
0.000000
  70
    32
  0
VERTEX
  8
240
  5
4676
 10
-3.72443
 20
5.52272
 30
0.000000
  70
    32
  0
VERTEX
  8
240
  5
4677
 10
-3.71843
 20
5.52107
 30
0.000000
  70
    32
  0
VERTEX
  8
240
  5
4678
 10
-3.71243
 20
5.51943
 30
0.000000
  70
    32
  0
VERTEX
  8
240
  5
4679
 10
-3.70643
 20
5.51779
 30
0.000000
  70
    32
  0
VERTEX
  8
240
  5
467A
 10
-3.70042
 20
5.51615
 30
0.000000
  70
    32
  0
VERTEX
  8
240
  5
467B
 10
-3.69442
 20
5.51451
 30
0.000000
  70
    32
  0
VERTEX
  8
240
  5
467C
 10
-3.68842
 20
5.51288
 30
0.000000
  70
    32
  0
VERTEX
  8
240
  5
467D
 10
-3.68242
 20
5.51124
 30
0.000000
  70
    32
  0
VERTEX
  8
240
  5
467E
 10
-3.67641
 20
5.50961
 30
0.000000
  70
    32
  0
VERTEX
  8
240
  5
467F
 10
-3.67041
 20
5.50799
 30
0.000000
  70
    32
  0
VERTEX
  8
240
  5
4680
 10
-3.66440
 20
5.50636
 30
0.000000
  70
    32
  0
VERTEX
  8
240
  5
4681
 10
-3.65840
 20
5.50474
 30
0.000000
  70
    32
  0
VERTEX
  8
240
  5
4682
 10
-3.65239
 20
5.50312
 30
0.000000
  70
    32
  0
VERTEX
  8
240
  5
4683
 10
-3.64638
 20
5.50150
 30
0.000000
  70
    32
  0
VERTEX
  8
240
  5
4684
 10
-3.64038
 20
5.49989
 30
0.000000
  70
    32
  0
VERTEX
  8
240
  5
4685
 10
-3.63437
 20
5.49828
 30
0.000000
  70
    32
  0
VERTEX
  8
240
  5
4686
 10
-3.62836
 20
5.49667
 30
0.000000
  70
    32
  0
VERTEX
  8
240
  5
4687
 10
-3.62235
 20
5.49507
 30
0.000000
  70
    32
  0
VERTEX
  8
240
  5
4688
 10
-3.61634
 20
5.49346
 30
0.000000
  70
    32
  0
VERTEX
  8
240
  5
4689
 10
-3.61033
 20
5.49186
 30
0.000000
  70
    32
  0
VERTEX
  8
240
  5
468A
 10
-3.60431
 20
5.49027
 30
0.000000
  70
    32
  0
VERTEX
  8
240
  5
468B
 10
-3.59830
 20
5.48867
 30
0.000000
  70
    32
  0
VERTEX
  8
240
  5
468C
 10
-3.59229
 20
5.48708
 30
0.000000
  70
    32
  0
VERTEX
  8
240
  5
468D
 10
-3.58627
 20
5.48550
 30
0.000000
  70
    32
  0
VERTEX
  8
240
  5
468E
 10
-3.58026
 20
5.48391
 30
0.000000
  70
    32
  0
VERTEX
  8
240
  5
468F
 10
-3.57424
 20
5.48233
 30
0.000000
  70
    32
  0
VERTEX
  8
240
  5
4690
 10
-3.56822
 20
5.48076
 30
0.000000
  70
    32
  0
VERTEX
  8
240
  5
4691
 10
-3.56221
 20
5.47918
 30
0.000000
  70
    32
  0
VERTEX
  8
240
  5
4692
 10
-3.55619
 20
5.47761
 30
0.000000
  70
    32
  0
VERTEX
  8
240
  5
4693
 10
-3.55017
 20
5.47604
 30
0.000000
  70
    32
  0
VERTEX
  8
240
  5
4694
 10
-3.54415
 20
5.47448
 30
0.000000
  70
    32
  0
VERTEX
  8
240
  5
4695
 10
-3.53812
 20
5.47292
 30
0.000000
  70
    32
  0
VERTEX
  8
240
  5
4696
 10
-3.53210
 20
5.47137
 30
0.000000
  70
    32
  0
VERTEX
  8
240
  5
4697
 10
-3.52608
 20
5.46981
 30
0.000000
  70
    32
  0
VERTEX
  8
240
  5
4698
 10
-3.52005
 20
5.46826
 30
0.000000
  70
    32
  0
VERTEX
  8
240
  5
4699
 10
-3.51403
 20
5.46672
 30
0.000000
  70
    32
  0
VERTEX
  8
240
  5
469A
 10
-3.50800
 20
5.46518
 30
0.000000
  70
    32
  0
VERTEX
  8
240
  5
469B
 10
-3.50198
 20
5.46364
 30
0.000000
  70
    32
  0
VERTEX
  8
240
  5
469C
 10
-3.49595
 20
5.46210
 30
0.000000
  70
    32
  0
VERTEX
  8
240
  5
469D
 10
-3.48992
 20
5.46057
 30
0.000000
  70
    32
  0
VERTEX
  8
240
  5
469E
 10
-3.48389
 20
5.45905
 30
0.000000
  70
    32
  0
VERTEX
  8
240
  5
469F
 10
-3.47786
 20
5.45752
 30
0.000000
  70
    32
  0
VERTEX
  8
240
  5
46A0
 10
-3.47183
 20
5.45600
 30
0.000000
  70
    32
  0
VERTEX
  8
240
  5
46A1
 10
-3.46579
 20
5.45448
 30
0.000000
  70
    32
  0
VERTEX
  8
240
  5
46A2
 10
-3.45976
 20
5.45297
 30
0.000000
  70
    32
  0
VERTEX
  8
240
  5
46A3
 10
-3.45372
 20
5.45146
 30
0.000000
  70
    32
  0
VERTEX
  8
240
  5
46A4
 10
-3.44769
 20
5.44995
 30
0.000000
  70
    32
  0
VERTEX
  8
240
  5
46A5
 10
-3.44165
 20
5.44845
 30
0.000000
  70
    32
  0
VERTEX
  8
240
  5
46A6
 10
-3.43562
 20
5.44695
 30
0.000000
  70
    32
  0
VERTEX
  8
240
  5
46A7
 10
-3.42958
 20
5.44545
 30
0.000000
  70
    32
  0
VERTEX
  8
240
  5
46A8
 10
-3.42354
 20
5.44395
 30
0.000000
  70
    32
  0
VERTEX
  8
240
  5
46A9
 10
-3.41750
 20
5.44246
 30
0.000000
  70
    32
  0
VERTEX
  8
240
  5
46AA
 10
-3.41146
 20
5.44097
 30
0.000000
  70
    32
  0
VERTEX
  8
240
  5
46AB
 10
-3.40542
 20
5.43949
 30
0.000000
  70
    32
  0
VERTEX
  8
240
  5
46AC
 10
-3.39938
 20
5.43800
 30
0.000000
  70
    32
  0
VERTEX
  8
240
  5
46AD
 10
-3.39334
 20
5.43652
 30
0.000000
  70
    32
  0
VERTEX
  8
240
  5
46AE
 10
-3.38730
 20
5.43504
 30
0.000000
  70
    32
  0
VERTEX
  8
240
  5
46AF
 10
-3.38125
 20
5.43357
 30
0.000000
  70
    32
  0
VERTEX
  8
240
  5
46B0
 10
-3.37521
 20
5.43210
 30
0.000000
  70
    32
  0
VERTEX
  8
240
  5
46B1
 10
-3.36916
 20
5.43063
 30
0.000000
  70
    32
  0
VERTEX
  8
240
  5
46B2
 10
-3.36312
 20
5.42916
 30
0.000000
  70
    32
  0
VERTEX
  8
240
  5
46B3
 10
-3.35707
 20
5.42769
 30
0.000000
  70
    32
  0
VERTEX
  8
240
  5
46B4
 10
-3.35103
 20
5.42623
 30
0.000000
  70
    32
  0
VERTEX
  8
240
  5
46B5
 10
-3.34498
 20
5.42477
 30
0.000000
  70
    32
  0
VERTEX
  8
240
  5
46B6
 10
-3.33893
 20
5.42331
 30
0.000000
  70
    32
  0
VERTEX
  8
240
  5
46B7
 10
-3.33288
 20
5.42186
 30
0.000000
  70
    32
  0
VERTEX
  8
240
  5
46B8
 10
-3.32683
 20
5.42040
 30
0.000000
  70
    32
  0
VERTEX
  8
240
  5
46B9
 10
-3.32078
 20
5.41895
 30
0.000000
  70
    32
  0
VERTEX
  8
240
  5
46BA
 10
-3.31473
 20
5.41750
 30
0.000000
  70
    32
  0
VERTEX
  8
240
  5
46BB
 10
-3.30868
 20
5.41606
 30
0.000000
  70
    32
  0
VERTEX
  8
240
  5
46BC
 10
-3.30263
 20
5.41461
 30
0.000000
  70
    32
  0
VERTEX
  8
240
  5
46BD
 10
-3.29658
 20
5.41317
 30
0.000000
  70
    32
  0
VERTEX
  8
240
  5
46BE
 10
-3.29053
 20
5.41173
 30
0.000000
  70
    32
  0
VERTEX
  8
240
  5
46BF
 10
-3.28447
 20
5.41029
 30
0.000000
  70
    32
  0
VERTEX
  8
240
  5
46C0
 10
-3.27842
 20
5.40885
 30
0.000000
  70
    32
  0
VERTEX
  8
240
  5
46C1
 10
-3.27237
 20
5.40742
 30
0.000000
  70
    32
  0
VERTEX
  8
240
  5
46C2
 10
-3.26631
 20
5.40599
 30
0.000000
  70
    32
  0
VERTEX
  8
240
  5
46C3
 10
-3.26026
 20
5.40455
 30
0.000000
  70
    32
  0
VERTEX
  8
240
  5
46C4
 10
-3.25420
 20
5.40312
 30
0.000000
  70
    32
  0
VERTEX
  8
240
  5
46C5
 10
-3.24815
 20
5.40170
 30
0.000000
  70
    32
  0
VERTEX
  8
240
  5
46C6
 10
-3.24209
 20
5.40027
 30
0.000000
  70
    32
  0
VERTEX
  8
240
  5
46C7
 10
-3.23604
 20
5.39885
 30
0.000000
  70
    32
  0
VERTEX
  8
240
  5
46C8
 10
-3.22998
 20
5.39742
 30
0.000000
  70
    32
  0
VERTEX
  8
240
  5
46C9
 10
-3.22392
 20
5.39600
 30
0.000000
  70
    32
  0
VERTEX
  8
240
  5
46CA
 10
-3.21787
 20
5.39458
 30
0.000000
  70
    32
  0
VERTEX
  8
240
  5
46CB
 10
-3.21181
 20
5.39316
 30
0.000000
  70
    32
  0
VERTEX
  8
240
  5
46CC
 10
-3.20575
 20
5.39174
 30
0.000000
  70
    32
  0
VERTEX
  8
240
  5
46CD
 10
-3.19969
 20
5.39033
 30
0.000000
  70
    32
  0
VERTEX
  8
240
  5
46CE
 10
-3.19363
 20
5.38891
 30
0.000000
  70
    32
  0
VERTEX
  8
240
  5
46CF
 10
-3.18757
 20
5.38750
 30
0.000000
  70
    32
  0
VERTEX
  8
240
  5
46D0
 10
-3.18151
 20
5.38608
 30
0.000000
  70
    32
  0
VERTEX
  8
240
  5
46D1
 10
-3.17545
 20
5.38467
 30
0.000000
  70
    32
  0
VERTEX
  8
240
  5
46D2
 10
-3.16939
 20
5.38326
 30
0.000000
  70
    32
  0
VERTEX
  8
240
  5
46D3
 10
-3.16333
 20
5.38185
 30
0.000000
  70
    32
  0
VERTEX
  8
240
  5
46D4
 10
-3.15727
 20
5.38044
 30
0.000000
  70
    32
  0
VERTEX
  8
240
  5
46D5
 10
-3.15121
 20
5.37903
 30
0.000000
  70
    32
  0
VERTEX
  8
240
  5
46D6
 10
-3.14515
 20
5.37762
 30
0.000000
  70
    32
  0
VERTEX
  8
240
  5
46D7
 10
-3.13909
 20
5.37622
 30
0.000000
  70
    32
  0
VERTEX
  8
240
  5
46D8
 10
-3.13303
 20
5.37481
 30
0.000000
  70
    32
  0
VERTEX
  8
240
  5
46D9
 10
-3.12697
 20
5.37341
 30
0.000000
  70
    32
  0
VERTEX
  8
240
  5
46DA
 10
-3.12091
 20
5.37200
 30
0.000000
  70
    32
  0
VERTEX
  8
240
  5
46DB
 10
-3.11485
 20
5.37060
 30
0.000000
  70
    32
  0
VERTEX
  8
240
  5
46DC
 10
-3.10878
 20
5.36920
 30
0.000000
  70
    32
  0
VERTEX
  8
240
  5
46DD
 10
-3.10272
 20
5.36779
 30
0.000000
  70
    32
  0
VERTEX
  8
240
  5
46DE
 10
-3.09666
 20
5.36639
 30
0.000000
  70
    32
  0
VERTEX
  8
240
  5
46DF
 10
-3.09060
 20
5.36499
 30
0.000000
  70
    32
  0
VERTEX
  8
240
  5
46E0
 10
-3.08453
 20
5.36359
 30
0.000000
  70
    32
  0
VERTEX
  8
240
  5
46E1
 10
-3.07847
 20
5.36219
 30
0.000000
  70
    32
  0
VERTEX
  8
240
  5
46E2
 10
-3.07241
 20
5.36079
 30
0.000000
  70
    32
  0
VERTEX
  8
240
  5
46E3
 10
-3.06635
 20
5.35938
 30
0.000000
  70
    32
  0
VERTEX
  8
240
  5
46E4
 10
-3.06028
 20
5.35798
 30
0.000000
  70
    32
  0
VERTEX
  8
240
  5
46E5
 10
-3.05422
 20
5.35658
 30
0.000000
  70
    32
  0
VERTEX
  8
240
  5
46E6
 10
-3.04816
 20
5.35518
 30
0.000000
  70
    32
  0
VERTEX
  8
240
  5
46E7
 10
-3.04210
 20
5.35378
 30
0.000000
  70
    32
  0
SEQEND
  8
240
  5
46E8
  0
ARC
  5
41F8
  8
240
 10
-4.1999999999999877
 20
4.0999999999982526
 30
0.0
 40
1.5
 50
89.999999989709863
 51
179.99999998971069
1001
GRPNAME
1000
PASTMD10
  0
LINE
  5
41F9
  8
240
 10
-4.1999999999999877
 20
5.5999999999982526
 30
0.0
 11
-4.0
 21
5.5999999999982526
 31
0.0
1001
GRPNAME
1000
PASTMD10
  0
LINE
  5
41FA
  8
240
 10
-1.89918886910226
 20
1.599999999998253
 30
0.0
 11
1.8991888691023171
 21
1.599999999998253
 31
0.0
1001
GRPNAME
1000
PASTMD0O
  0
LINE
  5
41FE
  8
241
 10
7.259563986870659
 20
6.7410612983148246
 30
0.0
 11
14.78256885145043
 21
7.3992389396154499
 31
0.0
1001
GRPNAME
1000
PASTMD11
  0
LINE
  5
41FF
  8
241
 10
11.789757682687149
 20
0.2712742014784268
 30
0.0
 11
14.981261557407279
 21
7.1154763476490004
 31
0.0
1001
GRPNAME
1000
PASTMD11
  0
LINE
  5
4200
  8
240
 10
7.5436963802222214
 20
5.8122441484126179
 30
0.0
 11
6.3400000000006846
 21
5.5999999999984382
 31
0.0
  0
LINE
  5
4201
  8
241
 10
7.1131647265624158
 20
6.427107071426299
 30
0.0
 11
11.444665716421991
 21
0.2410825665564218
 31
0.0
1001
GRPNAME
1000
PASTMD11
  0
LINE
  5
4203
  8
241
 10
5.6999999999999877
 20
-0.0000000000017693
 30
0.0
 11
5.6999999999999877
 21
4.0999999999982526
 31
0.0
1001
GRPNAME
1000
PASTMD10
  0
LINE
  5
4204
  8
240
 10
12.296362508303901
 20
-3.490869021789031
 30
0.0
 11
6.25
 21
-0.0000000000017693
 31
0.0
1001
GRPNAME
1000
PASTMD10
  0
LINE
  5
4205
  8
240
 10
6.25
 20
-0.0000000000017693
 30
0.0
 11
2.433062956366995
 21
-0.0000000000006892
 31
0.0
1001
GRPNAME
1000
PASTMD10
  0
LINE
  5
4206
  8
240
 10
12.296362508303901
 20
-3.490869021789031
 30
0.0
 11
13.700000000000109
 21
-3.490869021789031
 31
0.0
  0
ARC
  5
4207
  8
241
 10
11.60849612527983
 20
0.3557978538265942
 30
0.0
 40
0.2000000000000104
 50
214.99999980585409
 51
334.99999980586603
1001
GRPNAME
1000
PASTMD11
  0
ARC
  5
4209
  8
241
 10
4.1999999999999877
 20
4.0999999999982526
 30
0.0
 40
1.5
 50
359.9999999871369
 51
89.999999987136917
1001
GRPNAME
1000
PASTMD10
  0
POLYLINE
  8
240
  5
46E9
  66
     1
 10
0.000000
 20
0.000000
 30
0.000000
  70
     8
  0
VERTEX
  8
240
  5
46EA
 10
3.04210
 20
5.35378
 30
0.000000
  70
    32
  0
VERTEX
  8
240
  5
46EB
 10
3.04816
 20
5.35518
 30
0.000000
  70
    32
  0
VERTEX
  8
240
  5
46EC
 10
3.05422
 20
5.35658
 30
0.000000
  70
    32
  0
VERTEX
  8
240
  5
46ED
 10
3.06028
 20
5.35798
 30
0.000000
  70
    32
  0
VERTEX
  8
240
  5
46EE
 10
3.06635
 20
5.35938
 30
0.000000
  70
    32
  0
VERTEX
  8
240
  5
46EF
 10
3.07241
 20
5.36079
 30
0.000000
  70
    32
  0
VERTEX
  8
240
  5
46F0
 10
3.07847
 20
5.36219
 30
0.000000
  70
    32
  0
VERTEX
  8
240
  5
46F1
 10
3.08453
 20
5.36359
 30
0.000000
  70
    32
  0
VERTEX
  8
240
  5
46F2
 10
3.09060
 20
5.36499
 30
0.000000
  70
    32
  0
VERTEX
  8
240
  5
46F3
 10
3.09666
 20
5.36639
 30
0.000000
  70
    32
  0
VERTEX
  8
240
  5
46F4
 10
3.10272
 20
5.36779
 30
0.000000
  70
    32
  0
VERTEX
  8
240
  5
46F5
 10
3.10878
 20
5.36920
 30
0.000000
  70
    32
  0
VERTEX
  8
240
  5
46F6
 10
3.11485
 20
5.37060
 30
0.000000
  70
    32
  0
VERTEX
  8
240
  5
46F7
 10
3.12091
 20
5.37200
 30
0.000000
  70
    32
  0
VERTEX
  8
240
  5
46F8
 10
3.12697
 20
5.37341
 30
0.000000
  70
    32
  0
VERTEX
  8
240
  5
46F9
 10
3.13303
 20
5.37481
 30
0.000000
  70
    32
  0
VERTEX
  8
240
  5
46FA
 10
3.13909
 20
5.37622
 30
0.000000
  70
    32
  0
VERTEX
  8
240
  5
46FB
 10
3.14515
 20
5.37762
 30
0.000000
  70
    32
  0
VERTEX
  8
240
  5
46FC
 10
3.15121
 20
5.37903
 30
0.000000
  70
    32
  0
VERTEX
  8
240
  5
46FD
 10
3.15727
 20
5.38044
 30
0.000000
  70
    32
  0
VERTEX
  8
240
  5
46FE
 10
3.16333
 20
5.38185
 30
0.000000
  70
    32
  0
VERTEX
  8
240
  5
46FF
 10
3.16939
 20
5.38326
 30
0.000000
  70
    32
  0
VERTEX
  8
240
  5
4700
 10
3.17545
 20
5.38467
 30
0.000000
  70
    32
  0
VERTEX
  8
240
  5
4701
 10
3.18151
 20
5.38608
 30
0.000000
  70
    32
  0
VERTEX
  8
240
  5
4702
 10
3.18757
 20
5.38750
 30
0.000000
  70
    32
  0
VERTEX
  8
240
  5
4703
 10
3.19363
 20
5.38891
 30
0.000000
  70
    32
  0
VERTEX
  8
240
  5
4704
 10
3.19969
 20
5.39033
 30
0.000000
  70
    32
  0
VERTEX
  8
240
  5
4705
 10
3.20575
 20
5.39174
 30
0.000000
  70
    32
  0
VERTEX
  8
240
  5
4706
 10
3.21181
 20
5.39316
 30
0.000000
  70
    32
  0
VERTEX
  8
240
  5
4707
 10
3.21787
 20
5.39458
 30
0.000000
  70
    32
  0
VERTEX
  8
240
  5
4708
 10
3.22392
 20
5.39600
 30
0.000000
  70
    32
  0
VERTEX
  8
240
  5
4709
 10
3.22998
 20
5.39742
 30
0.000000
  70
    32
  0
VERTEX
  8
240
  5
470A
 10
3.23604
 20
5.39885
 30
0.000000
  70
    32
  0
VERTEX
  8
240
  5
470B
 10
3.24209
 20
5.40027
 30
0.000000
  70
    32
  0
VERTEX
  8
240
  5
470C
 10
3.24815
 20
5.40170
 30
0.000000
  70
    32
  0
VERTEX
  8
240
  5
470D
 10
3.25420
 20
5.40312
 30
0.000000
  70
    32
  0
VERTEX
  8
240
  5
470E
 10
3.26026
 20
5.40455
 30
0.000000
  70
    32
  0
VERTEX
  8
240
  5
470F
 10
3.26631
 20
5.40599
 30
0.000000
  70
    32
  0
VERTEX
  8
240
  5
4710
 10
3.27237
 20
5.40742
 30
0.000000
  70
    32
  0
VERTEX
  8
240
  5
4711
 10
3.27842
 20
5.40885
 30
0.000000
  70
    32
  0
VERTEX
  8
240
  5
4712
 10
3.28447
 20
5.41029
 30
0.000000
  70
    32
  0
VERTEX
  8
240
  5
4713
 10
3.29053
 20
5.41173
 30
0.000000
  70
    32
  0
VERTEX
  8
240
  5
4714
 10
3.29658
 20
5.41317
 30
0.000000
  70
    32
  0
VERTEX
  8
240
  5
4715
 10
3.30263
 20
5.41461
 30
0.000000
  70
    32
  0
VERTEX
  8
240
  5
4716
 10
3.30868
 20
5.41606
 30
0.000000
  70
    32
  0
VERTEX
  8
240
  5
4717
 10
3.31473
 20
5.41750
 30
0.000000
  70
    32
  0
VERTEX
  8
240
  5
4718
 10
3.32078
 20
5.41895
 30
0.000000
  70
    32
  0
VERTEX
  8
240
  5
4719
 10
3.32683
 20
5.42040
 30
0.000000
  70
    32
  0
VERTEX
  8
240
  5
471A
 10
3.33288
 20
5.42186
 30
0.000000
  70
    32
  0
VERTEX
  8
240
  5
471B
 10
3.33893
 20
5.42331
 30
0.000000
  70
    32
  0
VERTEX
  8
240
  5
471C
 10
3.34498
 20
5.42477
 30
0.000000
  70
    32
  0
VERTEX
  8
240
  5
471D
 10
3.35103
 20
5.42623
 30
0.000000
  70
    32
  0
VERTEX
  8
240
  5
471E
 10
3.35707
 20
5.42769
 30
0.000000
  70
    32
  0
VERTEX
  8
240
  5
471F
 10
3.36312
 20
5.42916
 30
0.000000
  70
    32
  0
VERTEX
  8
240
  5
4720
 10
3.36916
 20
5.43063
 30
0.000000
  70
    32
  0
VERTEX
  8
240
  5
4721
 10
3.37521
 20
5.43210
 30
0.000000
  70
    32
  0
VERTEX
  8
240
  5
4722
 10
3.38125
 20
5.43357
 30
0.000000
  70
    32
  0
VERTEX
  8
240
  5
4723
 10
3.38730
 20
5.43504
 30
0.000000
  70
    32
  0
VERTEX
  8
240
  5
4724
 10
3.39334
 20
5.43652
 30
0.000000
  70
    32
  0
VERTEX
  8
240
  5
4725
 10
3.39938
 20
5.43800
 30
0.000000
  70
    32
  0
VERTEX
  8
240
  5
4726
 10
3.40542
 20
5.43949
 30
0.000000
  70
    32
  0
VERTEX
  8
240
  5
4727
 10
3.41146
 20
5.44097
 30
0.000000
  70
    32
  0
VERTEX
  8
240
  5
4728
 10
3.41750
 20
5.44246
 30
0.000000
  70
    32
  0
VERTEX
  8
240
  5
4729
 10
3.42354
 20
5.44395
 30
0.000000
  70
    32
  0
VERTEX
  8
240
  5
472A
 10
3.42958
 20
5.44545
 30
0.000000
  70
    32
  0
VERTEX
  8
240
  5
472B
 10
3.43562
 20
5.44695
 30
0.000000
  70
    32
  0
VERTEX
  8
240
  5
472C
 10
3.44165
 20
5.44845
 30
0.000000
  70
    32
  0
VERTEX
  8
240
  5
472D
 10
3.44769
 20
5.44995
 30
0.000000
  70
    32
  0
VERTEX
  8
240
  5
472E
 10
3.45372
 20
5.45146
 30
0.000000
  70
    32
  0
VERTEX
  8
240
  5
472F
 10
3.45976
 20
5.45297
 30
0.000000
  70
    32
  0
VERTEX
  8
240
  5
4730
 10
3.46579
 20
5.45448
 30
0.000000
  70
    32
  0
VERTEX
  8
240
  5
4731
 10
3.47183
 20
5.45600
 30
0.000000
  70
    32
  0
VERTEX
  8
240
  5
4732
 10
3.47786
 20
5.45752
 30
0.000000
  70
    32
  0
VERTEX
  8
240
  5
4733
 10
3.48389
 20
5.45905
 30
0.000000
  70
    32
  0
VERTEX
  8
240
  5
4734
 10
3.48992
 20
5.46057
 30
0.000000
  70
    32
  0
VERTEX
  8
240
  5
4735
 10
3.49595
 20
5.46210
 30
0.000000
  70
    32
  0
VERTEX
  8
240
  5
4736
 10
3.50198
 20
5.46364
 30
0.000000
  70
    32
  0
VERTEX
  8
240
  5
4737
 10
3.50800
 20
5.46518
 30
0.000000
  70
    32
  0
VERTEX
  8
240
  5
4738
 10
3.51403
 20
5.46672
 30
0.000000
  70
    32
  0
VERTEX
  8
240
  5
4739
 10
3.52005
 20
5.46826
 30
0.000000
  70
    32
  0
VERTEX
  8
240
  5
473A
 10
3.52608
 20
5.46981
 30
0.000000
  70
    32
  0
VERTEX
  8
240
  5
473B
 10
3.53210
 20
5.47137
 30
0.000000
  70
    32
  0
VERTEX
  8
240
  5
473C
 10
3.53812
 20
5.47292
 30
0.000000
  70
    32
  0
VERTEX
  8
240
  5
473D
 10
3.54415
 20
5.47448
 30
0.000000
  70
    32
  0
VERTEX
  8
240
  5
473E
 10
3.55017
 20
5.47604
 30
0.000000
  70
    32
  0
VERTEX
  8
240
  5
473F
 10
3.55619
 20
5.47761
 30
0.000000
  70
    32
  0
VERTEX
  8
240
  5
4740
 10
3.56221
 20
5.47918
 30
0.000000
  70
    32
  0
VERTEX
  8
240
  5
4741
 10
3.56822
 20
5.48076
 30
0.000000
  70
    32
  0
VERTEX
  8
240
  5
4742
 10
3.57424
 20
5.48233
 30
0.000000
  70
    32
  0
VERTEX
  8
240
  5
4743
 10
3.58026
 20
5.48391
 30
0.000000
  70
    32
  0
VERTEX
  8
240
  5
4744
 10
3.58627
 20
5.48550
 30
0.000000
  70
    32
  0
VERTEX
  8
240
  5
4745
 10
3.59229
 20
5.48708
 30
0.000000
  70
    32
  0
VERTEX
  8
240
  5
4746
 10
3.59830
 20
5.48867
 30
0.000000
  70
    32
  0
VERTEX
  8
240
  5
4747
 10
3.60431
 20
5.49027
 30
0.000000
  70
    32
  0
VERTEX
  8
240
  5
4748
 10
3.61033
 20
5.49186
 30
0.000000
  70
    32
  0
VERTEX
  8
240
  5
4749
 10
3.61634
 20
5.49346
 30
0.000000
  70
    32
  0
VERTEX
  8
240
  5
474A
 10
3.62235
 20
5.49507
 30
0.000000
  70
    32
  0
VERTEX
  8
240
  5
474B
 10
3.62836
 20
5.49667
 30
0.000000
  70
    32
  0
VERTEX
  8
240
  5
474C
 10
3.63437
 20
5.49828
 30
0.000000
  70
    32
  0
VERTEX
  8
240
  5
474D
 10
3.64038
 20
5.49989
 30
0.000000
  70
    32
  0
VERTEX
  8
240
  5
474E
 10
3.64638
 20
5.50150
 30
0.000000
  70
    32
  0
VERTEX
  8
240
  5
474F
 10
3.65239
 20
5.50312
 30
0.000000
  70
    32
  0
VERTEX
  8
240
  5
4750
 10
3.65840
 20
5.50474
 30
0.000000
  70
    32
  0
VERTEX
  8
240
  5
4751
 10
3.66440
 20
5.50636
 30
0.000000
  70
    32
  0
VERTEX
  8
240
  5
4752
 10
3.67041
 20
5.50799
 30
0.000000
  70
    32
  0
VERTEX
  8
240
  5
4753
 10
3.67641
 20
5.50961
 30
0.000000
  70
    32
  0
VERTEX
  8
240
  5
4754
 10
3.68242
 20
5.51124
 30
0.000000
  70
    32
  0
VERTEX
  8
240
  5
4755
 10
3.68842
 20
5.51288
 30
0.000000
  70
    32
  0
VERTEX
  8
240
  5
4756
 10
3.69442
 20
5.51451
 30
0.000000
  70
    32
  0
VERTEX
  8
240
  5
4757
 10
3.70042
 20
5.51615
 30
0.000000
  70
    32
  0
VERTEX
  8
240
  5
4758
 10
3.70643
 20
5.51779
 30
0.000000
  70
    32
  0
VERTEX
  8
240
  5
4759
 10
3.71243
 20
5.51943
 30
0.000000
  70
    32
  0
VERTEX
  8
240
  5
475A
 10
3.71843
 20
5.52107
 30
0.000000
  70
    32
  0
VERTEX
  8
240
  5
475B
 10
3.72443
 20
5.52272
 30
0.000000
  70
    32
  0
VERTEX
  8
240
  5
475C
 10
3.73042
 20
5.52437
 30
0.000000
  70
    32
  0
VERTEX
  8
240
  5
475D
 10
3.73642
 20
5.52602
 30
0.000000
  70
    32
  0
VERTEX
  8
240
  5
475E
 10
3.74242
 20
5.52767
 30
0.000000
  70
    32
  0
VERTEX
  8
240
  5
475F
 10
3.74842
 20
5.52932
 30
0.000000
  70
    32
  0
VERTEX
  8
240
  5
4760
 10
3.75441
 20
5.53098
 30
0.000000
  70
    32
  0
VERTEX
  8
240
  5
4761
 10
3.76041
 20
5.53264
 30
0.000000
  70
    32
  0
VERTEX
  8
240
  5
4762
 10
3.76641
 20
5.53430
 30
0.000000
  70
    32
  0
VERTEX
  8
240
  5
4763
 10
3.77240
 20
5.53596
 30
0.000000
  70
    32
  0
VERTEX
  8
240
  5
4764
 10
3.77840
 20
5.53762
 30
0.000000
  70
    32
  0
VERTEX
  8
240
  5
4765
 10
3.78439
 20
5.53929
 30
0.000000
  70
    32
  0
VERTEX
  8
240
  5
4766
 10
3.79039
 20
5.54096
 30
0.000000
  70
    32
  0
VERTEX
  8
240
  5
4767
 10
3.79638
 20
5.54262
 30
0.000000
  70
    32
  0
VERTEX
  8
240
  5
4768
 10
3.80237
 20
5.54429
 30
0.000000
  70
    32
  0
VERTEX
  8
240
  5
4769
 10
3.80837
 20
5.54597
 30
0.000000
  70
    32
  0
VERTEX
  8
240
  5
476A
 10
3.81436
 20
5.54764
 30
0.000000
  70
    32
  0
VERTEX
  8
240
  5
476B
 10
3.82035
 20
5.54931
 30
0.000000
  70
    32
  0
VERTEX
  8
240
  5
476C
 10
3.82634
 20
5.55099
 30
0.000000
  70
    32
  0
VERTEX
  8
240
  5
476D
 10
3.83233
 20
5.55267
 30
0.000000
  70
    32
  0
VERTEX
  8
240
  5
476E
 10
3.83832
 20
5.55435
 30
0.000000
  70
    32
  0
VERTEX
  8
240
  5
476F
 10
3.84432
 20
5.55603
 30
0.000000
  70
    32
  0
VERTEX
  8
240
  5
4770
 10
3.85031
 20
5.55771
 30
0.000000
  70
    32
  0
VERTEX
  8
240
  5
4771
 10
3.85630
 20
5.55939
 30
0.000000
  70
    32
  0
VERTEX
  8
240
  5
4772
 10
3.86229
 20
5.56107
 30
0.000000
  70
    32
  0
VERTEX
  8
240
  5
4773
 10
3.86828
 20
5.56276
 30
0.000000
  70
    32
  0
VERTEX
  8
240
  5
4774
 10
3.87426
 20
5.56445
 30
0.000000
  70
    32
  0
VERTEX
  8
240
  5
4775
 10
3.88025
 20
5.56613
 30
0.000000
  70
    32
  0
VERTEX
  8
240
  5
4776
 10
3.88624
 20
5.56782
 30
0.000000
  70
    32
  0
VERTEX
  8
240
  5
4777
 10
3.89223
 20
5.56951
 30
0.000000
  70
    32
  0
VERTEX
  8
240
  5
4778
 10
3.89822
 20
5.57120
 30
0.000000
  70
    32
  0
VERTEX
  8
240
  5
4779
 10
3.90421
 20
5.57289
 30
0.000000
  70
    32
  0
VERTEX
  8
240
  5
477A
 10
3.91020
 20
5.57458
 30
0.000000
  70
    32
  0
VERTEX
  8
240
  5
477B
 10
3.91618
 20
5.57627
 30
0.000000
  70
    32
  0
VERTEX
  8
240
  5
477C
 10
3.92217
 20
5.57796
 30
0.000000
  70
    32
  0
VERTEX
  8
240
  5
477D
 10
3.92816
 20
5.57966
 30
0.000000
  70
    32
  0
VERTEX
  8
240
  5
477E
 10
3.93415
 20
5.58135
 30
0.000000
  70
    32
  0
VERTEX
  8
240
  5
477F
 10
3.94013
 20
5.58304
 30
0.000000
  70
    32
  0
VERTEX
  8
240
  5
4780
 10
3.94612
 20
5.58474
 30
0.000000
  70
    32
  0
VERTEX
  8
240
  5
4781
 10
3.95211
 20
5.58643
 30
0.000000
  70
    32
  0
VERTEX
  8
240
  5
4782
 10
3.95809
 20
5.58813
 30
0.000000
  70
    32
  0
VERTEX
  8
240
  5
4783
 10
3.96408
 20
5.58982
 30
0.000000
  70
    32
  0
VERTEX
  8
240
  5
4784
 10
3.97007
 20
5.59152
 30
0.000000
  70
    32
  0
VERTEX
  8
240
  5
4785
 10
3.97605
 20
5.59321
 30
0.000000
  70
    32
  0
VERTEX
  8
240
  5
4786
 10
3.98204
 20
5.59491
 30
0.000000
  70
    32
  0
VERTEX
  8
240
  5
4787
 10
3.98803
 20
5.59661
 30
0.000000
  70
    32
  0
VERTEX
  8
240
  5
4788
 10
3.99401
 20
5.59830
 30
0.000000
  70
    32
  0
VERTEX
  8
240
  5
4789
 10
4.00000
 20
5.60000
 30
0.000000
  70
    32
  0
SEQEND
  8
240
  5
478A
  0
LINE
  5
420B
  8
240
 10
4.0
 20
5.5999999999982526
 30
0.0
 11
6.3400000000006846
 21
5.5999999999984382
 31
0.0
1001
GRPNAME
1000
PASTMD10
  0
LINE
  5
420C
  8
241
 10
4.0
 20
5.5999999999982526
 30
0.0
 11
4.1999999999999877
 21
5.5999999999982526
 31
0.0
1001
GRPNAME
1000
PASTMD0O
  0
ARC
  5
420D
  8
241
 10
7.2769951354201927
 20
6.5418223586964848
 30
0.0
 40
0.1999999999999656
 50
95.000000165807904
 51
215.00000016582879
1001
GRPNAME
1000
PASTMD11
  0
CIRCLE
  5
420E
  8
246
 10
11.2284970869001
 20
4.6992067375068061
 30
0.0
 40
2.379999999999999
1001
GRPNAME
1000
PASTMD11
  0
LINE
  5
420F
  8
240
 10
14.200000000000029
 20
5.4400555310610272
 30
0.0
 11
14.200000000000109
 21
-2.990869021789023
 31
0.0
  0
ARC
  5
4211
  8
241
 10
14.799999999999949
 20
7.1999999999971394
 30
0.0
 40
0.2000000000000606
 50
335.00000032008938
 51
95.000000320066263
1001
GRPNAME
1000
PASTMD11
  0
ARC
  5
4220
  8
240
 10
13.700000000000109
 20
-2.990869021789031
 30
0.0
 40
0.5
 50
270.0
 51
0.0000000000004071
  0
TEXT
  5
429D
  8
241
 10
0.0
 20
28.0
 30
0.0
 40
3.0
  1
ENH3-1J
  7
YOKO
  0
LINE
  5
42AF
  8
250
 10
6.75
 20
-0.0000000000017694
 30
0.0
 11
29.0
 21
-0.0000000000017757
 31
0.0
  0
LINE
  5
42B0
  8
250
 10
15.299999999999949
 20
7.399999999997199
 30
0.0
 11
29.0
 21
7.3999999999971964
 31
0.0
  0
LINE
  5
42B1
  8
250
 10
28.0
 20
-2.230000000001775
 30
0.0
 11
28.0
 21
-4.4600000000017754
 31
0.0
  0
LINE
  5
42B2
  8
250
 10
28.000000000000011
 20
9.6299999999971941
 30
0.0
 11
28.000000000000011
 21
11.859999999997189
 31
0.0
  0
LINE
  5
42B3
  8
250
 10
28.0
 20
-0.0000000000017754
 30
0.0
 11
28.0
 21
7.3999999999971964
 31
0.0
  0
LINE
  5
42B8
  8
250
 10
31.305094508022648
 20
14.747445658224359
 30
0.0
 11
18.48602374796474
 21
14.747445658224359
 31
0.0
  0
LINE
  5
42B9
  8
250
 10
18.48602374796474
 20
14.747445658224359
 30
0.0
 11
14.235187004958821
 21
9.025129799066109
 31
0.0
  0
LINE
  5
42BA
  8
250
 10
14.235187004958821
 20
9.0251297990661072
 30
0.0
 11
12.905389817345281
 21
7.2350070547228258
 31
0.0
  0
LINE
  5
42BB
  8
250
 10
13.999512875729531
 20
9.2002009193190073
 30
0.0
 11
12.905389817345281
 21
7.2350070547228258
 31
0.0
  0
LINE
  5
42BC
  8
250
 10
12.905389817345281
 20
7.2350070547228258
 30
0.0
 11
14.470861134188111
 21
8.8500586788132072
 31
0.0
  0
LINE
  5
42BE
  8
250
 10
0.0
 20
7.3036859053050227
 30
0.0
 11
0.0000000000000009
 21
22.0
 31
0.0
  0
LINE
  5
42BF
  8
250
 10
15.000000000000011
 20
7.6999999999971394
 30
0.0
 11
15.000000000000011
 21
22.0
 31
0.0
  0
LINE
  5
42C0
  8
250
 10
2.23
 20
21.0
 30
0.0
 11
12.77000000000001
 21
21.0
 31
0.0
  0
TEXT
  5
42C4
  8
250
 10
4.63333333333334
 20
22.0
 30
0.0
 40
2.7999999999999989
  1
15
  0
LINE
  5
42C5
  8
250
 10
12.77000000000001
 20
21.37166666666667
 30
0.0
 11
15.000000000000011
 21
21.0
 31
0.0
  0
LINE
  5
42C6
  8
250
 10
12.77000000000001
 20
20.62833333333333
 30
0.0
 11
15.000000000000011
 21
21.0
 31
0.0
  0
LINE
  5
42C7
  8
250
 10
15.000000000000011
 20
21.0
 30
0.0
 11
12.77000000000001
 21
21.0
 31
0.0
  0
LINE
  5
42C8
  8
250
 10
2.23
 20
20.62833333333333
 30
0.0
 11
0.0000000000000009
 21
21.0
 31
0.0
  0
LINE
  5
42C9
  8
250
 10
2.23
 20
21.37166666666667
 30
0.0
 11
0.0000000000000009
 21
21.0
 31
0.0
  0
LINE
  5
42CA
  8
250
 10
0.0000000000000009
 20
21.0
 30
0.0
 11
2.23
 21
21.0
 31
0.0
  0
TEXT
  5
42CB
  8
250
 10
18.638427841355981
 20
16.14744565822437
 30
0.0
 40
2.7999999999999989
  1
TP08
  7
ACJISTS
  0
TEXT
  5
42CC
  8
250
 10
27.000000000000011
 20
0.2999999999977154
 30
0.0
 40
2.7999999999999989
  1
7.4
 50
90.0
  0
LINE
  5
42CD
  8
250
 10
28.371666666666659
 20
9.6299999999971941
 30
0.0
 11
28.0
 21
7.3999999999971964
 31
0.0
  0
LINE
  5
42CE
  8
250
 10
27.62833333333333
 20
9.6299999999971941
 30
0.0
 11
28.0
 21
7.3999999999971964
 31
0.0
  0
LINE
  5
42CF
  8
250
 10
28.0
 20
7.3999999999971964
 30
0.0
 11
28.0
 21
9.6299999999971941
 31
0.0
  0
LINE
  5
42D0
  8
250
 10
27.62833333333333
 20
-2.230000000001775
 30
0.0
 11
28.0
 21
-0.0000000000017754
 31
0.0
  0
LINE
  5
42D1
  8
250
 10
28.371666666666659
 20
-2.230000000001775
 30
0.0
 11
28.0
 21
-0.0000000000017754
 31
0.0
  0
LINE
  5
42D2
  8
250
 10
28.0
 20
-0.0000000000017754
 30
0.0
 11
28.0
 21
-2.230000000001775
 31
0.0
  0
VIEWPORT
  5
22
 67
     1
  8
0
 10
261.51769911504419
 20
148.5
 30
0.0
 40
523.0353982300885
 41
297.0
 68
     1
 69
     1
1001
ACAD
1000
MVIEW
1002
{
1070
    16
1010
0.0
1020
0.0
1030
0.0
1010
0.0
1020
0.0
1030
1.0
1040
0.0
1040
297.0
1040
261.51769911504419
1040
148.5
1040
50.0
1040
0.0
1040
0.0
1070
     0
1070
   100
1070
     1
1070
     1
1070
     0
1070
     0
1070
     0
1070
     0
1040
0.0
1040
0.0
1040
0.0
1040
1.0
1040
1.0
1040
10.0
1040
10.0
1070
     0
1002
{
1002
}
1002
}
1001
GENIUS_GENODEF_13
1002
{
1000
HIER
1070
     0
1002
}
1002
{
1000
MANEDIT
1070
     0
1002
}
1002
{
1000
NOSEL
1070
     0
1002
}
1002
{
1000
BEHIND
1070
     0
1002
}
1002
{
1000
OTHER
1070
     0
1002
}
1002
{
1000
REACTOR
1002
}
1001
GENIUS_GENOBJ-N-SDF_13
1002
{
1000
OWNER
1000
GEN
1002
}
1001
GENIUS_GENSCREG_15
1000
PF
1040
1.0
1000
DF
1040
1.0
1000
MIN
1011
0.0
1021
0.0
1031
0.0
1021
0.0
1031
0.0
1000
MAX
1011
523.0353982300885
1021
0.0
1031
0.0
1021
297.0
1031
0.0
1000
FLAGS
1070
     4
  0
ENDSEC
  0
EOF
