  0
SECTION
  2
HEADER
  9
$ACADVER
  1
AC1009
  9
$INSBASE
 10
0.0
 20
0.0
 30
0.0
  9
$EXTMIN
 10
-5.2000000000000002
 20
-4.4600000000000017
 30
0.0
  9
$EXTMAX
 10
29.753841065677371
 20
37.45000000000001
 30
0.0
  9
$LIMMIN
 10
0.0
 20
0.0
  9
$LIMMAX
 10
420.0
 20
297.0
  9
$ORTHOMODE
 70
     1
  9
$REGENMODE
 70
     1
  9
$FILLMODE
 70
     1
  9
$QTEXTMODE
 70
     0
  9
$MIRRTEXT
 70
     1
  9
$DRAGMODE
 70
     2
  9
$LTSCALE
 40
10.0
  9
$OSMODE
 70
    63
  9
$ATTMODE
 70
     1
  9
$TEXTSIZE
 40
3.0
  9
$TRACEWID
 40
1.0
  9
$TEXTSTYLE
  7
YOKO
  9
$CLAYER
  8
245
  9
$CELTYPE
  6
BYLAYER
  9
$CECOLOR
 62
   256
  9
$DIMSCALE
 40
1.0
  9
$DIMASZ
 40
2.2299999999999991
  9
$DIMEXO
 40
0.5
  9
$DIMDLI
 40
2.5
  9
$DIMRND
 40
0.0
  9
$DIMDLE
 40
0.0
  9
$DIMEXE
 40
1.0
  9
$DIMTP
 40
0.0
  9
$DIMTM
 40
0.0
  9
$DIMTXT
 40
2.799999999999998
  9
$DIMCEN
 40
0.0
  9
$DIMTSZ
 40
0.0
  9
$DIMTOL
 70
     0
  9
$DIMLIM
 70
     0
  9
$DIMTIH
 70
     0
  9
$DIMTOH
 70
     0
  9
$DIMSE1
 70
     0
  9
$DIMSE2
 70
     0
  9
$DIMTAD
 70
     3
  9
$DIMZIN
 70
     8
  9
$DIMBLK
  1

  9
$DIMASO
 70
     1
  9
$DIMSHO
 70
     1
  9
$DIMPOST
  1

  9
$DIMAPOST
  1

  9
$DIMALT
 70
     0
  9
$DIMALTD
 70
     2
  9
$DIMALTF
 40
25.399999999999999
  9
$DIMLFAC
 40
1.0
  9
$DIMTOFL
 70
     1
  9
$DIMTVP
 40
0.0
  9
$DIMTIX
 70
     1
  9
$DIMSOXD
 70
     0
  9
$DIMSAH
 70
     1
  9
$DIMBLK1
  1
OPEN
  9
$DIMBLK2
  1
OPEN
  9
$DIMSTYLE
  2
BIGT
  9
$DIMCLRD
 70
   256
  9
$DIMCLRE
 70
   256
  9
$DIMCLRT
 70
    40
  9
$DIMTFAC
 40
1.0
  9
$DIMGAP
 40
1.0
  9
$LUNITS
 70
     2
  9
$LUPREC
 70
     3
  9
$SKETCHINC
 40
1.0
  9
$FILLETRAD
 40
0.0
  9
$AUNITS
 70
     0
  9
$AUPREC
 70
     3
  9
$MENU
  1
.
  9
$ELEVATION
 40
0.0
  9
$PELEVATION
 40
0.0
  9
$THICKNESS
 40
0.0
  9
$LIMCHECK
 70
     0
  9
$BLIPMODE
 70
     0
  9
$CHAMFERA
 40
10.0
  9
$CHAMFERB
 40
10.0
  9
$SKPOLY
 70
     0
  9
$TDCREATE
 40
2455448.6799168061
  9
$TDUPDATE
 40
2457157.4748707642
  9
$TDINDWG
 40
0.0091204398
  9
$TDUSRTIMER
 40
0.0091204051
  9
$USRTIMER
 70
     1
  9
$ANGBASE
 50
0.0
  9
$ANGDIR
 70
     0
  9
$PDMODE
 70
     1
  9
$PDSIZE
 40
-5.0
  9
$PLINEWID
 40
0.0
  9
$COORDS
 70
     1
  9
$SPLFRAME
 70
     0
  9
$SPLINETYPE
 70
     6
  9
$SPLINESEGS
 70
     8
  9
$ATTDIA
 70
     1
  9
$ATTREQ
 70
     1
  9
$HANDLING
 70
     1
  9
$HANDSEED
  5
D95
  9
$SURFTAB1
 70
     6
  9
$SURFTAB2
 70
     6
  9
$SURFTYPE
 70
     6
  9
$SURFU
 70
     6
  9
$SURFV
 70
     6
  9
$UCSNAME
  2

  9
$UCSORG
 10
0.0
 20
0.0
 30
0.0
  9
$UCSXDIR
 10
1.0
 20
0.0
 30
0.0
  9
$UCSYDIR
 10
0.0
 20
1.0
 30
0.0
  9
$PUCSNAME
  2

  9
$PUCSORG
 10
0.0
 20
0.0
 30
0.0
  9
$PUCSXDIR
 10
1.0
 20
0.0
 30
0.0
  9
$PUCSYDIR
 10
0.0
 20
1.0
 30
0.0
  9
$USERI1
 70
     1
  9
$USERI2
 70
     0
  9
$USERI3
 70
     0
  9
$USERI4
 70
     0
  9
$USERI5
 70
     0
  9
$USERR1
 40
0.0
  9
$USERR2
 40
0.0
  9
$USERR3
 40
0.0
  9
$USERR4
 40
0.0
  9
$USERR5
 40
0.0
  9
$WORLDVIEW
 70
     1
  9
$SHADEDGE
 70
     3
  9
$SHADEDIF
 70
    70
  9
$TILEMODE
 70
     1
  9
$MAXACTVP
 70
    16
  9
$PLIMCHECK
 70
     0
  9
$PEXTMIN
 10
1.0000000000000000E+020
 20
1.0000000000000000E+020
 30
1.0000000000000000E+020
  9
$PEXTMAX
 10
-1.0000000000000000E+020
 20
-1.0000000000000000E+020
 30
-1.0000000000000000E+020
  9
$PLIMMIN
 10
0.0
 20
0.0
  9
$PLIMMAX
 10
420.0
 20
297.0
  9
$UNITMODE
 70
     0
  9
$VISRETAIN
 70
     0
  9
$PLINEGEN
 70
     0
  9
$PSLTSCALE
 70
     1
  0
ENDSEC
  0
SECTION
  2
TABLES
  0
TABLE
  2
VPORT
 70
     1
  0
VPORT
  2
*ACTIVE
 70
     0
 10
0.0
 20
0.0
 11
1.0
 21
1.0
 12
8.9363957076525367
 22
11.55539577166946
 13
0.0
 23
0.0
 14
7.0
 24
7.0
 15
7.0
 25
7.0
 16
0.0
 26
0.0
 36
1.0
 17
0.0
 27
0.0
 37
0.0
 40
64.752119772628092
 41
1.433260393873085
 42
50.0
 43
0.0
 44
0.0
 50
0.0
 51
0.0
 71
     0
 72
  2000
 73
     1
 74
     0
 75
     0
 76
     1
 77
     0
 78
     0
  0
ENDTAB
  0
TABLE
  2
LTYPE
 70
    21
  0
LTYPE
  2
CONTINUOUS
 70
     0
  3
Solid line
 72
    65
 73
     0
 40
0.0
  0
LTYPE
  2
CENTER2
 70
     0
  3
___ _ ___ _ ___ _ ___ _ ___ _ ___ _ ___ _ ___ _
 72
    65
 73
     4
 40
1.125
 49
0.75
 49
-0.125
 49
0.125
 49
-0.125
  0
LTYPE
  2
PHANTOM2
 70
     0
  3
___ _ _ ___ _ _ ___ _ _ ___ _ _ ___ _ _ ___ _ _
 72
    65
 73
     6
 40
1.25
 49
0.625
 49
-0.125
 49
0.125
 49
-0.125
 49
0.125
 49
-0.125
  0
LTYPE
  2
HIDDEN2
 70
     0
  3
_ _ _ _ _ _ _ _ _ _ _ _ _ _ _ _ _ _ _ _ _ _ _ _
 72
    65
 73
     2
 40
0.1875
 49
0.125
 49
-0.0625
  0
LTYPE
  2
AMCONSTR
 70
     0
  3
_______________________
 72
    65
 73
     2
 40
9999.0
 49
9999.0
 49
0.0
  0
LTYPE
  2
HIDDEN
 70
     0
  3
Hidden __ __ __ __ __ __ __ __ __ __ __ __ __ _
 72
    65
 73
     2
 40
0.375
 49
0.25
 49
-0.125
  0
LTYPE
  2
CENTER
 70
     0
  3
Center ____ _ ____ _ ____ _ ____ _ ____ _ ____
 72
    65
 73
     4
 40
2.0
 49
1.25
 49
-0.25
 49
0.25
 49
-0.25
  0
LTYPE
  2
AMZIGZAG2
 70
     0
  3
/\/-/\/-/\/-/\/-/\/-/\/
 72
    65
 73
     2
 40
0.4401
 49
0.0001
 49
-0.4400000000000001
  0
LTYPE
  2
ACANSTGB
 70
     0
  3
__ . . __ . .
 72
    65
 73
     6
 40
0.35433070866
 49
0.15748031496
 49
-0.03937007874
 49
0.03937007874
 49
-0.03937007874
 49
0.03937007874
 49
-0.03937007874
  0
LTYPE
  2
ACANSTGL
 70
     0
  3
_ _ _ _ _
 72
    65
 73
     2
 40
0.11811023622
 49
0.07874015748
 49
-0.03937007874
  0
ENDTAB
  0
TABLE
  2
LAYER
 70
     8
  0
LAYER
  2
0
 70
     0
 62
     7
  6
CONTINUOUS
  0
LAYER
  2
245
 70
     0
 62
     2
  6
CENTER2
  0
LAYER
  2
240
 70
     0
 62
     4
  6
CONTINUOUS
  0
LAYER
  2
241
 70
     0
 62
   211
  6
CONTINUOUS
  0
LAYER
  2
250
 70
     0
 62
     3
  6
CONTINUOUS
  0
LAYER
  2
DEFPOINTS
 70
     0
 62
     7
  6
CONTINUOUS
  0
LAYER
  2
246
 70
     0
 62
     3
  6
PHANTOM2
  0
ENDTAB
  0
TABLE
  2
STYLE
 70
    10
  0
STYLE
  2
STANDARD
 70
     0
 40
0.0
 41
1.0
 50
0.0
 71
     0
 42
3.0
  3
romans.shx
  4
BIGFONT.SHX
  0
STYLE
  2
YOKO
 70
     0
 40
0.0
 41
1.0
 50
0.0
 71
     0
 42
3.0
  3
romans.shx
  4
extfont.shx
  0
STYLE
  2
ACJISTS
 70
     0
 40
1.0
 41
1.0
 50
0.0
 71
     0
 42
3.0
  3
amgdt.shx
  4
extfont.shx
  0
STYLE
  2

 70
     1
 40
0.0
 41
1.0
 50
0.0
 71
     0
 42
3.0
  3
genltshp.shx
  4

  0
STYLE
  2
ACANSGDT
 70
     0
 40
0.0
 41
1.0
 50
0.0
 71
     0
 42
3.0
  3
amgdt.shx
  4

  0
ENDTAB
  0
TABLE
  2
VIEW
 70
     0
  0
ENDTAB
  0
TABLE
  2
UCS
 70
     0
  0
ENDTAB
  0
TABLE
  2
APPID
 70
    41
  0
APPID
  2
ACAD
 70
     0
  0
APPID
  2
ACADANNOTATIVE
 70
     0
  0
APPID
  2
GLOBAL
 70
     0
  0
APPID
  2
DETAIL
 70
     0
  0
APPID
  2
GRPNAME
 70
     0
  0
APPID
  2
GPARA
 70
     0
  0
APPID
  2
DCO15
 70
     0
  0
APPID
  2
ITEMNAME
 70
     0
  0
APPID
  2
GRADE_0
 70
     0
  0
APPID
  2
CONTENTBLOCKICON
 70
     0
  0
APPID
  2
MCAD_NO_VIS
 70
     0
  0
APPID
  2
ACAD_TEMP_GRAPHIC
 70
     0
  0
APPID
  2
ACATTRIBSERVICES
 70
     0
  0
APPID
  2
GENIUS_GENSCREG_15
 70
     0
  0
APPID
  2
GENIUS_GENODEF_13
 70
     0
  0
APPID
  2
GENIUS_GENOBJ-N-SDF_13
 70
     0
  0
APPID
  2
GENIUS_GENREC_14
 70
     0
  0
APPID
  2
GENIUS_GENOBJ-N-REC_13
 70
     0
  0
APPID
  2
GENIUS_GENDIMSH_14
 70
     0
  0
APPID
  2
GENIUS_GENOBJ-N-DIM_13
 70
     0
  0
APPID
  2
GENIUS_GENDIM_13
 70
     0
  0
APPID
  2
GENIUS_GENDTOL_13
 70
     0
  0
APPID
  2
GENIUS_GENOLIS_13
 70
     0
  0
APPID
  2
GENIUS_GENOENT_13
 70
     0
  0
APPID
  2
GENIUS_GENOBJ-F-FEM_13
 70
     0
  0
APPID
  2
GENIUS_GENOREF_13
 70
     0
  0
APPID
  2
GENIUS_GEFFEM_13
 70
     0
  0
APPID
  2
GENIUS_GEFFEMP_13
 70
     0
  0
APPID
  2
AD_DRAW
 70
     0
  0
APPID
  2
DESIGNERASSEMBLIES
 70
     0
  0
APPID
  2
ACADM_DIM_EDIT
 70
     0
  0
APPID
  2
AMDT_DM_ADJ
 70
     0
  0
APPID
  2
GENIUS_GENOBJ-N-FIL_13
 70
     0
  0
APPID
  2
GENIUS_GENFIL_13
 70
     0
  0
APPID
  2
GENIUS_GENOBJ-N-CHA_13
 70
     0
  0
APPID
  2
ACAD_NAV_VCDISPLAY
 70
     0
  0
APPID
  2
ACAECLAYERSTANDARD
 70
     0
  0
APPID
  2
ACAD_MLEADERVER
 70
     0
  0
APPID
  2
ACAD_DSTYLE_DIMJAG
 70
     0
  0
APPID
  2
ACAD_DSTYLE_DIMBREAK
 70
     0
  0
APPID
  2
ACAD_DSTYLE_DIMINSPECT
 70
     0
  0
ENDTAB
  0
TABLE
  2
DIMSTYLE
 70
    31
  0
DIMSTYLE
  2
STANDARD
 70
     0
  3

  4

  5

  6

  7

 40
1.0
 41
0.18
 42
0.0625
 43
0.38
 44
0.18
 45
0.0
 46
0.0
 47
0.0
 48
0.0
140
0.18
141
0.09
142
0.0
143
25.399999999999999
144
1.0
145
0.0
146
1.0
147
0.09
 71
     0
 72
     0
 73
     1
 74
     1
 75
     0
 76
     0
 77
     0
 78
     0
170
     0
171
     2
172
     0
173
     0
174
     0
175
     0
176
     0
177
     0
178
     0
  0
DIMSTYLE
  2
BIGT
 70
     0
  3

  4

  5

  6

  7

 40
1.0
 41
2.2299999999999991
 42
0.5
 43
7.0
 44
1.0
 45
0.0
 46
0.0
 47
0.0
 48
0.01
140
2.799999999999998
141
0.0
142
0.0
143
25.399999999999999
144
1.0
145
0.0
146
1.0
147
1.0
 71
     0
 72
     0
 73
     0
 74
     0
 75
     0
 76
     0
 77
     3
 78
     9
170
     0
171
     2
172
     1
173
     0
174
     1
175
     0
176
   256
177
   256
178
    40
  0
DIMSTYLE
  2
AM_ANSI
 70
     0
  3

  4
mm
  5

  6

  7

 40
1.0
 41
0.12
 42
0.05
 43
0.5
 44
0.1
 45
0.0
 46
0.0
 47
0.1
 48
0.1
140
0.12
141
0.0
142
0.0
143
25.399999999999999
144
1.0
145
0.0
146
0.71
147
0.06
 71
     0
 72
     0
 73
     1
 74
     1
 75
     0
 76
     0
 77
     0
 78
     7
170
     0
171
     2
172
     0
173
     0
174
     0
175
     0
176
   256
177
   256
178
     2
  0
DIMSTYLE
  2
AM_ANSI$3
 70
     0
  3

  4
mm
  5

  6

  7

 40
1.0
 41
0.12
 42
0.05
 43
0.5
 44
0.1
 45
0.0
 46
0.0
 47
0.1
 48
0.1
140
0.12
141
0.0
142
0.0
143
25.399999999999999
144
1.0
145
0.0
146
0.71
147
0.06
 71
     0
 72
     0
 73
     1
 74
     1
 75
     0
 76
     0
 77
     0
 78
     7
170
     0
171
     2
172
     0
173
     0
174
     0
175
     0
176
   256
177
   256
178
     2
  0
DIMSTYLE
  2
AM_ANSI$4
 70
     0
  3

  4
mm
  5

  6

  7

 40
1.0
 41
0.12
 42
0.05
 43
0.5
 44
0.1
 45
0.0
 46
0.0
 47
0.1
 48
0.1
140
0.12
141
0.0
142
0.0
143
25.399999999999999
144
1.0
145
0.0
146
0.71
147
0.06
 71
     0
 72
     0
 73
     1
 74
     1
 75
     0
 76
     0
 77
     0
 78
     7
170
     0
171
     2
172
     0
173
     0
174
     0
175
     0
176
   256
177
   256
178
     2
  0
DIMSTYLE
  2
AM_ANSI$7
 70
     0
  3

  4
mm
  5

  6

  7

 40
1.0
 41
0.12
 42
0.05
 43
0.5
 44
0.1
 45
0.0
 46
0.0
 47
0.1
 48
0.1
140
0.12
141
0.0
142
0.0
143
25.399999999999999
144
1.0
145
0.0
146
0.71
147
0.06
 71
     0
 72
     0
 73
     1
 74
     1
 75
     0
 76
     0
 77
     0
 78
     7
170
     0
171
     2
172
     0
173
     0
174
     0
175
     0
176
   256
177
   256
178
     2
  0
DIMSTYLE
  2
AM_ANSI$SF
 70
     0
  3

  4
mm
  5

  6

  7

 40
1.0
 41
0.12
 42
0.05
 43
0.5
 44
0.1
 45
0.0
 46
0.0
 47
0.1
 48
0.1
140
0.12
141
0.0
142
0.0
143
25.399999999999999
144
1.0
145
0.0
146
0.71
147
0.06
 71
     0
 72
     0
 73
     1
 74
     1
 75
     1
 76
     1
 77
     0
 78
     7
170
     0
171
     2
172
     0
173
     0
174
     0
175
     0
176
   256
177
   256
178
     2
  0
DIMSTYLE
  2
AM_ANSI$SH
 70
     0
  3

  4
mm
  5

  6
GENAXEH
  7

 40
1.0
 41
0.12
 42
0.05
 43
0.5
 44
0.1
 45
0.0
 46
0.0
 47
0.1
 48
0.1
140
0.12
141
0.0
142
0.0
143
25.399999999999999
144
1.0
145
0.0
146
0.71
147
0.06
 71
     0
 72
     0
 73
     1
 74
     1
 75
     1
 76
     1
 77
     0
 78
     7
170
     0
171
     2
172
     0
173
     1
174
     0
175
     0
176
   256
177
   256
178
     2
  0
ENDTAB
  0
ENDSEC
  0
SECTION
  2
BLOCKS
  0
BLOCK
  8
0
  2
$MODEL_SPACE
 70
     0
 10
0.0
 20
0.0
 30
0.0
  3
$MODEL_SPACE
  1

  0
ENDBLK
  5
BFD
  8
0
  0
BLOCK
 67
     1
  8
0
  2
$PAPER_SPACE
 70
     0
 10
0.0
 20
0.0
 30
0.0
  3
$PAPER_SPACE
  1

  0
ENDBLK
  5
BF9
 67
     1
  8
0
  0
BLOCK
  8
0
  2
_OPEN
 70
     0
 10
0.0
 20
0.0
 30
0.0
  3
_OPEN
  1

  0
LINE
  5
972
  8
0
  6
BYBLOCK
 62
     0
 10
-1.0
 20
0.1666666666666666
 30
0.0
 11
0.0
 21
0.0
 31
0.0
  0
LINE
  5
973
  8
0
  6
BYBLOCK
 62
     0
 10
-1.0
 20
-0.1666666666666666
 30
0.0
 11
0.0
 21
0.0
 31
0.0
  0
LINE
  5
974
  8
0
  6
BYBLOCK
 62
     0
 10
0.0
 20
0.0
 30
0.0
 11
-1.0
 21
0.0
 31
0.0
  0
ENDBLK
  5
975
  8
0
  0
BLOCK
  8
0
  2
矢印なし
 70
     0
 10
0.0
 20
0.0
 30
0.0
  3
矢印なし
  1

  0
ENDBLK
  5
6E5
  8
0
  0
BLOCK
  8
0
  2
GENAXEH
 70
     0
 10
0.0
 20
0.0
 30
0.0
  3
GENAXEH
  1

  0
LINE
  5
9AD
  8
0
 10
-1.0
 20
0.0
 30
0.0
 11
1.0
 21
0.0
 31
0.0
  0
ENDBLK
  5
9AE
  8
0
  0
BLOCK
  8
0
  2
_ACMFILLEDHALF
 70
     0
 10
0.0
 20
0.0
 30
0.0
  3
_ACMFILLEDHALF
  1

  0
TRACE
  5
CC1
  8
245
 62
     0
 10
-0.8
 20
0.0
 30
0.0
 11
-1.0
 21
0.166666666
 31
0.0
 12
0.0
 22
0.0
 32
0.0
 13
0.0
 23
0.0
 33
0.0
  0
LINE
  5
CC2
  8
245
 62
     0
 10
-1.0
 20
0.0
 30
0.0
 11
-0.8
 21
0.0
 31
0.0
  0
ENDBLK
  5
CC0
  8
0
  0
BLOCK
  8
0
  2
*U10
 70
     1
 10
0.0
 20
0.0
 30
0.0
  3
*U10
  1

  0
TEXT
  5
D92
  8
250
 10
20.0
 20
-1.941666666666666
 30
0.0
 40
2.799999999999998
  1
5.45
 50
90.0
  0
ENDBLK
  5
D94
  8
0
  0
ENDSEC
  0
SECTION
  2
ENTITIES
  0
INSERT
  5
6E6
  8
245
  2
矢印なし
 10
175.62382697000001
 20
90.551235719999994
 30
0.0
  0
TEXT
  5
826
  8
241
 10
-5.2000000000000002
 20
32.450000000000003
 30
0.0
 40
5.0
  1
ENH2-1
  7
YOKO
 11
-5.2000000000000002
 21
32.450000000000003
 31
0.0
 73
     1
  0
LINE
  5
A22
  8
240
  6
CONTINUOUS
 10
6.3675866900000004
 20
5.06637146
 30
0.0
 11
10.999070850000001
 21
5.06637146
 31
0.0
1001
GRPNAME
1000
PASTMD01
  0
LINE
  5
A23
  8
241
  6
CONTINUOUS
 10
4.9805509399999979
 20
1.9997823999999991
 30
0.0
 11
10.999070850000001
 21
5.06637146
 31
0.0
1001
GRPNAME
1000
PASTMD01
  0
LINE
  5
A24
  8
240
  6
CONTINUOUS
 10
10.997887459999999
 20
-2.5
 30
0.0
 11
5.6366201599999979
 21
0.0
 31
0.0
  0
LINE
  5
A25
  8
241
  6
CONTINUOUS
 10
4.9624212300000003
 20
1.6538469799999991
 30
0.0
 11
11.24446685
 21
-2.4257611499999991
 31
0.0
1001
GRPNAME
1000
PASTMD01
  0
POLYLINE
  5
AEB
  8
240
 66
     1
 10
0.0
 20
0.0
 30
0.0
 70
     8
  0
VERTEX
  5
AEC
  8
240
 10
-2.75
 20
4.4500000000000002
 30
0.0
 70
    32
  0
VERTEX
  5
AED
  8
240
 10
-2.715409999999999
 20
4.4435900000000004
 30
0.0
 70
    32
  0
VERTEX
  5
AEE
  8
240
 10
-2.6808200000000002
 20
4.4371700000000001
 30
0.0
 70
    32
  0
VERTEX
  5
AEF
  8
240
 10
-2.6462300000000001
 20
4.4307600000000003
 30
0.0
 70
    32
  0
VERTEX
  5
AF0
  8
240
 10
-2.6116399999999991
 20
4.4243600000000001
 30
0.0
 70
    32
  0
VERTEX
  5
AF1
  8
240
 10
-2.5770400000000002
 20
4.4179699999999986
 30
0.0
 70
    32
  0
VERTEX
  5
AF2
  8
240
 10
-2.5424500000000001
 20
4.4115799999999998
 30
0.0
 70
    32
  0
VERTEX
  5
AF3
  8
240
 10
-2.5078599999999991
 20
4.4052100000000003
 30
0.0
 70
    32
  0
VERTEX
  5
AF4
  8
240
 10
-2.473269999999999
 20
4.3988500000000004
 30
0.0
 70
    32
  0
VERTEX
  5
AF5
  8
240
 10
-2.4386799999999988
 20
4.3925099999999988
 30
0.0
 70
    32
  0
VERTEX
  5
AF6
  8
240
 10
-2.4040900000000001
 20
4.38619
 30
0.0
 70
    32
  0
VERTEX
  5
AF7
  8
240
 10
-2.3694999999999991
 20
4.3798799999999991
 30
0.0
 70
    32
  0
VERTEX
  5
AF8
  8
240
 10
-2.3349099999999989
 20
4.3735999999999988
 30
0.0
 70
    32
  0
VERTEX
  5
AF9
  8
240
 10
-2.3003099999999992
 20
4.3673500000000001
 30
0.0
 70
    32
  0
VERTEX
  5
AFA
  8
240
 10
-2.2657199999999991
 20
4.3611199999999988
 30
0.0
 70
    32
  0
VERTEX
  5
AFB
  8
240
 10
-2.2311299999999989
 20
4.354919999999999
 30
0.0
 70
    32
  0
VERTEX
  5
AFC
  8
240
 10
-2.1965400000000002
 20
4.3487400000000003
 30
0.0
 70
    32
  0
VERTEX
  5
AFD
  8
240
 10
-2.16195
 20
4.3426099999999987
 30
0.0
 70
    32
  0
VERTEX
  5
AFE
  8
240
 10
-2.127359999999999
 20
4.3365
 30
0.0
 70
    32
  0
VERTEX
  5
AFF
  8
240
 10
-2.0927699999999998
 20
4.3304299999999998
 30
0.0
 70
    32
  0
VERTEX
  5
B00
  8
240
 10
-2.0581800000000001
 20
4.3243999999999989
 30
0.0
 70
    32
  0
VERTEX
  5
B01
  8
240
 10
-2.023579999999999
 20
4.3184199999999988
 30
0.0
 70
    32
  0
VERTEX
  5
B02
  8
240
 10
-1.98899
 20
4.3124699999999994
 30
0.0
 70
    32
  0
VERTEX
  5
B03
  8
240
 10
-1.954399999999999
 20
4.3065699999999989
 30
0.0
 70
    32
  0
VERTEX
  5
B04
  8
240
 10
-1.9198099999999989
 20
4.3007099999999987
 30
0.0
 70
    32
  0
VERTEX
  5
B05
  8
240
 10
-1.8852199999999999
 20
4.2949099999999989
 30
0.0
 70
    32
  0
VERTEX
  5
B06
  8
240
 10
-1.8506299999999991
 20
4.2891500000000002
 30
0.0
 70
    32
  0
VERTEX
  5
B07
  8
240
 10
-1.8160400000000001
 20
4.2834500000000002
 30
0.0
 70
    32
  0
VERTEX
  5
B08
  8
240
 10
-1.7814499999999991
 20
4.2778
 30
0.0
 70
    32
  0
VERTEX
  5
B09
  8
240
 10
-1.746859999999999
 20
4.2722100000000003
 30
0.0
 70
    32
  0
VERTEX
  5
B0A
  8
240
 10
-1.712259999999999
 20
4.26668
 30
0.0
 70
    32
  0
VERTEX
  5
B0B
  8
240
 10
-1.6776699999999991
 20
4.2612100000000002
 30
0.0
 70
    32
  0
VERTEX
  5
B0C
  8
240
 10
-1.643079999999999
 20
4.2557999999999989
 30
0.0
 70
    32
  0
VERTEX
  5
B0D
  8
240
 10
-1.6084899999999991
 20
4.2504599999999986
 30
0.0
 70
    32
  0
VERTEX
  5
B0E
  8
240
 10
-1.5739000000000001
 20
4.2451800000000004
 30
0.0
 70
    32
  0
VERTEX
  5
B0F
  8
240
 10
-1.5393099999999991
 20
4.2399800000000001
 30
0.0
 70
    32
  0
VERTEX
  5
B10
  8
240
 10
-1.5047200000000001
 20
4.2348400000000002
 30
0.0
 70
    32
  0
VERTEX
  5
B11
  8
240
 10
-1.470129999999999
 20
4.229779999999999
 30
0.0
 70
    32
  0
VERTEX
  5
B12
  8
240
 10
-1.4355299999999991
 20
4.2247899999999996
 30
0.0
 70
    32
  0
VERTEX
  5
B13
  8
240
 10
-1.4009400000000001
 20
4.219879999999999
 30
0.0
 70
    32
  0
VERTEX
  5
B14
  8
240
 10
-1.3663499999999991
 20
4.2150499999999989
 30
0.0
 70
    32
  0
VERTEX
  5
B15
  8
240
 10
-1.3317600000000001
 20
4.2103000000000002
 30
0.0
 70
    32
  0
VERTEX
  5
B16
  8
240
 10
-1.2971699999999999
 20
4.2056300000000002
 30
0.0
 70
    32
  0
VERTEX
  5
B17
  8
240
 10
-1.26258
 20
4.2010500000000004
 30
0.0
 70
    32
  0
VERTEX
  5
B18
  8
240
 10
-1.227989999999999
 20
4.196559999999999
 30
0.0
 70
    32
  0
VERTEX
  5
B19
  8
240
 10
-1.1934
 20
4.1921499999999989
 30
0.0
 70
    32
  0
VERTEX
  5
B1A
  8
240
 10
-1.1588099999999999
 20
4.1878399999999996
 30
0.0
 70
    32
  0
VERTEX
  5
B1B
  8
240
 10
-1.124209999999999
 20
4.1836199999999986
 30
0.0
 70
    32
  0
VERTEX
  5
B1C
  8
240
 10
-1.08962
 20
4.1794900000000004
 30
0.0
 70
    32
  0
VERTEX
  5
B1D
  8
240
 10
-1.055029999999999
 20
4.1754699999999989
 30
0.0
 70
    32
  0
VERTEX
  5
B1E
  8
240
 10
-1.02044
 20
4.1715400000000002
 30
0.0
 70
    32
  0
VERTEX
  5
B1F
  8
240
 10
-0.9858489999999999
 20
4.1677099999999987
 30
0.0
 70
    32
  0
VERTEX
  5
B20
  8
240
 10
-0.9512579999999999
 20
4.1639900000000001
 30
0.0
 70
    32
  0
VERTEX
  5
B21
  8
240
 10
-0.9166669999999999
 20
4.1603699999999986
 30
0.0
 70
    32
  0
VERTEX
  5
B22
  8
240
 10
-0.8820750000000001
 20
4.1568599999999991
 30
0.0
 70
    32
  0
VERTEX
  5
B23
  8
240
 10
-0.847484
 20
4.153459999999999
 30
0.0
 70
    32
  0
VERTEX
  5
B24
  8
240
 10
-0.812893
 20
4.1501700000000001
 30
0.0
 70
    32
  0
VERTEX
  5
B25
  8
240
 10
-0.7783020000000001
 20
4.1470000000000002
 30
0.0
 70
    32
  0
VERTEX
  5
B26
  8
240
 10
-0.7437110000000001
 20
4.1439399999999988
 30
0.0
 70
    32
  0
VERTEX
  5
B27
  8
240
 10
-0.7091190000000001
 20
4.141
 30
0.0
 70
    32
  0
VERTEX
  5
B28
  8
240
 10
-0.6745280000000001
 20
4.1381699999999988
 30
0.0
 70
    32
  0
VERTEX
  5
B29
  8
240
 10
-0.639937
 20
4.1354699999999989
 30
0.0
 70
    32
  0
VERTEX
  5
B2A
  8
240
 10
-0.6053460000000001
 20
4.1329000000000002
 30
0.0
 70
    32
  0
VERTEX
  5
B2B
  8
240
 10
-0.5707550000000001
 20
4.1304499999999988
 30
0.0
 70
    32
  0
VERTEX
  5
B2C
  8
240
 10
-0.5361640000000002
 20
4.1281299999999996
 30
0.0
 70
    32
  0
VERTEX
  5
B2D
  8
240
 10
-0.501572
 20
4.1259300000000003
 30
0.0
 70
    32
  0
VERTEX
  5
B2E
  8
240
 10
-0.466981
 20
4.1238700000000001
 30
0.0
 70
    32
  0
VERTEX
  5
B2F
  8
240
 10
-0.43239
 20
4.12195
 30
0.0
 70
    32
  0
VERTEX
  5
B30
  8
240
 10
-0.397799
 20
4.1201600000000003
 30
0.0
 70
    32
  0
VERTEX
  5
B31
  8
240
 10
-0.363208
 20
4.1185
 30
0.0
 70
    32
  0
VERTEX
  5
B32
  8
240
 10
-0.328616
 20
4.1169900000000004
 30
0.0
 70
    32
  0
VERTEX
  5
B33
  8
240
 10
-0.294025
 20
4.1156199999999989
 30
0.0
 70
    32
  0
VERTEX
  5
B34
  8
240
 10
-0.259434
 20
4.1143999999999989
 30
0.0
 70
    32
  0
VERTEX
  5
B35
  8
240
 10
-0.224843
 20
4.113319999999999
 30
0.0
 70
    32
  0
VERTEX
  5
B36
  8
240
 10
-0.190252
 20
4.112379999999999
 30
0.0
 70
    32
  0
VERTEX
  5
B37
  8
240
 10
-0.15566
 20
4.1116000000000001
 30
0.0
 70
    32
  0
VERTEX
  5
B38
  8
240
 10
-0.121069
 20
4.11097
 30
0.0
 70
    32
  0
VERTEX
  5
B39
  8
240
 10
-0.086478
 20
4.1105
 30
0.0
 70
    32
  0
VERTEX
  5
B3A
  8
240
 10
-0.0518868
 20
4.1101799999999997
 30
0.0
 70
    32
  0
VERTEX
  5
B3B
  8
240
 10
-0.0172956
 20
4.1100199999999987
 30
0.0
 70
    32
  0
VERTEX
  5
B3C
  8
240
 10
0.0172956
 20
4.1100199999999987
 30
0.0
 70
    32
  0
VERTEX
  5
B3D
  8
240
 10
0.0518868
 20
4.1101799999999997
 30
0.0
 70
    32
  0
VERTEX
  5
B3E
  8
240
 10
0.086478
 20
4.1105
 30
0.0
 70
    32
  0
VERTEX
  5
B3F
  8
240
 10
0.121069
 20
4.11097
 30
0.0
 70
    32
  0
VERTEX
  5
B40
  8
240
 10
0.15566
 20
4.1116000000000001
 30
0.0
 70
    32
  0
VERTEX
  5
B41
  8
240
 10
0.190252
 20
4.112379999999999
 30
0.0
 70
    32
  0
VERTEX
  5
B42
  8
240
 10
0.224843
 20
4.113319999999999
 30
0.0
 70
    32
  0
VERTEX
  5
B43
  8
240
 10
0.259434
 20
4.1143999999999989
 30
0.0
 70
    32
  0
VERTEX
  5
B44
  8
240
 10
0.294025
 20
4.1156199999999989
 30
0.0
 70
    32
  0
VERTEX
  5
B45
  8
240
 10
0.328616
 20
4.1169900000000004
 30
0.0
 70
    32
  0
VERTEX
  5
B46
  8
240
 10
0.363208
 20
4.1185
 30
0.0
 70
    32
  0
VERTEX
  5
B47
  8
240
 10
0.397799
 20
4.1201600000000003
 30
0.0
 70
    32
  0
VERTEX
  5
B48
  8
240
 10
0.43239
 20
4.12195
 30
0.0
 70
    32
  0
VERTEX
  5
B49
  8
240
 10
0.466981
 20
4.1238700000000001
 30
0.0
 70
    32
  0
VERTEX
  5
B4A
  8
240
 10
0.501572
 20
4.1259300000000003
 30
0.0
 70
    32
  0
VERTEX
  5
B4B
  8
240
 10
0.5361640000000002
 20
4.1281299999999996
 30
0.0
 70
    32
  0
VERTEX
  5
B4C
  8
240
 10
0.5707550000000001
 20
4.1304499999999988
 30
0.0
 70
    32
  0
VERTEX
  5
B4D
  8
240
 10
0.6053460000000001
 20
4.1329000000000002
 30
0.0
 70
    32
  0
VERTEX
  5
B4E
  8
240
 10
0.639937
 20
4.1354699999999989
 30
0.0
 70
    32
  0
VERTEX
  5
B4F
  8
240
 10
0.6745280000000001
 20
4.1381699999999988
 30
0.0
 70
    32
  0
VERTEX
  5
B50
  8
240
 10
0.7091190000000001
 20
4.141
 30
0.0
 70
    32
  0
VERTEX
  5
B51
  8
240
 10
0.7437110000000001
 20
4.1439399999999988
 30
0.0
 70
    32
  0
VERTEX
  5
B52
  8
240
 10
0.7783020000000001
 20
4.1470000000000002
 30
0.0
 70
    32
  0
VERTEX
  5
B53
  8
240
 10
0.812893
 20
4.1501700000000001
 30
0.0
 70
    32
  0
VERTEX
  5
B54
  8
240
 10
0.847484
 20
4.153459999999999
 30
0.0
 70
    32
  0
VERTEX
  5
B55
  8
240
 10
0.8820750000000001
 20
4.1568599999999991
 30
0.0
 70
    32
  0
VERTEX
  5
B56
  8
240
 10
0.9166669999999999
 20
4.1603699999999986
 30
0.0
 70
    32
  0
VERTEX
  5
B57
  8
240
 10
0.9512579999999999
 20
4.1639900000000001
 30
0.0
 70
    32
  0
VERTEX
  5
B58
  8
240
 10
0.9858489999999999
 20
4.1677099999999987
 30
0.0
 70
    32
  0
VERTEX
  5
B59
  8
240
 10
1.02044
 20
4.1715400000000002
 30
0.0
 70
    32
  0
VERTEX
  5
B5A
  8
240
 10
1.055029999999999
 20
4.1754699999999989
 30
0.0
 70
    32
  0
VERTEX
  5
B5B
  8
240
 10
1.08962
 20
4.1794900000000004
 30
0.0
 70
    32
  0
VERTEX
  5
B5C
  8
240
 10
1.124209999999999
 20
4.1836199999999986
 30
0.0
 70
    32
  0
VERTEX
  5
B5D
  8
240
 10
1.1588099999999999
 20
4.1878399999999996
 30
0.0
 70
    32
  0
VERTEX
  5
B5E
  8
240
 10
1.1934
 20
4.1921499999999989
 30
0.0
 70
    32
  0
VERTEX
  5
B5F
  8
240
 10
1.227989999999999
 20
4.196559999999999
 30
0.0
 70
    32
  0
VERTEX
  5
B60
  8
240
 10
1.26258
 20
4.2010500000000004
 30
0.0
 70
    32
  0
VERTEX
  5
B61
  8
240
 10
1.2971699999999999
 20
4.2056300000000002
 30
0.0
 70
    32
  0
VERTEX
  5
B62
  8
240
 10
1.3317600000000001
 20
4.2103000000000002
 30
0.0
 70
    32
  0
VERTEX
  5
B63
  8
240
 10
1.3663499999999991
 20
4.2150499999999989
 30
0.0
 70
    32
  0
VERTEX
  5
B64
  8
240
 10
1.4009400000000001
 20
4.219879999999999
 30
0.0
 70
    32
  0
VERTEX
  5
B65
  8
240
 10
1.4355299999999991
 20
4.2247899999999996
 30
0.0
 70
    32
  0
VERTEX
  5
B66
  8
240
 10
1.470129999999999
 20
4.229779999999999
 30
0.0
 70
    32
  0
VERTEX
  5
B67
  8
240
 10
1.5047200000000001
 20
4.2348400000000002
 30
0.0
 70
    32
  0
VERTEX
  5
B68
  8
240
 10
1.5393099999999991
 20
4.2399800000000001
 30
0.0
 70
    32
  0
VERTEX
  5
B69
  8
240
 10
1.5739000000000001
 20
4.2451800000000004
 30
0.0
 70
    32
  0
VERTEX
  5
B6A
  8
240
 10
1.6084899999999991
 20
4.2504599999999986
 30
0.0
 70
    32
  0
VERTEX
  5
B6B
  8
240
 10
1.643079999999999
 20
4.2557999999999989
 30
0.0
 70
    32
  0
VERTEX
  5
B6C
  8
240
 10
1.6776699999999991
 20
4.2612100000000002
 30
0.0
 70
    32
  0
VERTEX
  5
B6D
  8
240
 10
1.712259999999999
 20
4.26668
 30
0.0
 70
    32
  0
VERTEX
  5
B6E
  8
240
 10
1.746859999999999
 20
4.2722100000000003
 30
0.0
 70
    32
  0
VERTEX
  5
B6F
  8
240
 10
1.7814499999999991
 20
4.2778
 30
0.0
 70
    32
  0
VERTEX
  5
B70
  8
240
 10
1.8160400000000001
 20
4.2834500000000002
 30
0.0
 70
    32
  0
VERTEX
  5
B71
  8
240
 10
1.8506299999999991
 20
4.2891500000000002
 30
0.0
 70
    32
  0
VERTEX
  5
B72
  8
240
 10
1.8852199999999999
 20
4.2949099999999989
 30
0.0
 70
    32
  0
VERTEX
  5
B73
  8
240
 10
1.9198099999999989
 20
4.3007099999999987
 30
0.0
 70
    32
  0
VERTEX
  5
B74
  8
240
 10
1.954399999999999
 20
4.3065699999999989
 30
0.0
 70
    32
  0
VERTEX
  5
B75
  8
240
 10
1.98899
 20
4.3124699999999994
 30
0.0
 70
    32
  0
VERTEX
  5
B76
  8
240
 10
2.023579999999999
 20
4.3184199999999988
 30
0.0
 70
    32
  0
VERTEX
  5
B77
  8
240
 10
2.0581800000000001
 20
4.3243999999999989
 30
0.0
 70
    32
  0
VERTEX
  5
B78
  8
240
 10
2.0927699999999998
 20
4.3304299999999998
 30
0.0
 70
    32
  0
VERTEX
  5
B79
  8
240
 10
2.127359999999999
 20
4.3365
 30
0.0
 70
    32
  0
VERTEX
  5
B7A
  8
240
 10
2.16195
 20
4.3426099999999987
 30
0.0
 70
    32
  0
VERTEX
  5
B7B
  8
240
 10
2.1965400000000002
 20
4.3487400000000003
 30
0.0
 70
    32
  0
VERTEX
  5
B7C
  8
240
 10
2.2311299999999989
 20
4.354919999999999
 30
0.0
 70
    32
  0
VERTEX
  5
B7D
  8
240
 10
2.2657199999999991
 20
4.3611199999999988
 30
0.0
 70
    32
  0
VERTEX
  5
B7E
  8
240
 10
2.3003099999999992
 20
4.3673500000000001
 30
0.0
 70
    32
  0
VERTEX
  5
B7F
  8
240
 10
2.3349099999999989
 20
4.3735999999999988
 30
0.0
 70
    32
  0
VERTEX
  5
B80
  8
240
 10
2.3694999999999991
 20
4.3798799999999991
 30
0.0
 70
    32
  0
VERTEX
  5
B81
  8
240
 10
2.4040900000000001
 20
4.38619
 30
0.0
 70
    32
  0
VERTEX
  5
B82
  8
240
 10
2.4386799999999988
 20
4.3925099999999988
 30
0.0
 70
    32
  0
VERTEX
  5
B83
  8
240
 10
2.473269999999999
 20
4.3988500000000004
 30
0.0
 70
    32
  0
VERTEX
  5
B84
  8
240
 10
2.5078599999999991
 20
4.4052100000000003
 30
0.0
 70
    32
  0
VERTEX
  5
B85
  8
240
 10
2.5424500000000001
 20
4.4115799999999998
 30
0.0
 70
    32
  0
VERTEX
  5
B86
  8
240
 10
2.5770400000000002
 20
4.4179699999999986
 30
0.0
 70
    32
  0
VERTEX
  5
B87
  8
240
 10
2.6116399999999991
 20
4.4243600000000001
 30
0.0
 70
    32
  0
VERTEX
  5
B88
  8
240
 10
2.6462300000000001
 20
4.4307600000000003
 30
0.0
 70
    32
  0
VERTEX
  5
B89
  8
240
 10
2.6808200000000002
 20
4.4371700000000001
 30
0.0
 70
    32
  0
VERTEX
  5
B8A
  8
240
 10
2.715409999999999
 20
4.4435900000000004
 30
0.0
 70
    32
  0
VERTEX
  5
B8B
  8
240
 10
2.75
 20
4.4500000000000002
 30
0.0
 70
    32
  0
SEQEND
  5
B8C
  8
240
  0
LINE
  5
A27
  8
240
  6
CONTINUOUS
 10
-5.2000000000000002
 20
0.0
 30
0.0
 11
-1.449391649999999
 21
0.0
 31
0.0
  0
LINE
  5
A28
  8
240
  6
CONTINUOUS
 10
-5.2000000000000002
 20
0.0
 30
0.0
 11
-5.2000000000000002
 21
3.4500000000000002
 31
0.0
  0
ARC
  5
A29
  8
240
  6
CONTINUOUS
 10
-4.2000000000000002
 20
3.4500000000000002
 30
0.0
 40
1.0
 50
90.0
 51
180.0
  0
LINE
  5
A2A
  8
240
  6
CONTINUOUS
 10
-4.2000000000000002
 20
4.4500000000000002
 30
0.0
 11
-2.75
 21
4.4500000000000002
 31
0.0
  0
LINE
  5
A2B
  8
241
  6
CONTINUOUS
 10
5.2000000000000002
 20
2.1115972808488821
 30
0.0
 11
5.2000000000000002
 21
3.4500000000000002
 31
0.0
  0
LINE
  5
A2D
  8
245
  6
CENTER2
 10
0.0
 20
5.4500000000000002
 30
0.0
 11
0.0
 21
-1.0
 31
0.0
  0
LINE
  5
A2E
  8
240
  6
CONTINUOUS
 10
1.449391649999999
 20
0.0
 30
0.0
 11
5.6366201599999979
 21
0.0
 31
0.0
  0
LINE
  5
A2F
  8
240
  6
CONTINUOUS
 10
-1.449391649999999
 20
1.25
 30
0.0
 11
1.449391649999999
 21
1.25
 31
0.0
  0
LINE
  5
A30
  8
240
  6
CONTINUOUS
 10
-1.449391649999999
 20
0.0
 30
0.0
 11
-1.449391649999999
 21
1.25
 31
0.0
  0
LINE
  5
A31
  8
240
  6
CONTINUOUS
 10
1.449391649999999
 20
0.0
 30
0.0
 11
1.449391649999999
 21
1.25
 31
0.0
  0
LINE
  5
A33
  8
241
  6
CONTINUOUS
 10
5.2000000000000002
 20
0.0
 30
0.0
 11
5.2000000000000002
 21
1.4995615226448851
 31
0.0
  0
ARC
  5
A34
  8
241
  6
PHANTOM2
 10
5.0713490400000003
 20
1.82158109
 30
0.0
 40
0.1999999999999927
 50
117.00000006
 51
237.00000005999991
1001
GRPNAME
1000
PASTMD01
  0
LINE
  5
A35
  8
240
  6
CONTINUOUS
 10
2.75
 20
4.4500000000000002
 30
0.0
 11
5.299999999999998
 21
4.4500000000000002
 31
0.0
  0
LINE
  5
A37
  8
240
  6
CONTINUOUS
 10
5.299999999999998
 20
4.4500000000000002
 30
0.0
 11
6.3675866900000004
 21
5.06637146
 31
0.0
  0
ARC
  5
A38
  8
241
  6
CONTINUOUS
 10
4.2000000000000002
 20
3.4500000000000002
 30
0.0
 40
1.0
 50
0.0
 51
90.0
  0
LINE
  5
A39
  8
240
  6
PHANTOM2
 10
11.99972591
 20
5.23953281
 30
0.0
 11
11.60449829
 21
-2.3018593100000002
 31
0.0
1001
GRPNAME
1000
PASTMD01
  0
LINE
  5
A3A
  8
240
  6
CONTINUOUS
 10
11.24057616
 20
-2.5
 30
0.0
 11
11.24446685
 21
-2.4257611499999991
 31
0.0
1001
GRPNAME
1000
PASTMD01
  0
LINE
  5
A3B
  8
240
  6
PHANTOM2
 10
11.24446685
 20
-2.4257611499999991
 30
0.0
 11
11.295844580000001
 21
-2.459126239999998
 31
0.0
1001
GRPNAME
1000
PASTMD01
  0
LINE
  5
A3C
  8
240
  6
CONTINUOUS
 10
10.997887459999999
 20
-2.5
 30
0.0
 11
11.24057616
 21
-2.5
 31
0.0
  0
ARC
  5
A3D
  8
240
  6
PHANTOM2
 10
11.40477239
 20
-2.2913921199999989
 30
0.0
 40
0.1999999999999987
 50
236.99999998000001
 51
356.99999997999998
1001
GRPNAME
1000
PASTMD01
  0
ARC
  5
A3E
  8
240
  6
PHANTOM2
 10
11.800000000000001
 20
5.25
 30
0.0
 40
0.1999999999999948
 50
356.99999991999999
 51
116.99999991999999
1001
GRPNAME
1000
PASTMD01
  0
LINE
  5
A3F
  8
240
  6
PHANTOM2
 10
11.7092019
 20
5.4282012999999987
 30
0.0
 11
10.999070850000001
 21
5.06637146
 31
0.0
1001
GRPNAME
1000
PASTMD01
  0
LINE
  5
A40
  8
250
 10
0.0
 20
5.9500000000000002
 30
0.0
 11
0.0
 21
14.867371722760771
 31
0.0
  0
LINE
  5
A41
  8
250
 10
12.0
 20
5.75
 30
0.0
 11
12.0
 21
14.867371722760771
 31
0.0
  0
LINE
  5
A42
  8
250
 10
2.2299999999999991
 20
13.867371722760771
 30
0.0
 11
9.7699999999999996
 21
13.867371722760771
 31
0.0
  0
TEXT
  5
A4C
  8
250
 10
3.133333333333332
 20
14.867371722760771
 30
0.0
 40
2.799999999999998
  1
12
1001
ACAD
1000
MTEXTBEGIN
1070
    73
1070
     1
1070
    44
1040
1.0
1070
    74
1070
     0
1000
MTEXTEND
  0
LINE
  5
A4D
  8
250
 10
9.7699999999999996
 20
14.239038389427449
 30
0.0
 11
12.0
 21
13.867371722760771
 31
0.0
  0
LINE
  5
A4E
  8
250
 10
9.7699999999999996
 20
13.495705056094099
 30
0.0
 11
12.0
 21
13.867371722760771
 31
0.0
  0
LINE
  5
A4F
  8
250
 10
12.0
 20
13.867371722760771
 30
0.0
 11
9.7699999999999996
 21
13.867371722760771
 31
0.0
  0
LINE
  5
A50
  8
250
 10
2.2299999999999991
 20
13.495705056094099
 30
0.0
 11
0.0
 21
13.867371722760771
 31
0.0
  0
LINE
  5
A51
  8
250
 10
2.2299999999999991
 20
14.23903838942744
 30
0.0
 11
0.0
 21
13.867371722760771
 31
0.0
  0
LINE
  5
A52
  8
250
 10
0.0
 20
13.867371722760771
 30
0.0
 11
2.2299999999999991
 21
13.867371722760771
 31
0.0
  0
CIRCLE
  5
A5A
  8
246
 10
9.4253738074518107
 20
1.593396322893277
 30
0.0
 40
2.3799999996773602
  0
LINE
  5
D20
  8
250
 10
29.753841065677371
 20
12.759724983501529
 30
0.0
 11
16.934770305619448
 21
12.759724983501529
 31
0.0
  0
LINE
  5
D21
  8
250
 10
16.934770305619448
 20
12.759724983501529
 30
0.0
 11
12.683933562613539
 21
7.0374091243432799
 31
0.0
  0
LINE
  5
D22
  8
250
 10
12.683933562613539
 20
7.0374091243432817
 30
0.0
 11
11.354136375
 21
5.2472863799999994
 31
0.0
  0
LINE
  5
D23
  8
250
 10
12.44825943338425
 20
7.21248024459618
 30
0.0
 11
11.354136375
 21
5.2472863799999994
 31
0.0
  0
LINE
  5
D24
  8
250
 10
11.354136375
 20
5.2472863799999994
 30
0.0
 11
12.919607691842829
 21
6.8623380040903799
 31
0.0
  0
TEXT
  5
D25
  8
250
 10
17.087174399010699
 20
14.15972498350154
 30
0.0
 40
2.799999999999998
  1
TP08
  7
ACJISTS
  0
LINE
  5
D26
  8
250
 10
6.1366201599999979
 20
-0.0000000000000001
 30
0.0
 11
22.0
 21
-0.0000000000000046
 31
0.0
  0
LINE
  5
D27
  8
250
 10
12.300000000000001
 20
5.449999999999994
 30
0.0
 11
22.0
 21
5.4499999999999922
 31
0.0
  0
LINE
  5
D28
  8
250
 10
21.0
 20
-2.2300000000000031
 30
0.0
 11
21.0
 21
-4.4600000000000017
 31
0.0
  0
LINE
  5
D29
  8
250
 10
21.0
 20
7.6799999999999908
 30
0.0
 11
21.0
 21
9.9099999999999895
 31
0.0
  0
LINE
  5
D2A
  8
250
 10
21.0
 20
-0.0000000000000044
 30
0.0
 11
21.0
 21
5.4499999999999922
 31
0.0
  0
INSERT
  5
D2D
  8
245
  2
*U10
 10
0.0
 20
0.0
 30
0.0
  0
LINE
  5
D30
  8
250
 10
21.37166666666667
 20
7.6799999999999899
 30
0.0
 11
21.0
 21
5.4499999999999922
 31
0.0
  0
LINE
  5
D31
  8
250
 10
20.62833333333333
 20
7.6799999999999899
 30
0.0
 11
21.0
 21
5.4499999999999922
 31
0.0
  0
LINE
  5
D32
  8
250
 10
21.0
 20
5.4499999999999922
 30
0.0
 11
21.0
 21
7.6799999999999899
 31
0.0
  0
LINE
  5
D33
  8
250
 10
20.62833333333333
 20
-2.2300000000000031
 30
0.0
 11
21.0
 21
-0.0000000000000044
 31
0.0
  0
LINE
  5
D34
  8
250
 10
21.37166666666667
 20
-2.2300000000000031
 30
0.0
 11
21.0
 21
-0.0000000000000044
 31
0.0
  0
LINE
  5
D35
  8
250
 10
21.0
 20
-0.0000000000000044
 30
0.0
 11
21.0
 21
-2.2300000000000031
 31
0.0
  0
VIEWPORT
  5
22
 67
     1
  8
0
 10
261.51769911999997
 20
148.5
 30
0.0
 40
523.03539823000006
 41
297.0
 68
     1
 69
     1
1001
ACAD
1000
MVIEW
1002
{
1070
    16
1010
0.0
1020
0.0
1030
0.0
1010
0.0
1020
0.0
1030
1.0
1040
0.0
1040
297.0
1040
261.51769911999997
1040
148.5
1040
50.0
1040
0.0
1040
0.0
1070
     0
1070
   100
1070
     1
1070
     1
1070
     0
1070
     0
1070
     0
1070
     0
1040
0.0
1040
0.0
1040
0.0
1040
1.0
1040
1.0
1040
10.0
1040
10.0
1070
     0
1002
{
1002
}
1002
}
1001
GENIUS_GENODEF_13
1002
{
1000
HIER
1070
     0
1002
}
1002
{
1000
MANEDIT
1070
     0
1002
}
1002
{
1000
NOSEL
1070
     0
1002
}
1002
{
1000
BEHIND
1070
     0
1002
}
1002
{
1000
OTHER
1070
     0
1002
}
1002
{
1000
REACTOR
1002
}
1001
GENIUS_GENOBJ-N-SDF_13
1002
{
1000
OWNER
1000
GEN
1002
}
1001
GENIUS_GENSCREG_15
1000
PF
1040
1.0
1000
DF
1040
1.0
1000
MIN
1011
0.0000000049999471
1021
0.0
1031
0.0
1021
0.0
1031
0.0
1000
MAX
1011
523.035398235
1021
0.0
1031
0.0
1021
297.0
1031
0.0
1000
FLAGS
1070
     4
  0
ENDSEC
  0
EOF
