  0
SECTION
  2
HEADER
  9
$ACADVER
  1
AC1009
  9
$INSBASE
 10
0.0
 20
0.0
 30
0.0
  9
$EXTMIN
 10
-52.79999999999999
 20
-8.5
 30
0.0
  9
$EXTMAX
 10
15.000000000000011
 20
40.000000000000021
 30
0.0
  9
$LIMMIN
 10
0.0
 20
0.0
  9
$LIMMAX
 10
297.0
 20
210.0
  9
$ORTHOMODE
 70
     1
  9
$REGENMODE
 70
     1
  9
$FILLMODE
 70
     1
  9
$QTEXTMODE
 70
     0
  9
$MIRRTEXT
 70
     1
  9
$DRAGMODE
 70
     2
  9
$LTSCALE
 40
10.0
  9
$OSMODE
 70
     7
  9
$ATTMODE
 70
     1
  9
$TEXTSIZE
 40
3.0
  9
$TRACEWID
 40
1.0
  9
$TEXTSTYLE
  7
YOKO
  9
$CLAYER
  8
240
  9
$CELTYPE
  6
BYLAYER
  9
$CECOLOR
 62
   256
  9
$DIMSCALE
 40
1.0
  9
$DIMASZ
 40
2.2299999999999991
  9
$DIMEXO
 40
0.5
  9
$DIMDLI
 40
7.0
  9
$DIMRND
 40
0.0
  9
$DIMDLE
 40
0.0
  9
$DIMEXE
 40
1.0
  9
$DIMTP
 40
0.0
  9
$DIMTM
 40
0.01
  9
$DIMTXT
 40
2.7999999999999989
  9
$DIMCEN
 40
0.0
  9
$DIMTSZ
 40
0.0
  9
$DIMTOL
 70
     0
  9
$DIMLIM
 70
     0
  9
$DIMTIH
 70
     0
  9
$DIMTOH
 70
     0
  9
$DIMSE1
 70
     0
  9
$DIMSE2
 70
     0
  9
$DIMTAD
 70
     3
  9
$DIMZIN
 70
     9
  9
$DIMBLK
  1
OPEN
  9
$DIMASO
 70
     1
  9
$DIMSHO
 70
     1
  9
$DIMPOST
  1

  9
$DIMAPOST
  1

  9
$DIMALT
 70
     0
  9
$DIMALTD
 70
     2
  9
$DIMALTF
 40
25.399999999999999
  9
$DIMLFAC
 40
1.0
  9
$DIMTOFL
 70
     1
  9
$DIMTVP
 40
0.0
  9
$DIMTIX
 70
     1
  9
$DIMSOXD
 70
     0
  9
$DIMSAH
 70
     0
  9
$DIMBLK1
  1

  9
$DIMBLK2
  1

  9
$DIMSTYLE
  2
BIGT
  9
$DIMCLRD
 70
   256
  9
$DIMCLRE
 70
   256
  9
$DIMCLRT
 70
    40
  9
$DIMTFAC
 40
1.0
  9
$DIMGAP
 40
1.0
  9
$LUNITS
 70
     2
  9
$LUPREC
 70
     6
  9
$SKETCHINC
 40
1.0
  9
$FILLETRAD
 40
0.0
  9
$AUNITS
 70
     0
  9
$AUPREC
 70
     6
  9
$MENU
  1
.
  9
$ELEVATION
 40
0.0
  9
$PELEVATION
 40
0.0
  9
$THICKNESS
 40
0.0
  9
$LIMCHECK
 70
     0
  9
$BLIPMODE
 70
     0
  9
$CHAMFERA
 40
0.2
  9
$CHAMFERB
 40
0.2
  9
$SKPOLY
 70
     0
  9
$TDCREATE
 40
2460563.4948860528
  9
$TDUPDATE
 40
2460563.6154238782
  9
$TDINDWG
 40
0.0526290856
  9
$TDUSRTIMER
 40
0.0526290046
  9
$USRTIMER
 70
     1
  9
$ANGBASE
 50
0.0
  9
$ANGDIR
 70
     0
  9
$PDMODE
 70
     1
  9
$PDSIZE
 40
0.0
  9
$PLINEWID
 40
0.0
  9
$COORDS
 70
     1
  9
$SPLFRAME
 70
     0
  9
$SPLINETYPE
 70
     6
  9
$SPLINESEGS
 70
     4
  9
$ATTDIA
 70
     1
  9
$ATTREQ
 70
     1
  9
$HANDLING
 70
     1
  9
$HANDSEED
  5
463E
  9
$SURFTAB1
 70
     6
  9
$SURFTAB2
 70
     6
  9
$SURFTYPE
 70
     6
  9
$SURFU
 70
     6
  9
$SURFV
 70
     6
  9
$UCSNAME
  2

  9
$UCSORG
 10
0.0
 20
0.0
 30
0.0
  9
$UCSXDIR
 10
1.0
 20
0.0
 30
0.0
  9
$UCSYDIR
 10
0.0
 20
1.0
 30
0.0
  9
$PUCSNAME
  2

  9
$PUCSORG
 10
0.0
 20
0.0
 30
0.0
  9
$PUCSXDIR
 10
1.0
 20
0.0
 30
0.0
  9
$PUCSYDIR
 10
0.0
 20
1.0
 30
0.0
  9
$USERI1
 70
     1
  9
$USERI2
 70
     0
  9
$USERI3
 70
     0
  9
$USERI4
 70
     0
  9
$USERI5
 70
     0
  9
$USERR1
 40
0.0
  9
$USERR2
 40
0.0
  9
$USERR3
 40
0.0
  9
$USERR4
 40
0.0
  9
$USERR5
 40
0.0
  9
$WORLDVIEW
 70
     1
  9
$SHADEDGE
 70
     3
  9
$SHADEDIF
 70
    70
  9
$TILEMODE
 70
     1
  9
$MAXACTVP
 70
    16
  9
$PLIMCHECK
 70
     0
  9
$PEXTMIN
 10
1.0000000000000000E+020
 20
1.0000000000000000E+020
 30
1.0000000000000000E+020
  9
$PEXTMAX
 10
-1.0000000000000000E+020
 20
-1.0000000000000000E+020
 30
-1.0000000000000000E+020
  9
$PLIMMIN
 10
0.0
 20
0.0
  9
$PLIMMAX
 10
420.0
 20
297.0
  9
$UNITMODE
 70
     0
  9
$VISRETAIN
 70
     1
  9
$PLINEGEN
 70
     0
  9
$PSLTSCALE
 70
     1
  0
ENDSEC
  0
SECTION
  2
TABLES
  0
TABLE
  2
VPORT
 70
     1
  0
VPORT
  2
*ACTIVE
 70
     0
 10
0.0
 20
0.0
 11
1.0
 21
1.0
 12
-17.699168732788419
 22
21.25673603951353
 13
0.0
 23
0.0
 14
7.0
 24
7.0
 15
7.0
 25
7.0
 16
0.0
 26
0.0
 36
1.0
 17
0.0
 27
0.0
 37
0.0
 40
89.443071040009983
 41
1.68057210965435
 42
50.0
 43
0.0
 44
0.0
 50
0.0
 51
0.0
 71
     0
 72
  2000
 73
     1
 74
     0
 75
     1
 76
     1
 77
     0
 78
     0
  0
ENDTAB
  0
TABLE
  2
LTYPE
 70
    16
  0
LTYPE
  2
CONTINUOUS
 70
     0
  3
Solid line
 72
    65
 73
     0
 40
0.0
  0
LTYPE
  2
CENTER2
 70
     0
  3
___ _ ___ _ ___ _ ___ _ ___ _ ___ _ ___ _ ___ _
 72
    65
 73
     4
 40
1.125
 49
0.75
 49
-0.125
 49
0.125
 49
-0.125
  0
LTYPE
  2
HIDDEN2
 70
     0
  3
_ _ _ _ _ _ _ _ _ _ _ _ _ _ _ _ _ _ _ _ _ _ _ _
 72
    65
 73
     2
 40
0.1875
 49
0.125
 49
-0.0625
  0
LTYPE
  2
PHANTOM2
 70
     0
  3
___ _ _ ___ _ _ ___ _ _ ___ _ _ ___ _ _ ___ _ _
 72
    65
 73
     6
 40
1.25
 49
0.625
 49
-0.125
 49
0.125
 49
-0.125
 49
0.125
 49
-0.125
  0
LTYPE
  2
AM_ISO02W050
 70
     0
  3
__ __ __ __ __ __ __ __ __ __ __ __ __ __ __
 72
    65
 73
     2
 40
7.5
 49
6.0
 49
-1.5
  0
LTYPE
  2
AMCONSTR
 70
     0
  3
_______________________
 72
    65
 73
     2
 40
9999.0
 49
9999.0
 49
0.0
  0
LTYPE
  2
ACISOWELD
 70
     0
  3
_ _ _ _ _
 72
    65
 73
     2
 40
2.0
 49
2.0
 49
-1.0
  0
LTYPE
  2
ACISOTGB
 70
     0
  3
__ . . __ . .
 72
    65
 73
     6
 40
9.0
 49
4.0
 49
-1.0
 49
1.0
 49
-1.0
 49
1.0
 49
-1.0
  0
LTYPE
  2
ACISOTGL
 70
     0
  3
_ _ _ _ _
 72
    65
 73
     2
 40
3.0
 49
2.0
 49
-1.0
  0
LTYPE
  2
ACJISTGB
 70
     0
  3
__ . . __ . .
 72
    65
 73
     6
 40
9.0
 49
4.0
 49
-1.0
 49
1.0
 49
-1.0
 49
1.0
 49
-1.0
  0
LTYPE
  2
ACJISTGL
 70
     0
  3
_ _ _ _ _
 72
    65
 73
     2
 40
3.0
 49
2.0
 49
-1.0
  0
ENDTAB
  0
TABLE
  2
LAYER
 70
     8
  0
LAYER
  2
0
 70
     0
 62
     7
  6
CONTINUOUS
  0
LAYER
  2
DEFPOINTS
 70
     0
 62
     7
  6
CONTINUOUS
  0
LAYER
  2
245
 70
     0
 62
     2
  6
CENTER2
  0
LAYER
  2
240
 70
     0
 62
     4
  6
CONTINUOUS
  0
LAYER
  2
241
 70
     0
 62
   211
  6
CONTINUOUS
  0
LAYER
  2
243
 70
     0
 62
   211
  6
HIDDEN2
  0
LAYER
  2
247
 70
     0
 62
    60
  6
CONTINUOUS
  0
LAYER
  2
250
 70
     0
 62
     3
  6
CONTINUOUS
  0
ENDTAB
  0
TABLE
  2
STYLE
 70
     7
  0
STYLE
  2
STANDARD
 70
     0
 40
0.0
 41
1.0
 50
0.0
 71
     0
 42
3.0
  3
romans.shx
  4
extfont.shx
  0
STYLE
  2
ACISOTS
 70
     0
 40
1.0
 41
1.0
 50
0.0
 71
     0
 42
3.0
  3
amgdt.shx
  4
extfont.shx
  0
STYLE
  2
ACISOGDT
 70
     0
 40
0.0
 41
1.0
 50
0.0
 71
     0
 42
3.0
  3
amgdt.shx
  4
extfont.shx
  0
STYLE
  2
ACJISTS
 70
     0
 40
1.0
 41
1.0
 50
0.0
 71
     0
 42
3.0
  3
amgdt.shx
  4
extfont.shx
  0
STYLE
  2
ACJISGDT
 70
     0
 40
0.0
 41
1.0
 50
0.0
 71
     0
 42
3.0
  3
amgdt.shx
  4
extfont.shx
  0
STYLE
  2
YOKO
 70
     0
 40
0.0
 41
1.0
 50
0.0
 71
     0
 42
3.0
  3
romans.shx
  4
extfont.shx
  0
ENDTAB
  0
TABLE
  2
VIEW
 70
     0
  0
ENDTAB
  0
TABLE
  2
UCS
 70
     0
  0
ENDTAB
  0
TABLE
  2
APPID
 70
    38
  0
APPID
  2
ACAD
 70
     0
  0
APPID
  2
GLOBAL
 70
     0
  0
APPID
  2
DETAIL
 70
     0
  0
APPID
  2
GRPNAME
 70
     0
  0
APPID
  2
GPARA
 70
     0
  0
APPID
  2
MCAD_NO_VIS
 70
     0
  0
APPID
  2
ACAD_TEMP_GRAPHIC
 70
     0
  0
APPID
  2
ACATTRIBSERVICES
 70
     0
  0
APPID
  2
GENIUS_GENSCREG_15
 70
     0
  0
APPID
  2
GENIUS_GENODEF_13
 70
     0
  0
APPID
  2
GENIUS_GENOBJ-N-SDF_13
 70
     0
  0
APPID
  2
GENIUS_GENREC_14
 70
     0
  0
APPID
  2
GENIUS_GENOBJ-N-REC_13
 70
     0
  0
APPID
  2
GENIUS_GENDIMSH_14
 70
     0
  0
APPID
  2
GENIUS_GENOBJ-N-DIM_13
 70
     0
  0
APPID
  2
GENIUS_GENDIM_13
 70
     0
  0
APPID
  2
GENIUS_GENDTOL_13
 70
     0
  0
APPID
  2
GENIUS_GENOLIS_13
 70
     0
  0
APPID
  2
GENIUS_GENOENT_13
 70
     0
  0
APPID
  2
GENIUS_GENOBJ-F-FEM_13
 70
     0
  0
APPID
  2
GENIUS_GENOREF_13
 70
     0
  0
APPID
  2
GENIUS_GEFFEM_13
 70
     0
  0
APPID
  2
GENIUS_GEFFEMP_13
 70
     0
  0
APPID
  2
AD_DRAW
 70
     0
  0
APPID
  2
DESIGNERASSEMBLIES
 70
     0
  0
APPID
  2
ACADM_DIM_EDIT
 70
     0
  0
APPID
  2
AMDT_DM_ADJ
 70
     0
  0
APPID
  2
ITEMNAME
 70
     0
  0
APPID
  2
GENIUS_GENOBJ-N-FIL_13
 70
     0
  0
APPID
  2
GENIUS_GENFIL_13
 70
     0
  0
APPID
  2
GENIUS_GENOBJ-N-CHA_13
 70
     0
  0
APPID
  2
ACAD_NAV_VCDISPLAY
 70
     0
  0
APPID
  2
ACAD_DSTYLE_DIMJAG
 70
     0
  0
APPID
  2
ACAD_DSTYLE_DIMBREAK
 70
     0
  0
APPID
  2
ACAECLAYERSTANDARD
 70
     0
  0
APPID
  2
ACAD_DSTYLE_DIMINSPECT
 70
     0
  0
APPID
  2
ACAD_EXEMPT_FROM_CAD_STANDARDS
 70
     0
  0
APPID
  2
ACAD_MLEADERVER
 70
     0
  0
ENDTAB
  0
TABLE
  2
DIMSTYLE
 70
    29
  0
DIMSTYLE
  2
BIGT
 70
     0
  3

  4

  5
OPEN
  6

  7

 40
1.0
 41
2.2299999999999991
 42
0.5
 43
7.0
 44
1.0
 45
0.0
 46
0.0
 47
0.0
 48
0.01
140
2.7999999999999989
141
0.0
142
0.0
143
25.399999999999999
144
1.0
145
0.0
146
1.0
147
1.0
 71
     0
 72
     0
 73
     0
 74
     0
 75
     0
 76
     0
 77
     3
 78
     9
170
     0
171
     2
172
     1
173
     0
174
     1
175
     0
176
   256
177
   256
178
    40
  0
DIMSTYLE
  2
AM_ISO
 70
     0
  3

  4
"
  5

  6

  7

 40
1.0
 41
2.5
 42
1.0
 43
10.0
 44
1.0
 45
0.0
 46
0.0
 47
0.1
 48
0.1
140
3.5
141
0.0
142
0.0
143
0.0393701
144
1.0
145
0.0
146
0.71
147
1.5
 71
     0
 72
     0
 73
     0
 74
     0
 75
     0
 76
     0
 77
     1
 78
     8
170
     0
171
     2
172
     1
173
     0
174
     0
175
     0
176
   256
177
   256
178
     2
  0
DIMSTYLE
  2
AM_ISO$3
 70
     0
  3

  4
"
  5

  6

  7

 40
1.0
 41
2.5
 42
1.0
 43
10.0
 44
1.0
 45
0.0
 46
0.0
 47
0.1
 48
0.1
140
3.5
141
0.0
142
0.0
143
0.0393701
144
1.0
145
0.0
146
0.71
147
1.5
 71
     0
 72
     0
 73
     0
 74
     1
 75
     0
 76
     0
 77
     1
 78
     8
170
     0
171
     2
172
     0
173
     0
174
     0
175
     0
176
   256
177
   256
178
     2
  0
DIMSTYLE
  2
AM_ISO$4
 70
     0
  3

  4
"
  5

  6

  7

 40
1.0
 41
2.5
 42
1.0
 43
10.0
 44
1.0
 45
0.0
 46
0.0
 47
0.1
 48
0.1
140
3.5
141
0.0
142
0.0
143
0.0393701
144
1.0
145
0.0
146
0.71
147
1.5
 71
     0
 72
     0
 73
     0
 74
     1
 75
     0
 76
     0
 77
     1
 78
     8
170
     0
171
     2
172
     0
173
     0
174
     0
175
     0
176
   256
177
   256
178
     2
  0
DIMSTYLE
  2
AM_ISO$6
 70
     0
  3

  4
"
  5

  6

  7

 40
1.0
 41
2.5
 42
1.0
 43
10.0
 44
1.0
 45
0.0
 46
0.0
 47
0.1
 48
0.1
140
3.5
141
0.0
142
0.0
143
0.0393701
144
1.0
145
0.0
146
0.71
147
1.5
 71
     0
 72
     0
 73
     0
 74
     0
 75
     0
 76
     0
 77
     0
 78
     8
170
     0
171
     2
172
     1
173
     0
174
     0
175
     0
176
   256
177
   256
178
     2
  0
DIMSTYLE
  2
AM_ISO$7
 70
     0
  3

  4
"
  5

  6

  7

 40
1.0
 41
2.5
 42
1.0
 43
10.0
 44
1.0
 45
0.0
 46
0.0
 47
0.1
 48
0.1
140
5.0
141
0.0
142
0.0
143
0.0393701
144
1.0
145
0.0
146
0.71
147
1.5
 71
     0
 72
     0
 73
     0
 74
     0
 75
     0
 76
     0
 77
     1
 78
     8
170
     0
171
     2
172
     1
173
     0
174
     0
175
     0
176
   256
177
   256
178
     2
  0
DIMSTYLE
  2
AM_ISO$SF
 70
     0
  3

  4
"
  5

  6

  7

 40
1.0
 41
2.5
 42
1.0
 43
10.0
 44
1.0
 45
0.0
 46
0.0
 47
0.1
 48
0.1
140
3.5
141
0.0
142
0.0
143
0.0393701
144
1.0
145
0.0
146
0.71
147
1.5
 71
     0
 72
     0
 73
     0
 74
     0
 75
     1
 76
     1
 77
     1
 78
     8
170
     0
171
     2
172
     1
173
     0
174
     0
175
     0
176
   256
177
   256
178
     2
  0
DIMSTYLE
  2
AM_ISO$SH
 70
     0
  3

  4
"
  5

  6
GENAXEH
  7

 40
1.0
 41
2.5
 42
1.0
 43
10.0
 44
1.0
 45
0.0
 46
0.0
 47
0.1
 48
0.1
140
3.5
141
0.0
142
0.0
143
0.0393701
144
2.0
145
0.0
146
0.71
147
1.5
 71
     0
 72
     0
 73
     0
 74
     0
 75
     1
 76
     1
 77
     1
 78
     8
170
     0
171
     2
172
     1
173
     1
174
     0
175
     0
176
   256
177
   256
178
     2
  0
DIMSTYLE
  2
BIGT$2
 70
     0
  3

  4

  5
OPEN
  6

  7

 40
1.0
 41
2.2299999999999991
 42
0.5
 43
7.0
 44
1.0
 45
0.0
 46
0.0
 47
0.0
 48
0.01
140
2.7999999999999989
141
0.0
142
0.0
143
25.399999999999999
144
1.0
145
0.0
146
1.0
147
1.0
 71
     0
 72
     0
 73
     0
 74
     0
 75
     0
 76
     0
 77
     3
 78
     9
170
     0
171
     2
172
     1
173
     0
174
     0
175
     0
176
   256
177
   256
178
    40
  0
DIMSTYLE
  2
BIGT$3
 70
     0
  3

  4

  5
OPEN
  6

  7

 40
1.0
 41
2.2299999999999991
 42
0.5
 43
2.5
 44
1.0
 45
0.0
 46
0.0
 47
0.0
 48
0.01
140
2.7999999999999989
141
0.0
142
0.0
143
25.399999999999999
144
1.0
145
0.0
146
1.0
147
1.0
 71
     0
 72
     0
 73
     0
 74
     0
 75
     0
 76
     0
 77
     3
 78
     9
170
     0
171
     2
172
     1
173
     0
174
     0
175
     0
176
   256
177
   256
178
    40
  0
DIMSTYLE
  2
BIGT$7
 70
     0
  3

  4

  5
OPEN
  6

  7

 40
0.0
 41
2.2299999999999991
 42
0.5
 43
7.0
 44
1.0
 45
0.0
 46
0.0
 47
0.0
 48
0.01
140
2.7999999999999989
141
0.0
142
0.0
143
25.399999999999999
144
1.0
145
0.0
146
1.0
147
1.0
 71
     0
 72
     0
 73
     0
 74
     0
 75
     0
 76
     0
 77
     3
 78
     9
170
     0
171
     2
172
     0
173
     0
174
     0
175
     0
176
   256
177
   256
178
    40
  0
DIMSTYLE
  2
BIGT$6
 70
     0
  3

  4

  5
OPEN
  6

  7

 40
1.0
 41
2.2299999999999991
 42
0.5
 43
2.5
 44
1.0
 45
0.0
 46
0.0
 47
0.0
 48
0.01
140
2.7999999999999989
141
0.0
142
0.0
143
25.399999999999999
144
1.0
145
0.0
146
1.0
147
1.0
 71
     0
 72
     0
 73
     0
 74
     0
 75
     0
 76
     0
 77
     3
 78
     9
170
     0
171
     2
172
     1
173
     0
174
     0
175
     0
176
   256
177
   256
178
    40
  0
DIMSTYLE
  2
BIGT$0
 70
     0
  3

  4

  5
OPEN
  6

  7

 40
1.0
 41
2.2299999999999991
 42
0.5
 43
7.0
 44
1.0
 45
0.0
 46
0.0
 47
0.0
 48
0.01
140
2.7999999999999989
141
0.0
142
0.0
143
25.399999999999999
144
1.0
145
0.0
146
1.0
147
1.0
 71
     0
 72
     0
 73
     0
 74
     0
 75
     0
 76
     0
 77
     3
 78
     9
170
     0
171
     2
172
     1
173
     0
174
     1
175
     0
176
   256
177
   256
178
    40
  0
DIMSTYLE
  2
BIGT$4
 70
     0
  3

  4

  5
OPEN
  6

  7

 40
1.0
 41
2.2299999999999991
 42
0.5
 43
2.5
 44
1.0
 45
0.0
 46
0.0
 47
0.0
 48
0.01
140
2.7999999999999989
141
0.0
142
0.0
143
25.399999999999999
144
1.0
145
0.0
146
1.0
147
1.0
 71
     0
 72
     0
 73
     0
 74
     0
 75
     0
 76
     0
 77
     3
 78
     9
170
     0
171
     2
172
     1
173
     0
174
     0
175
     0
176
   256
177
   256
178
    40
  0
DIMSTYLE
  2
BIGT$SH
 70
     0
  3

  4

  5
OPEN
  6

  7

 40
1.0
 41
2.2299999999999991
 42
0.5
 43
7.0
 44
1.0
 45
0.0
 46
0.0
 47
0.0
 48
0.0
140
2.7999999999999989
141
0.0
142
0.0
143
25.399999999999999
144
1.0
145
0.0
146
1.0
147
1.0
 71
     0
 72
     0
 73
     0
 74
     0
 75
     0
 76
     0
 77
     3
 78
     9
170
     0
171
     2
172
     1
173
     0
174
     0
175
     0
176
   256
177
   256
178
    40
  0
DIMSTYLE
  2
BIGT$SF
 70
     0
  3

  4

  5
OPEN
  6

  7

 40
1.0
 41
2.2299999999999991
 42
0.5
 43
7.0
 44
1.0
 45
0.0
 46
0.0
 47
0.0
 48
0.0
140
2.7999999999999989
141
0.0
142
0.0
143
25.399999999999999
144
1.0
145
0.0
146
1.0
147
1.0
 71
     0
 72
     0
 73
     0
 74
     0
 75
     0
 76
     0
 77
     3
 78
     9
170
     0
171
     2
172
     1
173
     0
174
     0
175
     0
176
   256
177
   256
178
    40
  0
DIMSTYLE
  2
TECHNICAL_OSAKA
 70
     0
  3

  4
"
  5
OPEN30
  6

  7

 40
1.0
 41
2.5
 42
1.0
 43
10.0
 44
1.0
 45
0.0
 46
0.0
 47
0.1
 48
0.1
140
2.7999999999999989
141
0.0
142
0.0
143
0.0393701
144
1.0
145
0.0
146
0.71
147
1.5
 71
     0
 72
     0
 73
     0
 74
     0
 75
     0
 76
     0
 77
     3
 78
     8
170
     0
171
     2
172
     1
173
     0
174
     0
175
     0
176
   256
177
   256
178
    40
  0
DIMSTYLE
  2
TECHNICAL_OSAKA$3
 70
     0
  3

  4
"
  5
OPEN30
  6

  7

 40
1.0
 41
2.5
 42
1.0
 43
10.0
 44
1.0
 45
0.0
 46
0.0
 47
0.1
 48
0.1
140
2.7999999999999989
141
0.0
142
0.0
143
0.0393701
144
1.0
145
0.0
146
0.71
147
1.5
 71
     0
 72
     0
 73
     0
 74
     1
 75
     0
 76
     0
 77
     3
 78
     8
170
     0
171
     2
172
     0
173
     0
174
     0
175
     0
176
   256
177
   256
178
    40
  0
DIMSTYLE
  2
TECHNICAL_OSAKA$4
 70
     0
  3

  4
"
  5
OPEN30
  6

  7

 40
1.0
 41
2.5
 42
1.0
 43
10.0
 44
1.0
 45
0.0
 46
0.0
 47
0.1
 48
0.1
140
2.7999999999999989
141
0.0
142
0.0
143
0.0393701
144
1.0
145
0.0
146
0.71
147
1.5
 71
     0
 72
     0
 73
     0
 74
     1
 75
     0
 76
     0
 77
     3
 78
     8
170
     0
171
     2
172
     0
173
     0
174
     0
175
     0
176
   256
177
   256
178
    40
  0
DIMSTYLE
  2
TECHNICAL_OSAKA$6
 70
     0
  3

  4
"
  5
OPEN30
  6

  7

 40
1.0
 41
2.5
 42
1.0
 43
10.0
 44
1.0
 45
0.0
 46
0.0
 47
0.1
 48
0.1
140
2.7999999999999989
141
0.0
142
0.0
143
0.0393701
144
1.0
145
0.0
146
0.71
147
1.5
 71
     0
 72
     0
 73
     0
 74
     0
 75
     0
 76
     0
 77
     0
 78
     8
170
     0
171
     2
172
     1
173
     0
174
     0
175
     0
176
   256
177
   256
178
    40
  0
DIMSTYLE
  2
TECHNICAL_OSAKA$7
 70
     0
  3

  4
"
  5
OPEN30
  6

  7

 40
1.0
 41
2.5
 42
1.0
 43
10.0
 44
1.0
 45
0.0
 46
0.0
 47
0.1
 48
0.1
140
2.7999999999999989
141
0.0
142
0.0
143
0.0393701
144
1.0
145
0.0
146
0.71
147
1.5
 71
     0
 72
     0
 73
     0
 74
     0
 75
     0
 76
     0
 77
     3
 78
     8
170
     0
171
     2
172
     1
173
     0
174
     0
175
     0
176
   256
177
   256
178
    40
  0
DIMSTYLE
  2
TECHNICAL_OSAKA$SF
 70
     0
  3

  4
"
  5
OPEN30
  6
OPEN30
  7
OPEN30
 40
1.0
 41
2.5
 42
1.0
 43
10.0
 44
1.0
 45
0.0
 46
0.0
 47
0.1
 48
0.1
140
3.5
141
0.0
142
0.0
143
0.0393701
144
1.0
145
0.0
146
0.71
147
1.5
 71
     0
 72
     0
 73
     0
 74
     0
 75
     1
 76
     1
 77
     3
 78
     8
170
     0
171
     2
172
     1
173
     0
174
     0
175
     0
176
   256
177
   256
178
    40
  0
DIMSTYLE
  2
TECHNICAL_OSAKA$SH
 70
     0
  3

  4
"
  5
OPEN30
  6
GENAXEH
  7
OPEN30
 40
1.0
 41
2.5
 42
1.0
 43
10.0
 44
1.0
 45
0.0
 46
0.0
 47
0.1
 48
0.1
140
3.5
141
0.0
142
0.0
143
0.0393701
144
2.0
145
0.0
146
0.71
147
1.5
 71
     0
 72
     0
 73
     0
 74
     0
 75
     1
 76
     1
 77
     3
 78
     8
170
     0
171
     2
172
     1
173
     1
174
     0
175
     0
176
   256
177
   256
178
    40
  0
ENDTAB
  0
ENDSEC
  0
SECTION
  2
BLOCKS
  0
BLOCK
  8
0
  2
$MODEL_SPACE
 70
     0
 10
0.0
 20
0.0
 30
0.0
  3
$MODEL_SPACE
  1

  0
ENDBLK
  5
1C
  8
0
  0
BLOCK
 67
     1
  8
0
  2
$PAPER_SPACE
 70
     0
 10
0.0
 20
0.0
 30
0.0
  3
$PAPER_SPACE
  1

  0
ENDBLK
  5
19
 67
     1
  8
0
  0
BLOCK
  8
0
  2
_OPEN
 70
     0
 10
0.0
 20
0.0
 30
0.0
  3
_OPEN
  1

  0
LINE
  5
4545
  8
0
  6
BYBLOCK
 62
     0
 10
-1.0
 20
0.1666666666666666
 30
0.0
 11
0.0
 21
0.0
 31
0.0
  0
LINE
  5
4546
  8
0
  6
BYBLOCK
 62
     0
 10
-1.0
 20
-0.1666666666666666
 30
0.0
 11
0.0
 21
0.0
 31
0.0
  0
LINE
  5
4547
  8
0
  6
BYBLOCK
 62
     0
 10
0.0
 20
0.0
 30
0.0
 11
-1.0
 21
0.0
 31
0.0
  0
ENDBLK
  5
4548
  8
0
  0
BLOCK
  8
0
  2
GENAXEH
 70
     0
 10
0.0
 20
0.0
 30
0.0
  3
GENAXEH
  1

  0
LINE
  5
4580
  8
0
 10
-1.0
 20
0.0
 30
0.0
 11
1.0
 21
0.0
 31
0.0
  0
ENDBLK
  5
4581
  8
0
  0
BLOCK
  8
0
  2
_OPEN30
 70
     0
 10
0.0
 20
0.0
 30
0.0
  3
_OPEN30
  1

  0
LINE
  5
45BC
  8
0
  6
BYBLOCK
 62
     0
 10
-1.0
 20
0.26794919
 30
0.0
 11
0.0
 21
0.0
 31
0.0
  0
LINE
  5
45BD
  8
0
  6
BYBLOCK
 62
     0
 10
0.0
 20
0.0
 30
0.0
 11
-1.0
 21
-0.26794919
 31
0.0
  0
LINE
  5
45BE
  8
0
  6
BYBLOCK
 62
     0
 10
0.0
 20
0.0
 30
0.0
 11
-1.0
 21
0.0
 31
0.0
  0
ENDBLK
  5
45BF
  8
0
  0
ENDSEC
  0
SECTION
  2
ENTITIES
  0
LINE
  5
422B
  8
240
  6
CONTINUOUS
 10
0.0
 20
-8.0
 30
0.0
 11
0.0
 21
-8.5
 31
0.0
  0
LINE
  5
422C
  8
241
  6
CONTINUOUS
 10
-1.5
 20
8.0
 30
0.0
 11
-1.5
 21
-8.0
 31
0.0
  0
LINE
  5
422D
  8
240
  6
CONTINUOUS
 10
0.0
 20
8.5
 30
0.0
 11
0.0
 21
8.0
 31
0.0
  0
LINE
  5
422E
  8
240
  6
CONTINUOUS
 10
0.0
 20
-8.5
 30
0.0
 11
1.5
 21
-8.5
 31
0.0
  0
LINE
  5
422F
  8
240
  6
CONTINUOUS
 10
0.0
 20
8.5
 30
0.0
 11
1.5
 21
8.5
 31
0.0
  0
LINE
  5
4230
  8
240
  6
CONTINUOUS
 10
-37.0
 20
8.0
 30
0.0
 11
-37.0
 21
-8.0
 31
0.0
  0
LINE
  5
4231
  8
240
  6
CONTINUOUS
 10
-37.0
 20
-8.0
 30
0.0
 11
-1.5
 21
-8.0
 31
0.0
  0
LINE
  5
4232
  8
240
  6
CONTINUOUS
 10
-37.0
 20
8.0
 30
0.0
 11
-1.5
 21
8.0
 31
0.0
  0
LINE
  5
4233
  8
240
  6
CONTINUOUS
 10
1.5
 20
8.5
 30
0.0
 11
1.5
 21
-8.5
 31
0.0
  0
LINE
  5
4234
  8
245
  6
CENTER2
 10
-41.405538754432762
 20
0.0
 30
0.0
 11
5.020403545900308
 21
0.0
 31
0.0
  0
TEXT
  5
4235
  8
241
  6
CONTINUOUS
 10
-35.0
 20
35.0
 30
0.0
 40
5.0
  1
EC1609
  7
YOKO
  0
LINE
  5
4236
  8
243
  6
HIDDEN2
 10
-37.0
 20
4.5
 30
0.0
 11
1.5
 21
4.5
 31
0.0
  0
LINE
  5
4237
  8
243
  6
HIDDEN2
 10
-37.0
 20
-4.5
 30
0.0
 11
1.5
 21
-4.5
 31
0.0
  0
LINE
  5
4238
  8
241
  6
CONTINUOUS
 10
0.0
 20
8.0
 30
0.0
 11
0.0
 21
-8.0
 31
0.0
  0
LINE
  5
4239
  8
247
  6
CONTINUOUS
 10
-32.75
 20
-3.002923017724656
 30
0.0
 11
-29.505769230969008
 21
-3.0029230177246968
 31
0.0
  0
LINE
  5
423A
  8
247
  6
CONTINUOUS
 10
-32.193425449991551
 20
-1.2529230177246971
 30
0.0
 11
-32.614941167040158
 21
-2.7229230176659032
 31
0.0
  0
LINE
  5
423B
  8
247
  6
CONTINUOUS
 10
-31.752605982463319
 20
-1.950230710004496
 30
0.0
 11
-32.39337521320693
 21
-1.950230710004496
 31
0.0
  0
ARC
  5
423C
  8
247
  6
CONTINUOUS
 10
-31.58608438136276
 20
-1.5222263648305681
 30
0.0
 40
0.271370106652872
 50
342.99788967529201
 51
82.924166218512283
  0
ARC
  5
423D
  8
247
  6
CONTINUOUS
 10
-31.79273428976288
 20
-1.466579209444308
 30
0.0
 40
0.485313357575114
 50
274.74293685220141
 51
343.84922627326631
1001
GENIUS_GENOBJ-N-FIL_13
1002
{
1000
OWNER
1000
GEN
1002
}
1001
GENIUS_GENODEF_13
1002
{
1000
HIER
1070
     0
1002
}
1002
{
1000
MANEDIT
1070
     0
1002
}
1002
{
1000
NOSEL
1070
     0
1002
}
1002
{
1000
BEHIND
1070
     0
1002
}
1002
{
1000
OTHER
1070
     0
1002
}
1002
{
1000
REACTOR
1002
}
  0
LINE
  5
423E
  8
247
  6
CONTINUOUS
 10
-31.97417193629655
 20
-2.7229230176659032
 30
0.0
 11
-32.614941167040158
 21
-2.7229230176659032
 31
0.0
  0
LINE
  5
423F
  8
247
  6
CONTINUOUS
 10
-32.193425449991572
 20
-1.2529230177246971
 30
0.0
 11
-31.552656219247961
 21
-1.2529230177246971
 31
0.0
  0
ARC
  5
4240
  8
247
  6
CONTINUOUS
 10
-31.789814533386782
 20
-2.2241148916622091
 30
0.0
 40
0.2764001107527702
 50
335.99094165252882
 51
82.263443459069535
  0
ARC
  5
4241
  8
247
  6
CONTINUOUS
 10
-32.023712627298842
 20
-2.2267632468574958
 30
0.0
 40
0.498626912865318
 50
275.70198516425802
 51
347.27733843682228
1001
GENIUS_GENOBJ-N-FIL_13
1002
{
1000
OWNER
1000
GEN
1002
}
1001
GENIUS_GENODEF_13
1002
{
1000
HIER
1070
     0
1002
}
1002
{
1000
MANEDIT
1070
     0
1002
}
1002
{
1000
NOSEL
1070
     0
1002
}
1002
{
1000
BEHIND
1070
     0
1002
}
1002
{
1000
OTHER
1070
     0
1002
}
1002
{
1000
REACTOR
1002
}
  0
LINE
  5
4242
  8
247
  6
CONTINUOUS
 10
-31.303787320944359
 20
-2.7229230176659032
 30
0.0
 11
-30.88227160389577
 21
-1.2529230177246971
 31
0.0
  0
LINE
  5
4243
  8
247
  6
CONTINUOUS
 10
-29.834963911635569
 20
-1.2529230177246971
 30
0.0
 11
-30.112174855012508
 21
-1.2529230177246971
 31
0.0
  0
LINE
  5
4244
  8
247
  6
CONTINUOUS
 10
-30.551117757760782
 20
-2.7229230176659032
 30
0.0
 11
-30.24957929623438
 21
-2.7229230176659032
 31
0.0
  0
ARC
  5
4245
  8
247
  6
CONTINUOUS
 10
-29.692271603948971
 20
-2.2737327342830498
 30
0.0
 40
1.103798540347682
 50
112.359488141527
 51
164.993248542846
  0
ARC
  5
4246
  8
247
  6
CONTINUOUS
 10
-30.018257956293251
 20
-1.648996218701394
 30
0.0
 40
0.4364294757906614
 50
4.9945893190753861
 51
65.166328957303634
1001
GENIUS_GENOBJ-N-FIL_13
1002
{
1000
OWNER
1000
GEN
1002
}
1001
GENIUS_GENODEF_13
1002
{
1000
HIER
1070
     0
1002
}
1002
{
1000
MANEDIT
1070
     0
1002
}
1002
{
1000
NOSEL
1070
     0
1002
}
1002
{
1000
BEHIND
1070
     0
1002
}
1002
{
1000
OTHER
1070
     0
1002
}
1002
{
1000
REACTOR
1002
}
  0
ARC
  5
4247
  8
247
  6
CONTINUOUS
 10
-30.435928765722942
 20
-2.0663945031033051
 30
0.0
 40
0.6824630504374888
 50
285.84609655577998
 51
352.32513700416922
  0
ARC
  5
4248
  8
247
  6
CONTINUOUS
 10
-30.14964814714055
 20
-2.2129522991044439
 30
0.0
 40
0.6490361947084407
 50
159.71360167049701
 51
231.78874565640959
1001
GENIUS_GENOBJ-N-FIL_13
1002
{
1000
OWNER
1000
GEN
1002
}
1001
GENIUS_GENODEF_13
1002
{
1000
HIER
1070
     0
1002
}
1002
{
1000
MANEDIT
1070
     0
1002
}
1002
{
1000
NOSEL
1070
     0
1002
}
1002
{
1000
BEHIND
1070
     0
1002
}
1002
{
1000
OTHER
1070
     0
1002
}
1002
{
1000
REACTOR
1002
}
  0
LINE
  5
4249
  8
247
  6
CONTINUOUS
 10
-30.09881006547117
 20
-2.1575384023038802
 30
0.0
 11
-29.759579296253978
 21
-2.1575384023038802
 31
0.0
  0
ARC
  5
424A
  8
247
  6
CONTINUOUS
 10
-32.75
 20
-2.1279230177246968
 30
0.0
 40
0.875
 50
90.0
 51
270.0
  0
LINE
  5
424B
  8
247
  6
CONTINUOUS
 10
-32.75
 20
-1.2529230177246971
 30
0.0
 11
-32.437692307739788
 21
-1.2529230177246971
 31
0.0
  0
ARC
  5
424C
  8
247
  6
CONTINUOUS
 10
-29.505769230969008
 20
-2.1279230177246968
 30
0.0
 40
0.875
 50
270.0
 51
90.0
  0
LINE
  5
4362
  8
250
  6
CONTINUOUS
 10
-37.5
 20
8.0
 30
0.0
 11
-50.0
 21
8.0000000000000036
 31
0.0
  0
LINE
  5
4363
  8
250
  6
CONTINUOUS
 10
-37.5
 20
-8.0
 30
0.0
 11
-50.0
 21
-7.9999999999999982
 31
0.0
  0
LINE
  5
4364
  8
250
  6
CONTINUOUS
 10
-48.999999999999993
 20
5.7700000000000031
 30
0.0
 11
-48.999999999999993
 21
-5.7699999999999969
 31
0.0
  0
LINE
  5
4369
  8
250
  6
CONTINUOUS
 10
-37.0
 20
8.5
 30
0.0
 11
-37.0
 21
22.0
 31
0.0
  0
LINE
  5
436A
  8
250
  6
CONTINUOUS
 10
1.5
 20
9.0
 30
0.0
 11
1.5
 21
22.0
 31
0.0
  0
LINE
  5
436B
  8
250
  6
CONTINUOUS
 10
-34.770000000000003
 20
21.0
 30
0.0
 11
-0.7299999999999994
 21
21.0
 31
0.0
  0
TEXT
  5
4375
  8
250
  6
CONTINUOUS
 10
-50.0
 20
-3.9333333333333371
 30
0.0
 40
2.7999999999999989
  1
\U+220516
 50
90.0
  0
LINE
  5
4376
  8
250
  6
CONTINUOUS
 10
-48.628333333333323
 20
-5.7699999999999969
 30
0.0
 11
-48.999999999999993
 21
-7.9999999999999982
 31
0.0
  0
LINE
  5
4377
  8
250
  6
CONTINUOUS
 10
-49.371666666666663
 20
-5.7699999999999969
 30
0.0
 11
-48.999999999999993
 21
-7.9999999999999982
 31
0.0
  0
LINE
  5
4378
  8
250
  6
CONTINUOUS
 10
-48.999999999999993
 20
-7.9999999999999982
 30
0.0
 11
-48.999999999999993
 21
-5.7699999999999969
 31
0.0
  0
LINE
  5
4379
  8
250
  6
CONTINUOUS
 10
-49.371666666666663
 20
5.7700000000000031
 30
0.0
 11
-48.999999999999993
 21
8.0000000000000036
 31
0.0
  0
LINE
  5
437A
  8
250
  6
CONTINUOUS
 10
-48.628333333333323
 20
5.7700000000000031
 30
0.0
 11
-48.999999999999993
 21
8.0000000000000036
 31
0.0
  0
LINE
  5
437B
  8
250
  6
CONTINUOUS
 10
-48.999999999999993
 20
8.0000000000000036
 30
0.0
 11
-48.999999999999993
 21
5.7700000000000031
 31
0.0
  0
TEXT
  5
437C
  8
250
  6
CONTINUOUS
 10
-22.416666666666671
 20
22.0
 30
0.0
 40
2.7999999999999989
  1
38.5
  0
LINE
  5
437D
  8
250
  6
CONTINUOUS
 10
-0.7299999999999994
 20
21.37166666666667
 30
0.0
 11
1.5
 21
21.0
 31
0.0
  0
LINE
  5
437E
  8
250
  6
CONTINUOUS
 10
-0.7299999999999994
 20
20.62833333333333
 30
0.0
 11
1.5
 21
21.0
 31
0.0
  0
LINE
  5
437F
  8
250
  6
CONTINUOUS
 10
1.5
 20
21.0
 30
0.0
 11
-0.7299999999999994
 21
21.0
 31
0.0
  0
LINE
  5
4380
  8
250
  6
CONTINUOUS
 10
-34.770000000000003
 20
20.62833333333333
 30
0.0
 11
-37.0
 21
21.0
 31
0.0
  0
LINE
  5
4381
  8
250
  6
CONTINUOUS
 10
-34.770000000000003
 20
21.37166666666667
 30
0.0
 11
-37.0
 21
21.0
 31
0.0
  0
LINE
  5
4382
  8
250
  6
CONTINUOUS
 10
-37.0
 20
21.0
 30
0.0
 11
-34.770000000000003
 21
21.0
 31
0.0
  0
ARC
  5
4394
  8
241
  6
CONTINUOUS
 10
-0.75
 20
7.6875
 30
0.0
 40
0.8125
 50
22.61986494804043
 51
157.3801350519596
  0
ARC
  5
4395
  8
241
  6
CONTINUOUS
 10
-0.75
 20
-7.6875
 30
0.0
 40
0.8125
 50
202.6198649480404
 51
337.38013505195948
  0
LINE
  5
4493
  8
250
  6
CONTINUOUS
 10
2.0
 20
4.5
 30
0.0
 11
15.000000000000011
 21
4.4999999999999947
 31
0.0
  0
LINE
  5
4494
  8
250
  6
CONTINUOUS
 10
2.0
 20
-4.5
 30
0.0
 11
15.0
 21
-4.5000000000000044
 31
0.0
  0
LINE
  5
4495
  8
250
  6
CONTINUOUS
 10
14.0
 20
2.269999999999996
 30
0.0
 11
14.0
 21
-2.270000000000004
 31
0.0
  0
TEXT
  5
4499
  8
250
  6
CONTINUOUS
 10
13.0
 20
-2.5333333333333341
 30
0.0
 40
2.7999999999999989
  1
\U+22059
 50
90.0
  0
LINE
  5
449A
  8
250
  6
CONTINUOUS
 10
14.37166666666667
 20
-2.270000000000004
 30
0.0
 11
14.0
 21
-4.5000000000000044
 31
0.0
  0
LINE
  5
449B
  8
250
  6
CONTINUOUS
 10
13.628333333333339
 20
-2.270000000000004
 30
0.0
 11
14.0
 21
-4.5000000000000044
 31
0.0
  0
LINE
  5
449C
  8
250
  6
CONTINUOUS
 10
14.0
 20
-4.5000000000000044
 30
0.0
 11
14.0
 21
-2.270000000000004
 31
0.0
  0
LINE
  5
449D
  8
250
  6
CONTINUOUS
 10
13.628333333333339
 20
2.2699999999999951
 30
0.0
 11
14.000000000000011
 21
4.4999999999999947
 31
0.0
  0
LINE
  5
449E
  8
250
  6
CONTINUOUS
 10
14.37166666666667
 20
2.2699999999999951
 30
0.0
 11
14.000000000000011
 21
4.4999999999999947
 31
0.0
  0
LINE
  5
449F
  8
250
  6
CONTINUOUS
 10
14.000000000000011
 20
4.4999999999999947
 30
0.0
 11
14.000000000000011
 21
2.2699999999999951
 31
0.0
  0
VIEWPORT
  5
22
 67
     1
  8
0
 10
261.51769911504419
 20
148.5
 30
0.0
 40
523.0353982300885
 41
297.0
 68
     1
 69
     1
1001
ACAD
1000
MVIEW
1002
{
1070
    16
1010
0.0
1020
0.0
1030
0.0
1010
0.0
1020
0.0
1030
1.0
1040
0.0
1040
297.0
1040
261.51769911504419
1040
148.5
1040
50.0
1040
0.0
1040
0.0
1070
     0
1070
   100
1070
     1
1070
     1
1070
     0
1070
     0
1070
     0
1070
     0
1040
0.0
1040
0.0
1040
0.0
1040
1.0
1040
1.0
1040
10.0
1040
10.0
1070
     0
1002
{
1002
}
1002
}
1001
GENIUS_GENODEF_13
1002
{
1000
HIER
1070
     0
1002
}
1002
{
1000
MANEDIT
1070
     0
1002
}
1002
{
1000
NOSEL
1070
     0
1002
}
1002
{
1000
BEHIND
1070
     0
1002
}
1002
{
1000
OTHER
1070
     0
1002
}
1002
{
1000
REACTOR
1002
}
1001
GENIUS_GENOBJ-N-SDF_13
1002
{
1000
OWNER
1000
GEN
1002
}
1001
GENIUS_GENSCREG_15
1000
PF
1040
1.0
1000
DF
1040
1.0
1000
MIN
1011
0.0
1021
0.0
1031
0.0
1021
0.0
1031
0.0
1000
MAX
1011
523.0353982300885
1021
0.0
1031
0.0
1021
297.0
1031
0.0
1000
FLAGS
1070
     4
  0
ENDSEC
  0
EOF
