  0
SECTION
  2
HEADER
  9
$ACADVER
  1
AC1009
  9
$INSBASE
 10
0.0
 20
0.0
 30
0.0
  9
$EXTMIN
 10
-45.799999999999997
 20
-6.5
 30
0.0
  9
$EXTMAX
 10
15.0
 20
40.000000000000007
 30
0.0
  9
$LIMMIN
 10
0.0
 20
0.0
  9
$LIMMAX
 10
297.0
 20
210.0
  9
$ORTHOMODE
 70
     1
  9
$REGENMODE
 70
     1
  9
$FILLMODE
 70
     1
  9
$QTEXTMODE
 70
     0
  9
$MIRRTEXT
 70
     1
  9
$DRAGMODE
 70
     2
  9
$LTSCALE
 40
10.0
  9
$OSMODE
 70
     7
  9
$ATTMODE
 70
     1
  9
$TEXTSIZE
 40
3.0
  9
$TRACEWID
 40
1.0
  9
$TEXTSTYLE
  7
YOKO
  9
$CLAYER
  8
240
  9
$CELTYPE
  6
BYLAYER
  9
$CECOLOR
 62
   256
  9
$DIMSCALE
 40
1.0
  9
$DIMASZ
 40
2.2299999999999991
  9
$DIMEXO
 40
0.5
  9
$DIMDLI
 40
7.0
  9
$DIMRND
 40
0.0
  9
$DIMDLE
 40
0.0
  9
$DIMEXE
 40
1.0
  9
$DIMTP
 40
0.0
  9
$DIMTM
 40
0.0
  9
$DIMTXT
 40
2.799999999999998
  9
$DIMCEN
 40
0.0
  9
$DIMTSZ
 40
0.0
  9
$DIMTOL
 70
     0
  9
$DIMLIM
 70
     0
  9
$DIMTIH
 70
     0
  9
$DIMTOH
 70
     0
  9
$DIMSE1
 70
     0
  9
$DIMSE2
 70
     0
  9
$DIMTAD
 70
     3
  9
$DIMZIN
 70
     9
  9
$DIMBLK
  1
OPEN
  9
$DIMASO
 70
     1
  9
$DIMSHO
 70
     1
  9
$DIMPOST
  1

  9
$DIMAPOST
  1

  9
$DIMALT
 70
     0
  9
$DIMALTD
 70
     2
  9
$DIMALTF
 40
25.399999999999999
  9
$DIMLFAC
 40
1.0
  9
$DIMTOFL
 70
     1
  9
$DIMTVP
 40
0.0
  9
$DIMTIX
 70
     1
  9
$DIMSOXD
 70
     0
  9
$DIMSAH
 70
     0
  9
$DIMBLK1
  1

  9
$DIMBLK2
  1

  9
$DIMSTYLE
  2
BIGT
  9
$DIMCLRD
 70
   256
  9
$DIMCLRE
 70
   256
  9
$DIMCLRT
 70
    40
  9
$DIMTFAC
 40
1.0
  9
$DIMGAP
 40
1.0
  9
$LUNITS
 70
     2
  9
$LUPREC
 70
     3
  9
$SKETCHINC
 40
1.0
  9
$FILLETRAD
 40
0.0
  9
$AUNITS
 70
     0
  9
$AUPREC
 70
     3
  9
$MENU
  1
.
  9
$ELEVATION
 40
0.0
  9
$PELEVATION
 40
0.0
  9
$THICKNESS
 40
0.0
  9
$LIMCHECK
 70
     0
  9
$BLIPMODE
 70
     0
  9
$CHAMFERA
 40
0.25
  9
$CHAMFERB
 40
0.25
  9
$SKPOLY
 70
     0
  9
$TDCREATE
 40
2452797.7747685192
  9
$TDUPDATE
 40
2460563.6014934839
  9
$TDINDWG
 40
0.02722875
  9
$TDUSRTIMER
 40
0.0272286921
  9
$USRTIMER
 70
     1
  9
$ANGBASE
 50
0.0
  9
$ANGDIR
 70
     0
  9
$PDMODE
 70
    35
  9
$PDSIZE
 40
-5.0
  9
$PLINEWID
 40
0.0
  9
$COORDS
 70
     1
  9
$SPLFRAME
 70
     0
  9
$SPLINETYPE
 70
     6
  9
$SPLINESEGS
 70
     4
  9
$ATTDIA
 70
     1
  9
$ATTREQ
 70
     1
  9
$HANDLING
 70
     1
  9
$HANDSEED
  5
1F94
  9
$SURFTAB1
 70
     6
  9
$SURFTAB2
 70
     6
  9
$SURFTYPE
 70
     6
  9
$SURFU
 70
     6
  9
$SURFV
 70
     6
  9
$UCSNAME
  2

  9
$UCSORG
 10
0.0
 20
0.0
 30
0.0
  9
$UCSXDIR
 10
1.0
 20
0.0
 30
0.0
  9
$UCSYDIR
 10
0.0
 20
1.0
 30
0.0
  9
$PUCSNAME
  2

  9
$PUCSORG
 10
0.0
 20
0.0
 30
0.0
  9
$PUCSXDIR
 10
1.0
 20
0.0
 30
0.0
  9
$PUCSYDIR
 10
0.0
 20
1.0
 30
0.0
  9
$USERI1
 70
     1
  9
$USERI2
 70
     0
  9
$USERI3
 70
     0
  9
$USERI4
 70
     0
  9
$USERI5
 70
     0
  9
$USERR1
 40
0.0
  9
$USERR2
 40
0.0
  9
$USERR3
 40
0.0
  9
$USERR4
 40
0.0
  9
$USERR5
 40
0.0
  9
$WORLDVIEW
 70
     1
  9
$SHADEDGE
 70
     3
  9
$SHADEDIF
 70
    70
  9
$TILEMODE
 70
     1
  9
$MAXACTVP
 70
    16
  9
$PLIMCHECK
 70
     0
  9
$PEXTMIN
 10
1.0000000000000000E+020
 20
1.0000000000000000E+020
 30
1.0000000000000000E+020
  9
$PEXTMAX
 10
-1.0000000000000000E+020
 20
-1.0000000000000000E+020
 30
-1.0000000000000000E+020
  9
$PLIMMIN
 10
0.0
 20
0.0
  9
$PLIMMAX
 10
420.0
 20
297.0
  9
$UNITMODE
 70
     0
  9
$VISRETAIN
 70
     1
  9
$PLINEGEN
 70
     0
  9
$PSLTSCALE
 70
     1
  0
ENDSEC
  0
SECTION
  2
TABLES
  0
TABLE
  2
VPORT
 70
     1
  0
VPORT
  2
*ACTIVE
 70
     0
 10
0.0
 20
0.0
 11
1.0
 21
1.0
 12
-6.6477665921727427
 22
16.12064558769908
 13
0.0
 23
0.0
 14
7.0
 24
7.0
 15
7.0
 25
7.0
 16
0.0
 26
0.0
 36
1.0
 17
0.0
 27
0.0
 37
0.0
 40
87.872464059864313
 41
1.68057210965435
 42
50.0
 43
0.0
 44
0.0
 50
0.0
 51
0.0
 71
     0
 72
   500
 73
     1
 74
     0
 75
     1
 76
     1
 77
     0
 78
     0
  0
ENDTAB
  0
TABLE
  2
LTYPE
 70
    16
  0
LTYPE
  2
CONTINUOUS
 70
     0
  3
Solid line
 72
    65
 73
     0
 40
0.0
  0
LTYPE
  2
CENTER2
 70
     0
  3
___ _ ___ _ ___ _ ___ _ ___ _ ___ _ ___ _ ___ _
 72
    65
 73
     4
 40
1.125
 49
0.75
 49
-0.125
 49
0.125
 49
-0.125
  0
LTYPE
  2
HIDDEN2
 70
     0
  3
_ _ _ _ _ _ _ _ _ _ _ _ _ _ _ _ _ _ _ _ _ _ _ _
 72
    65
 73
     2
 40
0.1875
 49
0.125
 49
-0.0625
  0
LTYPE
  2
PHANTOM2
 70
     0
  3
___ _ _ ___ _ _ ___ _ _ ___ _ _ ___ _ _ ___ _ _
 72
    65
 73
     6
 40
1.25
 49
0.625
 49
-0.125
 49
0.125
 49
-0.125
 49
0.125
 49
-0.125
  0
LTYPE
  2
CENTER
 70
     0
  3
____ _ ____ _ ____ _ ____ _ ____ _ ____ _ ____ 
 72
    65
 73
     4
 40
2.0
 49
1.25
 49
-0.25
 49
0.25
 49
-0.25
  0
LTYPE
  2
AMCONSTR
 70
     0
  3
_______________________
 72
    65
 73
     2
 40
9999.0
 49
9999.0
 49
0.0
  0
LTYPE
  2
HIDDEN
 70
     0
  3
Hidden __ __ __ __ __ __ __ __ __ __ __ __ __ _
 72
    65
 73
     2
 40
9.5249999999999986
 49
6.349999999999997
 49
-3.174999999999998
  0
LTYPE
  2
AMZIGZAG2
 70
     0
  3
/\/-/\/-/\/-/\/-/\/-/\/
 72
    65
 73
     2
 40
0.4401
 49
0.0001
 49
-0.4400000000000003
  0
LTYPE
  2
ACANSTGB
 70
     0
  3
__ . . __ . .
 72
    65
 73
     6
 40
0.35433070866
 49
0.15748031496
 49
-0.03937007874
 49
0.03937007874
 49
-0.03937007874
 49
0.03937007874
 49
-0.03937007874
  0
LTYPE
  2
ACANSTGL
 70
     0
  3
_ _ _ _ _
 72
    65
 73
     2
 40
0.11811023622
 49
0.07874015748
 49
-0.03937007874
  0
ENDTAB
  0
TABLE
  2
LAYER
 70
     8
  0
LAYER
  2
0
 70
     0
 62
     7
  6
CONTINUOUS
  0
LAYER
  2
240
 70
     0
 62
     4
  6
CONTINUOUS
  0
LAYER
  2
DEFPOINTS
 70
     0
 62
     7
  6
CONTINUOUS
  0
LAYER
  2
245
 70
     0
 62
     2
  6
CENTER2
  0
LAYER
  2
243
 70
     0
 62
   211
  6
HIDDEN2
  0
LAYER
  2
250
 70
     0
 62
     3
  6
CONTINUOUS
  0
LAYER
  2
241
 70
     0
 62
   211
  6
CONTINUOUS
  0
LAYER
  2
247
 70
     0
 62
    60
  6
CONTINUOUS
  0
ENDTAB
  0
TABLE
  2
STYLE
 70
     5
  0
STYLE
  2
STANDARD
 70
     0
 40
0.0
 41
1.0
 50
0.0
 71
     0
 42
3.0
  3
romans.shx
  4
extfont.shx
  0
STYLE
  2
YOKO
 70
     0
 40
0.0
 41
1.0
 50
0.0
 71
     0
 42
3.0
  3
romans.shx
  4
extfont.shx
  0
STYLE
  2
ACANSGDT
 70
     0
 40
0.0
 41
1.0
 50
0.0
 71
     0
 42
3.0
  3
amgdt.shx
  4

  0
ENDTAB
  0
TABLE
  2
VIEW
 70
     0
  0
ENDTAB
  0
TABLE
  2
UCS
 70
     0
  0
ENDTAB
  0
TABLE
  2
APPID
 70
    36
  0
APPID
  2
ACAD
 70
     0
  0
APPID
  2
ACADANNOTATIVE
 70
     0
  0
APPID
  2
GLOBAL
 70
     0
  0
APPID
  2
DETAIL
 70
     0
  0
APPID
  2
GRPNAME
 70
     0
  0
APPID
  2
GPARA
 70
     0
  0
APPID
  2
MCAD_NO_VIS
 70
     0
  0
APPID
  2
ACAD_TEMP_GRAPHIC
 70
     0
  0
APPID
  2
ACATTRIBSERVICES
 70
     0
  0
APPID
  2
GENIUS_GENSCREG_15
 70
     0
  0
APPID
  2
GENIUS_GENODEF_13
 70
     0
  0
APPID
  2
GENIUS_GENOBJ-N-SDF_13
 70
     0
  0
APPID
  2
GENIUS_GENREC_14
 70
     0
  0
APPID
  2
GENIUS_GENOBJ-N-REC_13
 70
     0
  0
APPID
  2
GENIUS_GENDIMSH_14
 70
     0
  0
APPID
  2
GENIUS_GENOBJ-N-DIM_13
 70
     0
  0
APPID
  2
GENIUS_GENDIM_13
 70
     0
  0
APPID
  2
GENIUS_GENDTOL_13
 70
     0
  0
APPID
  2
GENIUS_GENOLIS_13
 70
     0
  0
APPID
  2
GENIUS_GENOENT_13
 70
     0
  0
APPID
  2
GENIUS_GENOBJ-F-FEM_13
 70
     0
  0
APPID
  2
GENIUS_GENOREF_13
 70
     0
  0
APPID
  2
GENIUS_GEFFEM_13
 70
     0
  0
APPID
  2
GENIUS_GEFFEMP_13
 70
     0
  0
APPID
  2
AD_DRAW
 70
     0
  0
APPID
  2
DESIGNERASSEMBLIES
 70
     0
  0
APPID
  2
ACADM_DIM_EDIT
 70
     0
  0
APPID
  2
AMDT_DM_ADJ
 70
     0
  0
APPID
  2
ACAD_DSTYLE_DIMJAG
 70
     0
  0
APPID
  2
ACAD_DSTYLE_DIMBREAK
 70
     0
  0
APPID
  2
ACAD_NAV_VCDISPLAY
 70
     0
  0
APPID
  2
ACAECLAYERSTANDARD
 70
     0
  0
APPID
  2
ACAD_EXEMPT_FROM_CAD_STANDARDS
 70
     0
  0
APPID
  2
ACAD_MLEADERVER
 70
     0
  0
APPID
  2
GENIUS_GENOBJ-N-FIL_13
 70
     0
  0
APPID
  2
ACAD_DSTYLE_DIMINSPECT
 70
     0
  0
ENDTAB
  0
TABLE
  2
DIMSTYLE
 70
     8
  0
DIMSTYLE
  2
STANDARD
 70
     0
  3

  4

  5

  6

  7

 40
1.0
 41
0.18
 42
0.0625
 43
0.38
 44
0.18
 45
0.0
 46
0.0
 47
0.0
 48
0.0
140
0.18
141
0.09
142
0.0
143
25.399999999999999
144
1.0
145
0.0
146
1.0
147
0.09
 71
     0
 72
     0
 73
     1
 74
     1
 75
     0
 76
     0
 77
     0
 78
     0
170
     0
171
     2
172
     0
173
     0
174
     0
175
     0
176
     0
177
     0
178
     0
  0
DIMSTYLE
  2
BIGT
 70
     0
  3

  4

  5

  6

  7

 40
1.0
 41
2.2299999999999991
 42
0.5
 43
7.0
 44
1.0
 45
0.0
 46
0.0
 47
0.0
 48
0.01
140
2.799999999999998
141
0.0
142
0.0
143
25.399999999999999
144
1.0
145
0.0
146
1.0
147
1.0
 71
     0
 72
     0
 73
     0
 74
     0
 75
     0
 76
     0
 77
     3
 78
     9
170
     0
171
     2
172
     1
173
     0
174
     1
175
     0
176
   256
177
   256
178
    40
  0
DIMSTYLE
  2
AM_ANSI
 70
     0
  3

  4
mm
  5

  6

  7

 40
1.0
 41
0.12
 42
0.05
 43
0.5
 44
0.1
 45
0.0
 46
0.0
 47
0.1
 48
0.1
140
0.12
141
0.0
142
0.0
143
25.399999999999999
144
1.0
145
0.0
146
0.71
147
0.06
 71
     0
 72
     0
 73
     1
 74
     1
 75
     0
 76
     0
 77
     0
 78
     7
170
     0
171
     2
172
     0
173
     0
174
     0
175
     0
176
   256
177
   256
178
     2
  0
DIMSTYLE
  2
AM_ANSI$3
 70
     0
  3

  4
mm
  5

  6

  7

 40
1.0
 41
0.12
 42
0.05
 43
0.5
 44
0.1
 45
0.0
 46
0.0
 47
0.1
 48
0.1
140
0.12
141
0.0
142
0.0
143
25.399999999999999
144
1.0
145
0.0
146
0.71
147
0.06
 71
     0
 72
     0
 73
     1
 74
     1
 75
     0
 76
     0
 77
     0
 78
     7
170
     0
171
     2
172
     0
173
     0
174
     0
175
     0
176
   256
177
   256
178
     2
  0
DIMSTYLE
  2
AM_ANSI$4
 70
     0
  3

  4
mm
  5

  6

  7

 40
1.0
 41
0.12
 42
0.05
 43
0.5
 44
0.1
 45
0.0
 46
0.0
 47
0.1
 48
0.1
140
0.12
141
0.0
142
0.0
143
25.399999999999999
144
1.0
145
0.0
146
0.71
147
0.06
 71
     0
 72
     0
 73
     1
 74
     1
 75
     0
 76
     0
 77
     0
 78
     7
170
     0
171
     2
172
     0
173
     0
174
     0
175
     0
176
   256
177
   256
178
     2
  0
DIMSTYLE
  2
AM_ANSI$7
 70
     0
  3

  4
mm
  5

  6

  7

 40
1.0
 41
0.12
 42
0.05
 43
0.5
 44
0.1
 45
0.0
 46
0.0
 47
0.1
 48
0.1
140
0.12
141
0.0
142
0.0
143
25.399999999999999
144
1.0
145
0.0
146
0.71
147
0.06
 71
     0
 72
     0
 73
     1
 74
     1
 75
     0
 76
     0
 77
     0
 78
     7
170
     0
171
     2
172
     0
173
     0
174
     0
175
     0
176
   256
177
   256
178
     2
  0
DIMSTYLE
  2
AM_ANSI$SF
 70
     0
  3

  4
mm
  5

  6

  7

 40
1.0
 41
0.12
 42
0.05
 43
0.5
 44
0.1
 45
0.0
 46
0.0
 47
0.1
 48
0.1
140
0.12
141
0.0
142
0.0
143
25.399999999999999
144
1.0
145
0.0
146
0.71
147
0.06
 71
     0
 72
     0
 73
     1
 74
     1
 75
     1
 76
     1
 77
     0
 78
     7
170
     0
171
     2
172
     0
173
     0
174
     0
175
     0
176
   256
177
   256
178
     2
  0
DIMSTYLE
  2
AM_ANSI$SH
 70
     0
  3

  4
mm
  5

  6

  7

 40
1.0
 41
0.12
 42
0.05
 43
0.5
 44
0.1
 45
0.0
 46
0.0
 47
0.1
 48
0.1
140
0.12
141
0.0
142
0.0
143
25.399999999999999
144
1.0
145
0.0
146
0.71
147
0.06
 71
     0
 72
     0
 73
     1
 74
     1
 75
     1
 76
     1
 77
     0
 78
     7
170
     0
171
     2
172
     0
173
     1
174
     0
175
     0
176
   256
177
   256
178
     2
  0
ENDTAB
  0
ENDSEC
  0
SECTION
  2
BLOCKS
  0
BLOCK
  8
0
  2
$MODEL_SPACE
 70
     0
 10
0.0
 20
0.0
 30
0.0
  3
$MODEL_SPACE
  1

  0
ENDBLK
  5
1A2D
  8
0
  0
BLOCK
 67
     1
  8
0
  2
$PAPER_SPACE
 70
     0
 10
0.0
 20
0.0
 30
0.0
  3
$PAPER_SPACE
  1

  0
ENDBLK
  5
1A29
 67
     1
  8
0
  0
BLOCK
  8
0
  2
_OPEN
 70
     0
 10
0.0
 20
0.0
 30
0.0
  3
_OPEN
  1

  0
LINE
  5
15A8
  8
0
  6
BYBLOCK
 62
     0
 10
-1.0
 20
0.1666666666666666
 30
0.0
 11
0.0
 21
0.0
 31
0.0
  0
LINE
  5
15A9
  8
0
  6
BYBLOCK
 62
     0
 10
-1.0
 20
-0.1666666666666666
 30
0.0
 11
0.0
 21
0.0
 31
0.0
  0
LINE
  5
15AA
  8
0
  6
BYBLOCK
 62
     0
 10
0.0
 20
0.0
 30
0.0
 11
-1.0
 21
0.0
 31
0.0
  0
ENDBLK
  5
15AB
  8
0
  0
BLOCK
  8
0
  2
_ACMFILLEDHALF
 70
     0
 10
0.0
 20
0.0
 30
0.0
  3
_ACMFILLEDHALF
  1

  0
TRACE
  5
1738
  8
240
 62
     0
 10
-0.8
 20
0.0
 30
0.0
 11
-1.0
 21
0.166666666
 31
0.0
 12
0.0
 22
0.0
 32
0.0
 13
0.0
 23
0.0
 33
0.0
  0
LINE
  5
1739
  8
240
 62
     0
 10
-1.0
 20
0.0
 30
0.0
 11
-0.8
 21
0.0
 31
0.0
  0
ENDBLK
  5
1737
  8
0
  0
ENDSEC
  0
SECTION
  2
ENTITIES
  0
TEXT
  5
1117
  8
241
  6
CONTINUOUS
 10
-28.0
 20
35.0
 30
0.0
 40
5.0
  1
EC1204
  7
YOKO
  0
LINE
  5
13C3
  8
241
  6
CONTINUOUS
 10
-1.5
 20
6.0
 30
0.0
 11
-1.5
 21
-6.0
 31
0.0
  0
LINE
  5
13CD
  8
240
  6
CONTINUOUS
 10
-30.5
 20
-6.0
 30
0.0
 11
-1.5
 21
-6.0
 31
0.0
  0
LINE
  5
13CE
  8
240
  6
CONTINUOUS
 10
-30.5
 20
6.0
 30
0.0
 11
-1.5
 21
6.0
 31
0.0
  0
LINE
  5
13D0
  8
240
  6
CONTINUOUS
 10
0.0
 20
6.5
 30
0.0
 11
0.0
 21
6.0
 31
0.0
  0
LINE
  5
13D1
  8
240
  6
CONTINUOUS
 10
-30.5
 20
6.0
 30
0.0
 11
-30.5
 21
-6.0
 31
0.0
  0
LINE
  5
13D2
  8
240
  6
CONTINUOUS
 10
0.0
 20
-6.5
 30
0.0
 11
1.5
 21
-6.5
 31
0.0
  0
LINE
  5
13D3
  8
240
  6
CONTINUOUS
 10
0.0
 20
6.5
 30
0.0
 11
1.5
 21
6.5
 31
0.0
  0
LINE
  5
13D4
  8
240
  6
CONTINUOUS
 10
1.5
 20
6.5
 30
0.0
 11
1.5
 21
-6.5
 31
0.0
  0
LINE
  5
13D5
  8
245
  6
CENTER2
 10
-32.452491288698532
 20
0.0
 30
0.0
 11
3.178990316653425
 21
0.0
 31
0.0
  0
LINE
  5
13D6
  8
243
  6
HIDDEN2
 10
-30.5
 20
2.0
 30
0.0
 11
1.4999999999999889
 21
2.0000000000000031
 31
0.0
  0
LINE
  5
13D7
  8
243
  6
HIDDEN2
 10
-30.5
 20
-2.0
 30
0.0
 11
1.5
 21
-2.0
 31
0.0
  0
LINE
  5
178D
  8
240
  6
CONTINUOUS
 10
0.0
 20
-6.5
 30
0.0
 11
0.0
 21
-6.0
 31
0.0
  0
LINE
  5
179B
  8
241
  6
CONTINUOUS
 10
0.0
 20
6.0
 30
0.0
 11
0.0
 21
-6.0
 31
0.0
  0
LINE
  5
194C
  8
247
  6
CONTINUOUS
 10
-26.71960361594504
 20
-4.981312453944982
 30
0.0
 11
-23.475372846914048
 21
-4.981312453945022
 31
0.0
  0
LINE
  5
194D
  8
247
  6
CONTINUOUS
 10
-26.163029065936581
 20
-3.231312453945022
 30
0.0
 11
-26.58454478298518
 21
-4.7013124538862279
 31
0.0
  0
LINE
  5
194E
  8
247
  6
CONTINUOUS
 10
-25.722209598408352
 20
-3.928620146224822
 30
0.0
 11
-26.362978829151949
 21
-3.928620146224822
 31
0.0
  0
ARC
  5
194F
  8
247
  6
CONTINUOUS
 10
-25.555687997307789
 20
-3.500615801050893
 30
0.0
 40
0.271370106652872
 50
342.99788967529201
 51
82.924166218512283
  0
ARC
  5
1950
  8
247
  6
CONTINUOUS
 10
-25.762337905707909
 20
-3.444968645664634
 30
0.0
 40
0.4853133575751138
 50
274.74293685220141
 51
343.84922627326631
1001
GENIUS_GENOBJ-N-FIL_13
1002
{
1000
OWNER
1000
GEN
1002
}
1001
GENIUS_GENODEF_13
1002
{
1000
HIER
1070
     0
1002
}
1002
{
1000
MANEDIT
1070
     0
1002
}
1002
{
1000
NOSEL
1070
     0
1002
}
1002
{
1000
BEHIND
1070
     0
1002
}
1002
{
1000
OTHER
1070
     0
1002
}
1002
{
1000
REACTOR
1002
}
  0
LINE
  5
1951
  8
247
  6
CONTINUOUS
 10
-25.943775552241579
 20
-4.7013124538862279
 30
0.0
 11
-26.58454478298518
 21
-4.7013124538862279
 31
0.0
  0
LINE
  5
1952
  8
247
  6
CONTINUOUS
 10
-26.163029065936598
 20
-3.231312453945022
 30
0.0
 11
-25.522259835193001
 21
-3.231312453945022
 31
0.0
  0
ARC
  5
1953
  8
247
  6
CONTINUOUS
 10
-25.759418149331811
 20
-4.2025043278825338
 30
0.0
 40
0.2764001107527702
 50
335.99094165252882
 51
82.263443459069535
  0
ARC
  5
1954
  8
247
  6
CONTINUOUS
 10
-25.993316243243871
 20
-4.205152683077821
 30
0.0
 40
0.498626912865318
 50
275.70198516425802
 51
347.27733843682228
1001
GENIUS_GENOBJ-N-FIL_13
1002
{
1000
OWNER
1000
GEN
1002
}
1001
GENIUS_GENODEF_13
1002
{
1000
HIER
1070
     0
1002
}
1002
{
1000
MANEDIT
1070
     0
1002
}
1002
{
1000
NOSEL
1070
     0
1002
}
1002
{
1000
BEHIND
1070
     0
1002
}
1002
{
1000
OTHER
1070
     0
1002
}
1002
{
1000
REACTOR
1002
}
  0
LINE
  5
1955
  8
247
  6
CONTINUOUS
 10
-25.273390936889388
 20
-4.7013124538862279
 30
0.0
 11
-24.85187521984081
 21
-3.231312453945022
 31
0.0
  0
LINE
  5
1956
  8
247
  6
CONTINUOUS
 10
-23.804567527580598
 20
-3.231312453945022
 30
0.0
 11
-24.081778470957541
 21
-3.231312453945022
 31
0.0
  0
LINE
  5
1957
  8
247
  6
CONTINUOUS
 10
-24.520721373705811
 20
-4.7013124538862279
 30
0.0
 11
-24.219182912179409
 21
-4.7013124538862279
 31
0.0
  0
ARC
  5
1958
  8
247
  6
CONTINUOUS
 10
-23.661875219894011
 20
-4.2521221705033758
 30
0.0
 40
1.103798540347682
 50
112.35948814152729
 51
164.993248542846
  0
ARC
  5
1959
  8
247
  6
CONTINUOUS
 10
-23.98786157223828
 20
-3.6273856549217189
 30
0.0
 40
0.4364294757906614
 50
4.994589319075371
 51
65.166328957303634
1001
GENIUS_GENOBJ-N-FIL_13
1002
{
1000
OWNER
1000
GEN
1002
}
1001
GENIUS_GENODEF_13
1002
{
1000
HIER
1070
     0
1002
}
1002
{
1000
MANEDIT
1070
     0
1002
}
1002
{
1000
NOSEL
1070
     0
1002
}
1002
{
1000
BEHIND
1070
     0
1002
}
1002
{
1000
OTHER
1070
     0
1002
}
1002
{
1000
REACTOR
1002
}
  0
ARC
  5
195A
  8
247
  6
CONTINUOUS
 10
-24.405532381667971
 20
-4.0447839393236311
 30
0.0
 40
0.6824630504374888
 50
285.84609655577998
 51
352.32513700416922
  0
ARC
  5
195B
  8
247
  6
CONTINUOUS
 10
-24.119251763085579
 20
-4.1913417353247704
 30
0.0
 40
0.6490361947084407
 50
159.71360167049701
 51
231.78874565640959
1001
GENIUS_GENOBJ-N-FIL_13
1002
{
1000
OWNER
1000
GEN
1002
}
1001
GENIUS_GENODEF_13
1002
{
1000
HIER
1070
     0
1002
}
1002
{
1000
MANEDIT
1070
     0
1002
}
1002
{
1000
NOSEL
1070
     0
1002
}
1002
{
1000
BEHIND
1070
     0
1002
}
1002
{
1000
OTHER
1070
     0
1002
}
1002
{
1000
REACTOR
1002
}
  0
LINE
  5
195C
  8
247
  6
CONTINUOUS
 10
-24.06841368141621
 20
-4.1359278385242062
 30
0.0
 11
-23.729182912199001
 21
-4.1359278385242062
 31
0.0
  0
ARC
  5
195D
  8
247
  6
CONTINUOUS
 10
-26.71960361594504
 20
-4.106312453945022
 30
0.0
 40
0.875
 50
90.0
 51
270.0
  0
LINE
  5
195E
  8
247
  6
CONTINUOUS
 10
-26.71960361594504
 20
-3.231312453945022
 30
0.0
 11
-26.407295923684831
 21
-3.231312453945022
 31
0.0
  0
ARC
  5
195F
  8
247
  6
CONTINUOUS
 10
-23.475372846914041
 20
-4.106312453945022
 30
0.0
 40
0.875
 50
270.0
 51
90.0
  0
ARC
  5
1AEF
  8
241
  6
CONTINUOUS
 10
-0.75
 20
5.6875
 30
0.0
 40
0.8125
 50
22.61986494804043
 51
157.3801350519596
  0
ARC
  5
1AF0
  8
241
  6
CONTINUOUS
 10
-0.75
 20
-5.6875
 30
0.0
 40
0.8125
 50
202.6198649480404
 51
337.38013505195948
  0
LINE
  5
1B82
  8
250
 10
-30.5
 20
6.5
 30
0.0
 11
-30.5
 21
22.0
 31
0.0
  0
LINE
  5
1B83
  8
250
 10
1.5
 20
7.0
 30
0.0
 11
1.5
 21
22.0
 31
0.0
  0
LINE
  5
1B84
  8
250
 10
-28.27
 20
21.0
 30
0.0
 11
-0.7299999999999982
 21
21.0
 31
0.0
  0
LINE
  5
1B8E
  8
250
 10
-31.0
 20
6.0
 30
0.0
 11
-43.0
 21
6.0000000000000027
 31
0.0
  0
LINE
  5
1B8F
  8
250
 10
-31.0
 20
-6.0
 30
0.0
 11
-43.0
 21
-5.9999999999999956
 31
0.0
  0
LINE
  5
1B90
  8
250
 10
-42.0
 20
3.770000000000004
 30
0.0
 11
-42.0
 21
-3.7699999999999969
 31
0.0
  0
TEXT
  5
1B94
  8
250
 10
-17.166666666666661
 20
22.0
 30
0.0
 40
2.799999999999998
  1
32
  0
LINE
  5
1B95
  8
250
 10
-0.7299999999999982
 20
21.37166666666667
 30
0.0
 11
1.5
 21
21.0
 31
0.0
  0
LINE
  5
1B96
  8
250
 10
-0.7299999999999982
 20
20.62833333333333
 30
0.0
 11
1.5
 21
21.0
 31
0.0
  0
LINE
  5
1B97
  8
250
 10
1.5
 20
21.0
 30
0.0
 11
-0.7299999999999982
 21
21.0
 31
0.0
  0
LINE
  5
1B98
  8
250
 10
-28.27
 20
20.62833333333333
 30
0.0
 11
-30.5
 21
21.0
 31
0.0
  0
LINE
  5
1B99
  8
250
 10
-28.27
 20
21.37166666666667
 30
0.0
 11
-30.5
 21
21.0
 31
0.0
  0
LINE
  5
1B9A
  8
250
 10
-30.5
 20
21.0
 30
0.0
 11
-28.27
 21
21.0
 31
0.0
  0
TEXT
  5
1BA2
  8
250
 10
-43.0
 20
-3.9333333333333331
 30
0.0
 40
2.799999999999998
  1
\U+220512
 50
90.0
  0
LINE
  5
1BA3
  8
250
 10
-41.62833333333333
 20
-3.7699999999999969
 30
0.0
 11
-42.0
 21
-5.9999999999999956
 31
0.0
  0
LINE
  5
1BA4
  8
250
 10
-42.371666666666663
 20
-3.7699999999999969
 30
0.0
 11
-42.0
 21
-5.9999999999999956
 31
0.0
  0
LINE
  5
1BA5
  8
250
 10
-42.0
 20
-5.9999999999999956
 30
0.0
 11
-42.0
 21
-3.7699999999999969
 31
0.0
  0
LINE
  5
1BA6
  8
250
 10
-42.371666666666663
 20
3.770000000000004
 30
0.0
 11
-42.0
 21
6.0000000000000027
 31
0.0
  0
LINE
  5
1BA7
  8
250
 10
-41.62833333333333
 20
3.770000000000004
 30
0.0
 11
-42.0
 21
6.0000000000000027
 31
0.0
  0
LINE
  5
1BA8
  8
250
 10
-42.0
 20
6.0000000000000027
 30
0.0
 11
-42.0
 21
3.770000000000004
 31
0.0
  0
LINE
  5
1E55
  8
250
  6
CONTINUOUS
 10
2.0
 20
2.0000000000000031
 30
0.0
 11
15.0
 21
2.0
 31
0.0
  0
LINE
  5
1E56
  8
250
  6
CONTINUOUS
 10
2.0
 20
-2.0
 30
0.0
 11
15.0
 21
-2.0000000000000031
 31
0.0
  0
LINE
  5
1E57
  8
250
  6
CONTINUOUS
 10
14.0
 20
4.2299999999999978
 30
0.0
 11
14.0
 21
6.4599999999999991
 31
0.0
  0
LINE
  5
1E58
  8
250
  6
CONTINUOUS
 10
14.0
 20
-4.2300000000000022
 30
0.0
 11
14.0
 21
-6.4600000000000017
 31
0.0
  0
LINE
  5
1E59
  8
250
  6
CONTINUOUS
 10
14.0
 20
2.0
 30
0.0
 11
14.0
 21
-2.0000000000000031
 31
0.0
  0
TEXT
  5
1E5D
  8
250
  6
CONTINUOUS
 10
13.0
 20
-2.6666666666666639
 30
0.0
 40
2.799999999999998
  1
\U+22054
 50
90.0
  0
LINE
  5
1E5E
  8
250
  6
CONTINUOUS
 10
13.62833333333333
 20
-4.2300000000000022
 30
0.0
 11
14.0
 21
-2.0000000000000031
 31
0.0
  0
LINE
  5
1E5F
  8
250
  6
CONTINUOUS
 10
14.371666666666661
 20
-4.2300000000000022
 30
0.0
 11
14.0
 21
-2.0000000000000031
 31
0.0
  0
LINE
  5
1E60
  8
250
  6
CONTINUOUS
 10
14.0
 20
-2.0000000000000031
 30
0.0
 11
14.0
 21
-4.2300000000000022
 31
0.0
  0
LINE
  5
1E61
  8
250
  6
CONTINUOUS
 10
14.371666666666661
 20
4.2299999999999986
 30
0.0
 11
14.0
 21
2.0
 31
0.0
  0
LINE
  5
1E62
  8
250
  6
CONTINUOUS
 10
13.62833333333333
 20
4.2299999999999986
 30
0.0
 11
14.0
 21
2.0
 31
0.0
  0
LINE
  5
1E63
  8
250
  6
CONTINUOUS
 10
14.0
 20
2.0
 30
0.0
 11
14.0
 21
4.2299999999999986
 31
0.0
  0
VIEWPORT
  5
22
 67
     1
  8
0
 10
261.51769911504419
 20
148.5
 30
0.0
 40
523.0353982300885
 41
297.0
 68
     1
 69
     1
1001
ACAD
1000
MVIEW
1002
{
1070
    16
1010
0.0
1020
0.0
1030
0.0
1010
0.0
1020
0.0
1030
1.0
1040
0.0
1040
297.0
1040
261.51769911504419
1040
148.5
1040
50.0
1040
0.0
1040
0.0
1070
     0
1070
   100
1070
     1
1070
     1
1070
     0
1070
     0
1070
     0
1070
     0
1040
0.0
1040
0.0
1040
0.0
1040
1.0
1040
1.0
1040
10.0
1040
10.0
1070
     0
1002
{
1002
}
1002
}
1001
GENIUS_GENODEF_13
1002
{
1000
HIER
1070
     0
1002
}
1002
{
1000
MANEDIT
1070
     0
1002
}
1002
{
1000
NOSEL
1070
     0
1002
}
1002
{
1000
BEHIND
1070
     0
1002
}
1002
{
1000
OTHER
1070
     0
1002
}
1002
{
1000
REACTOR
1002
}
1001
GENIUS_GENOBJ-N-SDF_13
1002
{
1000
OWNER
1000
GEN
1002
}
1001
GENIUS_GENSCREG_15
1000
PF
1040
1.0
1000
DF
1040
1.0
1000
MIN
1011
0.0
1021
0.0
1031
0.0
1021
0.0
1031
0.0
1000
MAX
1011
523.0353982300885
1021
0.0
1031
0.0
1021
297.0
1031
0.0
1000
FLAGS
1070
     4
  0
ENDSEC
  0
EOF
