  0
SECTION
  2
HEADER
  9
$ACADVER
  1
AC1009
  9
$INSBASE
 10
0.0
 20
0.0
 30
0.0
  9
$EXTMIN
 10
-12.813207000136799
 20
-8.0093071512054621
 30
-0.0015258207003583
  9
$EXTMAX
 10
38.004602613771112
 20
47.000153006986011
 30
0.0000000349246037
  9
$LIMMIN
 10
0.0
 20
0.0
  9
$LIMMAX
 10
420.0
 20
297.0
  9
$ORTHOMODE
 70
     0
  9
$REGENMODE
 70
     1
  9
$FILLMODE
 70
     1
  9
$QTEXTMODE
 70
     0
  9
$MIRRTEXT
 70
     1
  9
$DRAGMODE
 70
     2
  9
$LTSCALE
 40
10.0
  9
$OSMODE
 70
  3071
  9
$ATTMODE
 70
     1
  9
$TEXTSIZE
 40
3.0
  9
$TRACEWID
 40
1.0
  9
$TEXTSTYLE
  7
YOKO
  9
$CLAYER
  8
240
  9
$CELTYPE
  6
BYLAYER
  9
$CECOLOR
 62
   256
  9
$DIMSCALE
 40
1.0
  9
$DIMASZ
 40
2.2299999999999991
  9
$DIMEXO
 40
0.5
  9
$DIMDLI
 40
2.5
  9
$DIMRND
 40
0.0
  9
$DIMDLE
 40
0.0
  9
$DIMEXE
 40
1.0
  9
$DIMTP
 40
0.0
  9
$DIMTM
 40
0.0
  9
$DIMTXT
 40
2.799999999999998
  9
$DIMCEN
 40
0.0
  9
$DIMTSZ
 40
0.0
  9
$DIMTOL
 70
     0
  9
$DIMLIM
 70
     0
  9
$DIMTIH
 70
     0
  9
$DIMTOH
 70
     0
  9
$DIMSE1
 70
     0
  9
$DIMSE2
 70
     0
  9
$DIMTAD
 70
     3
  9
$DIMZIN
 70
     8
  9
$DIMBLK
  1

  9
$DIMASO
 70
     1
  9
$DIMSHO
 70
     1
  9
$DIMPOST
  1

  9
$DIMAPOST
  1

  9
$DIMALT
 70
     0
  9
$DIMALTD
 70
     2
  9
$DIMALTF
 40
25.399999999999999
  9
$DIMLFAC
 40
1.0
  9
$DIMTOFL
 70
     1
  9
$DIMTVP
 40
0.0
  9
$DIMTIX
 70
     1
  9
$DIMSOXD
 70
     0
  9
$DIMSAH
 70
     1
  9
$DIMBLK1
  1
OPEN
  9
$DIMBLK2
  1
OPEN
  9
$DIMSTYLE
  2
BIGT
  9
$DIMCLRD
 70
   256
  9
$DIMCLRE
 70
   256
  9
$DIMCLRT
 70
    40
  9
$DIMTFAC
 40
1.0
  9
$DIMGAP
 40
1.0
  9
$LUNITS
 70
     2
  9
$LUPREC
 70
     3
  9
$SKETCHINC
 40
1.0
  9
$FILLETRAD
 40
0.0
  9
$AUNITS
 70
     0
  9
$AUPREC
 70
     3
  9
$MENU
  1
.
  9
$ELEVATION
 40
0.0
  9
$PELEVATION
 40
0.0
  9
$THICKNESS
 40
0.0
  9
$LIMCHECK
 70
     0
  9
$BLIPMODE
 70
     0
  9
$CHAMFERA
 40
10.0
  9
$CHAMFERB
 40
10.0
  9
$SKPOLY
 70
     0
  9
$TDCREATE
 40
2455453.5892863772
  9
$TDUPDATE
 40
2457361.7019029632
  9
$TDINDWG
 40
0.0051381481
  9
$TDUSRTIMER
 40
0.0051380903
  9
$USRTIMER
 70
     1
  9
$ANGBASE
 50
0.0
  9
$ANGDIR
 70
     0
  9
$PDMODE
 70
     1
  9
$PDSIZE
 40
-5.0
  9
$PLINEWID
 40
0.0
  9
$COORDS
 70
     1
  9
$SPLFRAME
 70
     0
  9
$SPLINETYPE
 70
     6
  9
$SPLINESEGS
 70
     8
  9
$ATTDIA
 70
     1
  9
$ATTREQ
 70
     1
  9
$HANDLING
 70
     1
  9
$HANDSEED
  5
CC1
  9
$SURFTAB1
 70
     6
  9
$SURFTAB2
 70
     6
  9
$SURFTYPE
 70
     6
  9
$SURFU
 70
     6
  9
$SURFV
 70
     6
  9
$UCSNAME
  2

  9
$UCSORG
 10
0.0
 20
0.0
 30
0.0
  9
$UCSXDIR
 10
1.0
 20
0.0
 30
0.0
  9
$UCSYDIR
 10
0.0
 20
1.0
 30
0.0
  9
$PUCSNAME
  2

  9
$PUCSORG
 10
0.0
 20
0.0
 30
0.0
  9
$PUCSXDIR
 10
1.0
 20
0.0
 30
0.0
  9
$PUCSYDIR
 10
0.0
 20
1.0
 30
0.0
  9
$USERI1
 70
     1
  9
$USERI2
 70
     0
  9
$USERI3
 70
     0
  9
$USERI4
 70
     0
  9
$USERI5
 70
     0
  9
$USERR1
 40
0.0
  9
$USERR2
 40
0.0
  9
$USERR3
 40
0.0
  9
$USERR4
 40
0.0
  9
$USERR5
 40
0.0
  9
$WORLDVIEW
 70
     1
  9
$SHADEDGE
 70
     3
  9
$SHADEDIF
 70
    70
  9
$TILEMODE
 70
     1
  9
$MAXACTVP
 70
    16
  9
$PLIMCHECK
 70
     0
  9
$PEXTMIN
 10
1.0000000000000000E+020
 20
1.0000000000000000E+020
 30
1.0000000000000000E+020
  9
$PEXTMAX
 10
-1.0000000000000000E+020
 20
-1.0000000000000000E+020
 30
-1.0000000000000000E+020
  9
$PLIMMIN
 10
0.0
 20
0.0
  9
$PLIMMAX
 10
420.0
 20
297.0
  9
$UNITMODE
 70
     0
  9
$VISRETAIN
 70
     0
  9
$PLINEGEN
 70
     0
  9
$PSLTSCALE
 70
     1
  0
ENDSEC
  0
SECTION
  2
TABLES
  0
TABLE
  2
VPORT
 70
     1
  0
VPORT
  2
*ACTIVE
 70
     0
 10
0.0
 20
0.0
 11
1.0
 21
1.0
 12
12.595697806817149
 22
19.495422927890271
 13
0.0
 23
0.0
 14
7.0
 24
7.0
 15
7.0
 25
7.0
 16
0.0
 26
0.0
 36
1.0
 17
0.0
 27
0.0
 37
0.0
 40
55.376189892579418
 41
1.5417130144605109
 42
50.0
 43
0.0
 44
0.0
 50
0.0
 51
0.0
 71
     0
 72
  2000
 73
     1
 74
     0
 75
     0
 76
     0
 77
     0
 78
     0
  0
ENDTAB
  0
TABLE
  2
LTYPE
 70
    22
  0
LTYPE
  2
CONTINUOUS
 70
     0
  3
Solid line
 72
    65
 73
     0
 40
0.0
  0
LTYPE
  2
CENTER2
 70
     0
  3
___ _ ___ _ ___ _ ___ _ ___ _ ___ _ ___ _ ___ _
 72
    65
 73
     4
 40
1.125
 49
0.75
 49
-0.125
 49
0.125
 49
-0.125
  0
LTYPE
  2
PHANTOM2
 70
     0
  3
___ _ _ ___ _ _ ___ _ _ ___ _ _ ___ _ _ ___ _ _
 72
    65
 73
     6
 40
1.25
 49
0.625
 49
-0.125
 49
0.125
 49
-0.125
 49
0.125
 49
-0.125
  0
LTYPE
  2
HIDDEN2
 70
     0
  3
_ _ _ _ _ _ _ _ _ _ _ _ _ _ _ _ _ _ _ _ _ _ _ _
 72
    65
 73
     2
 40
0.1875
 49
0.125
 49
-0.0625
  0
LTYPE
  2
AMCONSTR
 70
     0
  3
_______________________
 72
    65
 73
     2
 40
9999.0
 49
9999.0
 49
0.0
  0
LTYPE
  2
HIDDEN
 70
     0
  3
Hidden __ __ __ __ __ __ __ __ __ __ __ __ __ _
 72
    65
 73
     2
 40
0.375
 49
0.25
 49
-0.125
  0
LTYPE
  2
CENTER
 70
     0
  3
Center ____ _ ____ _ ____ _ ____ _ ____ _ ____
 72
    65
 73
     4
 40
2.0
 49
1.25
 49
-0.25
 49
0.25
 49
-0.25
  0
LTYPE
  2
AMZIGZAG2
 70
     0
  3
/\/-/\/-/\/-/\/-/\/-/\/
 72
    65
 73
     2
 40
0.4401
 49
0.0001
 49
-0.4400000000000001
  0
LTYPE
  2
ACANSTGB
 70
     0
  3
__ . . __ . .
 72
    65
 73
     6
 40
0.35433070866
 49
0.15748031496
 49
-0.03937007874
 49
0.03937007874
 49
-0.03937007874
 49
0.03937007874
 49
-0.03937007874
  0
LTYPE
  2
ACANSTGL
 70
     0
  3
_ _ _ _ _
 72
    65
 73
     2
 40
0.11811023622
 49
0.07874015748
 49
-0.03937007874
  0
ENDTAB
  0
TABLE
  2
LAYER
 70
     7
  0
LAYER
  2
0
 70
     0
 62
     7
  6
CONTINUOUS
  0
LAYER
  2
240
 70
     0
 62
     4
  6
CONTINUOUS
  0
LAYER
  2
241
 70
     0
 62
   211
  6
CONTINUOUS
  0
LAYER
  2
245
 70
     0
 62
     2
  6
CENTER2
  0
LAYER
  2
250
 70
     0
 62
     3
  6
CONTINUOUS
  0
LAYER
  2
DEFPOINTS
 70
     0
 62
     7
  6
CONTINUOUS
  0
LAYER
  2
247
 70
     0
 62
    60
  6
CONTINUOUS
  0
ENDTAB
  0
TABLE
  2
STYLE
 70
    10
  0
STYLE
  2
STANDARD
 70
     0
 40
0.0
 41
1.0
 50
0.0
 71
     0
 42
3.0
  3
romans.shx
  4
BIGFONT.SHX
  0
STYLE
  2
YOKO
 70
     0
 40
0.0
 41
1.0
 50
0.0
 71
     0
 42
3.0
  3
romans.shx
  4
extfont.shx
  0
STYLE
  2

 70
     1
 40
0.0
 41
1.0
 50
0.0
 71
     0
 42
3.0
  3
genltshp.shx
  4

  0
STYLE
  2
ACANSGDT
 70
     0
 40
0.0
 41
1.0
 50
0.0
 71
     0
 42
3.0
  3
amgdt.shx
  4

  0
ENDTAB
  0
TABLE
  2
VIEW
 70
     0
  0
ENDTAB
  0
TABLE
  2
UCS
 70
     0
  0
ENDTAB
  0
TABLE
  2
APPID
 70
    40
  0
APPID
  2
ACAD
 70
     0
  0
APPID
  2
ACADANNOTATIVE
 70
     0
  0
APPID
  2
GLOBAL
 70
     0
  0
APPID
  2
DETAIL
 70
     0
  0
APPID
  2
GRPNAME
 70
     0
  0
APPID
  2
GPARA
 70
     0
  0
APPID
  2
DCO15
 70
     0
  0
APPID
  2
ITEMNAME
 70
     0
  0
APPID
  2
GRADE_0
 70
     0
  0
APPID
  2
CONTENTBLOCKICON
 70
     0
  0
APPID
  2
MCAD_NO_VIS
 70
     0
  0
APPID
  2
ACAD_TEMP_GRAPHIC
 70
     0
  0
APPID
  2
ACATTRIBSERVICES
 70
     0
  0
APPID
  2
GENIUS_GENSCREG_15
 70
     0
  0
APPID
  2
GENIUS_GENODEF_13
 70
     0
  0
APPID
  2
GENIUS_GENOBJ-N-SDF_13
 70
     0
  0
APPID
  2
GENIUS_GENREC_14
 70
     0
  0
APPID
  2
GENIUS_GENOBJ-N-REC_13
 70
     0
  0
APPID
  2
GENIUS_GENDIMSH_14
 70
     0
  0
APPID
  2
GENIUS_GENOBJ-N-DIM_13
 70
     0
  0
APPID
  2
GENIUS_GENDIM_13
 70
     0
  0
APPID
  2
GENIUS_GENDTOL_13
 70
     0
  0
APPID
  2
GENIUS_GENOLIS_13
 70
     0
  0
APPID
  2
GENIUS_GENOENT_13
 70
     0
  0
APPID
  2
GENIUS_GENOBJ-F-FEM_13
 70
     0
  0
APPID
  2
GENIUS_GENOREF_13
 70
     0
  0
APPID
  2
GENIUS_GEFFEM_13
 70
     0
  0
APPID
  2
GENIUS_GEFFEMP_13
 70
     0
  0
APPID
  2
AD_DRAW
 70
     0
  0
APPID
  2
DESIGNERASSEMBLIES
 70
     0
  0
APPID
  2
ACADM_DIM_EDIT
 70
     0
  0
APPID
  2
AMDT_DM_ADJ
 70
     0
  0
APPID
  2
GENIUS_GENOBJ-N-FIL_13
 70
     0
  0
APPID
  2
GENIUS_GENFIL_13
 70
     0
  0
APPID
  2
GENIUS_GENOBJ-N-CHA_13
 70
     0
  0
APPID
  2
ACAD_NAV_VCDISPLAY
 70
     0
  0
APPID
  2
ACAD_MLEADERVER
 70
     0
  0
APPID
  2
ACAD_DSTYLE_DIMJAG
 70
     0
  0
APPID
  2
ACAD_DSTYLE_DIMBREAK
 70
     0
  0
APPID
  2
ACAD_EXEMPT_FROM_CAD_STANDARDS
 70
     0
  0
ENDTAB
  0
TABLE
  2
DIMSTYLE
 70
    32
  0
DIMSTYLE
  2
STANDARD
 70
     0
  3

  4

  5

  6

  7

 40
1.0
 41
0.18
 42
0.0625
 43
0.38
 44
0.18
 45
0.0
 46
0.0
 47
0.0
 48
0.0
140
0.18
141
0.09
142
0.0
143
25.399999999999999
144
1.0
145
0.0
146
1.0
147
0.09
 71
     0
 72
     0
 73
     1
 74
     1
 75
     0
 76
     0
 77
     0
 78
     0
170
     0
171
     2
172
     0
173
     0
174
     0
175
     0
176
     0
177
     0
178
     0
  0
DIMSTYLE
  2
BIGT
 70
     0
  3

  4

  5

  6

  7

 40
1.0
 41
2.2299999999999991
 42
0.5
 43
7.0
 44
1.0
 45
0.0
 46
0.0
 47
0.0
 48
0.01
140
2.799999999999998
141
0.0
142
0.0
143
25.399999999999999
144
1.0
145
0.0
146
1.0
147
1.0
 71
     0
 72
     0
 73
     0
 74
     0
 75
     0
 76
     0
 77
     3
 78
     9
170
     0
171
     2
172
     1
173
     0
174
     1
175
     0
176
   256
177
   256
178
    40
  0
DIMSTYLE
  2
AM_ANSI
 70
     0
  3

  4
mm
  5

  6

  7

 40
1.0
 41
0.12
 42
0.05
 43
0.5
 44
0.1
 45
0.0
 46
0.0
 47
0.1
 48
0.1
140
0.12
141
0.0
142
0.0
143
25.399999999999999
144
1.0
145
0.0
146
0.71
147
0.06
 71
     0
 72
     0
 73
     1
 74
     1
 75
     0
 76
     0
 77
     0
 78
     7
170
     0
171
     2
172
     0
173
     0
174
     0
175
     0
176
   256
177
   256
178
     2
  0
DIMSTYLE
  2
AM_ANSI$3
 70
     0
  3

  4
mm
  5

  6

  7

 40
1.0
 41
0.12
 42
0.05
 43
0.5
 44
0.1
 45
0.0
 46
0.0
 47
0.1
 48
0.1
140
0.12
141
0.0
142
0.0
143
25.399999999999999
144
1.0
145
0.0
146
0.71
147
0.06
 71
     0
 72
     0
 73
     1
 74
     1
 75
     0
 76
     0
 77
     0
 78
     7
170
     0
171
     2
172
     0
173
     0
174
     0
175
     0
176
   256
177
   256
178
     2
  0
DIMSTYLE
  2
AM_ANSI$4
 70
     0
  3

  4
mm
  5

  6

  7

 40
1.0
 41
0.12
 42
0.05
 43
0.5
 44
0.1
 45
0.0
 46
0.0
 47
0.1
 48
0.1
140
0.12
141
0.0
142
0.0
143
25.399999999999999
144
1.0
145
0.0
146
0.71
147
0.06
 71
     0
 72
     0
 73
     1
 74
     1
 75
     0
 76
     0
 77
     0
 78
     7
170
     0
171
     2
172
     0
173
     0
174
     0
175
     0
176
   256
177
   256
178
     2
  0
DIMSTYLE
  2
AM_ANSI$7
 70
     0
  3

  4
mm
  5

  6

  7

 40
1.0
 41
0.12
 42
0.05
 43
0.5
 44
0.1
 45
0.0
 46
0.0
 47
0.1
 48
0.1
140
0.12
141
0.0
142
0.0
143
25.399999999999999
144
1.0
145
0.0
146
0.71
147
0.06
 71
     0
 72
     0
 73
     1
 74
     1
 75
     0
 76
     0
 77
     0
 78
     7
170
     0
171
     2
172
     0
173
     0
174
     0
175
     0
176
   256
177
   256
178
     2
  0
DIMSTYLE
  2
AM_ANSI$SF
 70
     0
  3

  4
mm
  5

  6

  7

 40
1.0
 41
0.12
 42
0.05
 43
0.5
 44
0.1
 45
0.0
 46
0.0
 47
0.1
 48
0.1
140
0.12
141
0.0
142
0.0
143
25.399999999999999
144
1.0
145
0.0
146
0.71
147
0.06
 71
     0
 72
     0
 73
     1
 74
     1
 75
     1
 76
     1
 77
     0
 78
     7
170
     0
171
     2
172
     0
173
     0
174
     0
175
     0
176
   256
177
   256
178
     2
  0
DIMSTYLE
  2
AM_ANSI$SH
 70
     0
  3

  4
mm
  5

  6
GENAXEH
  7

 40
1.0
 41
0.12
 42
0.05
 43
0.5
 44
0.1
 45
0.0
 46
0.0
 47
0.1
 48
0.1
140
0.12
141
0.0
142
0.0
143
25.399999999999999
144
1.0
145
0.0
146
0.71
147
0.06
 71
     0
 72
     0
 73
     1
 74
     1
 75
     1
 76
     1
 77
     0
 78
     7
170
     0
171
     2
172
     0
173
     1
174
     0
175
     0
176
   256
177
   256
178
     2
  0
ENDTAB
  0
ENDSEC
  0
SECTION
  2
BLOCKS
  0
BLOCK
  8
0
  2
$MODEL_SPACE
 70
     0
 10
0.0
 20
0.0
 30
0.0
  3
$MODEL_SPACE
  1

  0
ENDBLK
  5
B78
  8
0
  0
BLOCK
 67
     1
  8
0
  2
$PAPER_SPACE
 70
     0
 10
0.0
 20
0.0
 30
0.0
  3
$PAPER_SPACE
  1

  0
ENDBLK
  5
B74
 67
     1
  8
0
  0
BLOCK
  8
0
  2
_OPEN
 70
     0
 10
0.0
 20
0.0
 30
0.0
  3
_OPEN
  1

  0
LINE
  5
95C
  8
0
  6
BYBLOCK
 62
     0
 10
-1.0
 20
0.1666666666666666
 30
0.0
 11
0.0
 21
0.0
 31
0.0
  0
LINE
  5
95D
  8
0
  6
BYBLOCK
 62
     0
 10
-1.0
 20
-0.1666666666666666
 30
0.0
 11
0.0
 21
0.0
 31
0.0
  0
LINE
  5
95E
  8
0
  6
BYBLOCK
 62
     0
 10
0.0
 20
0.0
 30
0.0
 11
-1.0
 21
0.0
 31
0.0
  0
ENDBLK
  5
95F
  8
0
  0
BLOCK
  8
0
  2
矢印なし
 70
     0
 10
0.0
 20
0.0
 30
0.0
  3
矢印なし
  1

  0
ENDBLK
  5
6E5
  8
0
  0
BLOCK
  8
0
  2
GENAXEH
 70
     0
 10
0.0
 20
0.0
 30
0.0
  3
GENAXEH
  1

  0
LINE
  5
997
  8
0
 10
-1.0
 20
0.0
 30
0.0
 11
1.0
 21
0.0
 31
0.0
  0
ENDBLK
  5
998
  8
0
  0
BLOCK
  8
0
  2
_ACMFILLEDHALF
 70
     0
 10
0.0
 20
0.0
 30
0.0
  3
_ACMFILLEDHALF
  1

  0
TRACE
  5
C3B
  8
240
 62
     0
 10
-0.8
 20
0.0
 30
0.0
 11
-1.0
 21
0.166666666
 31
0.0
 12
0.0
 22
0.0
 32
0.0
 13
0.0
 23
0.0
 33
0.0
  0
LINE
  5
C3C
  8
240
 62
     0
 10
-1.0
 20
0.0
 30
0.0
 11
-0.8
 21
0.0
 31
0.0
  0
ENDBLK
  5
C3A
  8
0
  0
ENDSEC
  0
SECTION
  2
ENTITIES
  0
INSERT
  5
6E6
  8
245
  2
矢印なし
 10
175.62382697000001
 20
90.551235719999994
 30
0.0
  0
TEXT
  5
818
  8
241
  6
CONTINUOUS
 10
0.0
 20
42.0
 30
0.0
 40
5.0
  1
EB40N
  7
YOKO
 11
0.0
 21
42.0
 31
0.0
 73
     1
  0
LINE
  5
A05
  8
240
  6
CONTINUOUS
 10
3.0
 20
7.0
 30
0.0
 11
10.0
 21
7.0
 31
0.0
  0
LINE
  5
A06
  8
240
  6
CONTINUOUS
 10
3.0
 20
-7.0
 30
0.0
 11
10.0
 21
-7.0
 31
0.0
  0
LINE
  5
A07
  8
245
  6
CENTER2
 10
-1.0
 20
0.0
 30
0.0
 11
24.482324269999999
 21
0.0
 31
0.0
  0
LINE
  5
A08
  8
240
  6
CONTINUOUS
 10
0.0
 20
8.0
 30
0.0
 11
0.0
 21
0.0
 31
0.0
  0
LINE
  5
A09
  8
240
  6
CONTINUOUS
 10
0.0
 20
-8.0
 30
0.0
 11
0.0
 21
0.0
 31
0.0
  0
LINE
  5
A0A
  8
240
  6
CONTINUOUS
 10
0.0
 20
-8.0
 30
0.0
 11
3.0
 21
-8.0
 31
0.0
  0
LINE
  5
A0B
  8
240
  6
CONTINUOUS
 10
3.0
 20
-7.0
 30
0.0
 11
3.0
 21
-8.0
 31
0.0
  0
LINE
  5
A0C
  8
240
  6
CONTINUOUS
 10
0.0
 20
8.0
 30
0.0
 11
3.0
 21
8.0
 31
0.0
  0
LINE
  5
A0D
  8
240
  6
CONTINUOUS
 10
3.0
 20
8.0
 30
0.0
 11
3.0
 21
7.0
 31
0.0
  0
LINE
  5
A0E
  8
240
  6
CONTINUOUS
 10
26.083313
 20
6.2121959999999987
 30
0.0
 11
26.29125221
 21
12.16677743
 31
0.0
  0
ARC
  5
A0F
  8
240
  6
CONTINUOUS
 10
8.4725160000000006
 20
9.9350719999999981
 30
0.0
 40
18.0
 50
274.86798900000002
 51
348.06356199999999
  0
LINE
  5
A10
  8
240
  6
CONTINUOUS
 10
10.0
 20
-7.0
 30
0.0
 11
10.0
 21
-8.0
 31
0.0
  0
ARC
  5
A11
  8
241
  6
CONTINUOUS
 10
22.102779000000002
 20
5.9770830000000004
 30
0.0
 40
7.1102149999999957
 50
179.42305999999999
 51
237.117693
  0
LINE
  5
A12
  8
241
  6
CONTINUOUS
 10
20.035377
 20
16.429635000000001
 30
0.0
 11
25.010726831414409
 21
19.075075137387969
 31
0.0
  0
LINE
  5
A13
  8
240
  6
CONTINUOUS
 10
19.930038
 20
18.361031000000001
 30
0.0
 11
25.010726850000001
 21
19.075075139999999
 31
0.0
  0
LINE
  5
A14
  8
241
  6
CONTINUOUS
 10
26.291252209902989
 20
12.16677742722211
 30
0.0
 11
20.023288000000001
 21
16.083435999999999
 31
0.0
  0
ARC
  5
A15
  8
240
  6
CONTINUOUS
 10
20.625903000000001
 20
13.409689999999999
 30
0.0
 40
5.0
 50
97.999999999999986
 51
165.0
  0
LINE
  5
A16
  8
240
  6
CONTINUOUS
 10
14.992995000000001
 20
11.705905
 30
0.0
 11
15.796274
 21
14.703785999999999
 31
0.0
  0
ARC
  5
A17
  8
240
  6
CONTINUOUS
 10
10.163366
 20
13.0
 30
0.0
 40
5.0
 50
270.0
 51
345.0
  0
LINE
  5
A18
  8
240
  6
CONTINUOUS
 10
10.0
 20
8.0
 30
0.0
 11
10.0
 21
7.0
 31
0.0
  0
LINE
  5
A19
  8
240
  6
CONTINUOUS
 10
10.0
 20
8.0
 30
0.0
 11
10.163366
 21
8.0
 31
0.0
  0
ARC
  5
A1A
  8
241
  6
CONTINUOUS
 10
20.129272
 20
16.253045999999991
 30
0.0
 40
0.2
 50
118.0
 51
237.99999999999989
  0
LINE
  5
A1B
  8
240
  6
CONTINUOUS
 10
26.736328
 20
12.242417
 30
0.0
 11
27.0
 21
19.793019999999999
 31
0.0
  0
ARC
  5
A1C
  8
240
  6
CONTINUOUS
 10
26.536449000000001
 20
12.249397
 30
0.0
 40
0.2
 50
237.99999999999989
 51
358.0
  0
ARC
  5
A1D
  8
240
  6
CONTINUOUS
 10
26.800122000000002
 20
19.800000000000001
 30
0.0
 40
0.2
 50
358.0
 51
118.0
  0
LINE
  5
A1F
  8
250
  6
CONTINUOUS
 10
24.982324269999999
 20
0.0
 30
0.0
 11
38.0
 21
0.0
 31
0.0
  0
LINE
  5
A20
  8
250
  6
CONTINUOUS
 10
27.500122000000001
 20
20.0
 30
0.0
 11
38.0
 21
20.0
 31
0.0
  0
LINE
  5
A21
  8
250
  6
CONTINUOUS
 10
37.0
 20
2.2299999999999991
 30
0.0
 11
37.0
 21
17.77
 31
0.0
  0
LINE
  5
A25
  8
250
  6
CONTINUOUS
 10
0.0
 20
8.5
 30
0.0
 11
0.0
 21
29.0
 31
0.0
  0
LINE
  5
A26
  8
250
  6
CONTINUOUS
 10
27.000122000000001
 20
20.5
 30
0.0
 11
27.000122000000001
 21
29.0
 31
0.0
  0
LINE
  5
A27
  8
250
  6
CONTINUOUS
 10
2.2299999999999991
 20
28.0
 30
0.0
 11
24.770122000000001
 21
28.0
 31
0.0
  0
LINE
  5
A2B
  8
250
  6
CONTINUOUS
 10
-0.5
 20
-8.0
 30
0.0
 11
-10.0
 21
-8.0
 31
0.0
  0
LINE
  5
A2C
  8
250
  6
CONTINUOUS
 10
-0.5
 20
8.0
 30
0.0
 11
-10.0
 21
8.0
 31
0.0
  0
LINE
  5
A2D
  8
250
  6
CONTINUOUS
 10
-9.0
 20
-5.7699999999999987
 30
0.0
 11
-9.0
 21
5.7699999999999987
 31
0.0
  0
TEXT
  5
A31
  8
250
  6
CONTINUOUS
 10
36.0
 20
4.4400000000000004
 30
0.0
 40
2.799999999999998
  1
（20）
 50
90.0
1001
ACAD
1000
MTEXTBEGIN
1070
    73
1070
     1
1070
    44
1040
1.0
1070
    74
1070
     0
1000
MTEXTEND
  0
LINE
  5
A32
  8
250
  6
CONTINUOUS
 10
36.62833333333333
 20
17.77
 30
0.0
 11
37.0
 21
20.0
 31
0.0
  0
LINE
  5
A33
  8
250
  6
CONTINUOUS
 10
37.37166666666667
 20
17.77
 30
0.0
 11
37.0
 21
20.0
 31
0.0
  0
LINE
  5
A34
  8
250
  6
CONTINUOUS
 10
37.0
 20
20.0
 30
0.0
 11
37.0
 21
17.77
 31
0.0
  0
LINE
  5
A35
  8
250
  6
CONTINUOUS
 10
37.37166666666667
 20
2.2299999999999991
 30
0.0
 11
37.0
 21
0.0
 31
0.0
  0
LINE
  5
A36
  8
250
  6
CONTINUOUS
 10
36.62833333333333
 20
2.2299999999999991
 30
0.0
 11
37.0
 21
0.0
 31
0.0
  0
LINE
  5
A37
  8
250
  6
CONTINUOUS
 10
37.0
 20
0.0
 30
0.0
 11
37.0
 21
2.2299999999999991
 31
0.0
  0
TEXT
  5
A38
  8
250
  6
CONTINUOUS
 10
10.833394333333329
 20
29.0
 30
0.0
 40
2.799999999999998
  1
27
1001
ACAD
1000
MTEXTBEGIN
1070
    73
1070
     1
1070
    44
1040
1.0
1070
    74
1070
     0
1000
MTEXTEND
  0
LINE
  5
A39
  8
250
  6
CONTINUOUS
 10
24.770122000000001
 20
28.371666666666659
 30
0.0
 11
27.000122000000001
 21
28.0
 31
0.0
  0
LINE
  5
A3A
  8
250
  6
CONTINUOUS
 10
24.770122000000001
 20
27.62833333333333
 30
0.0
 11
27.000122000000001
 21
28.0
 31
0.0
  0
LINE
  5
A3B
  8
250
  6
CONTINUOUS
 10
27.000122000000001
 20
28.0
 30
0.0
 11
24.770122000000001
 21
28.0
 31
0.0
  0
LINE
  5
A3C
  8
250
  6
CONTINUOUS
 10
2.2299999999999991
 20
27.62833333333333
 30
0.0
 11
0.0
 21
28.0
 31
0.0
  0
LINE
  5
A3D
  8
250
  6
CONTINUOUS
 10
2.2299999999999991
 20
28.371666666666659
 30
0.0
 11
0.0
 21
28.0
 31
0.0
  0
LINE
  5
A3E
  8
250
  6
CONTINUOUS
 10
0.0
 20
28.0
 30
0.0
 11
2.2299999999999991
 21
28.0
 31
0.0
  0
TEXT
  5
A3F
  8
250
  6
CONTINUOUS
 10
-10.0
 20
-3.9333333333333318
 30
0.0
 40
2.799999999999998
  1
\U+220516
 50
90.0
1001
ACAD
1000
MTEXTBEGIN
1070
    73
1070
     1
1070
    44
1040
1.0
1070
    74
1070
     0
1000
MTEXTEND
  0
LINE
  5
A40
  8
250
  6
CONTINUOUS
 10
-9.3716666666666661
 20
5.7699999999999987
 30
0.0
 11
-9.0
 21
8.0
 31
0.0
  0
LINE
  5
A41
  8
250
  6
CONTINUOUS
 10
-8.6283333333333339
 20
5.7699999999999987
 30
0.0
 11
-9.0
 21
8.0
 31
0.0
  0
LINE
  5
A42
  8
250
  6
CONTINUOUS
 10
-9.0
 20
8.0
 30
0.0
 11
-9.0
 21
5.7699999999999987
 31
0.0
  0
LINE
  5
A43
  8
250
  6
CONTINUOUS
 10
-8.6283333333333339
 20
-5.7699999999999987
 30
0.0
 11
-9.0
 21
-8.0
 31
0.0
  0
LINE
  5
A44
  8
250
  6
CONTINUOUS
 10
-9.3716666666666661
 20
-5.7699999999999987
 30
0.0
 11
-9.0
 21
-8.0
 31
0.0
  0
LINE
  5
A45
  8
250
  6
CONTINUOUS
 10
-9.0
 20
-8.0
 30
0.0
 11
-9.0
 21
-5.7699999999999987
 31
0.0
  0
LINE
  5
A86
  8
247
  6
CONTINUOUS
 10
4.25
 20
-4.9999999999999432
 30
0.0
 11
8.8846153843299742
 21
-5.0
 31
0.0
  0
LINE
  5
A87
  8
247
  6
CONTINUOUS
 10
5.0451065000120572
 20
-2.5
 30
0.0
 11
4.4429411899426441
 21
-4.5999999999160082
 31
0.0
  0
LINE
  5
A88
  8
247
  6
CONTINUOUS
 10
5.6748485964809694
 20
-3.496153846113998
 30
0.0
 11
4.7594639811329671
 21
-3.496153846113998
 31
0.0
  0
ARC
  5
A89
  8
247
  6
CONTINUOUS
 10
5.9127365980531987
 20
-2.884719067294101
 30
0.0
 40
0.3876715809326743
 50
342.99788967529201
 51
82.92416621851234
  0
ARC
  5
A8A
  8
247
  6
CONTINUOUS
 10
5.6175224431958952
 20
-2.805223131028014
 30
0.0
 40
0.693304796535877
 50
274.74293685220141
 51
343.84922627326631
1001
GENIUS_GENOBJ-N-FIL_13
1002
{
1000
OWNER
1000
GEN
1002
}
1001
GENIUS_GENODEF_13
1002
{
1000
HIER
1070
     0
1002
}
1002
{
1000
MANEDIT
1070
     0
1002
}
1002
{
1000
NOSEL
1070
     0
1002
}
1002
{
1000
BEHIND
1070
     0
1002
}
1002
{
1000
OTHER
1070
     0
1002
}
1002
{
1000
REACTOR
1002
}
  0
LINE
  5
A8B
  8
247
  6
CONTINUOUS
 10
5.3583258052906437
 20
-4.5999999999160082
 30
0.0
 11
4.4429411899426441
 21
-4.5999999999160082
 31
0.0
  0
LINE
  5
A8C
  8
247
  6
CONTINUOUS
 10
5.0451065000120501
 20
-2.5
 30
0.0
 11
5.960491115360055
 21
-2.5
 31
0.0
  0
ARC
  5
A8D
  8
247
  6
CONTINUOUS
 10
5.6216935237331711
 20
-3.887416962767873
 30
0.0
 40
0.394857301075386
 50
335.99094165252887
 51
82.263443459069549
  0
ARC
  5
A8E
  8
247
  6
CONTINUOUS
 10
5.2875533895730911
 20
-3.8912003273325682
 30
0.0
 40
0.7123241612361686
 50
275.70198516425802
 51
347.27733843682228
1001
GENIUS_GENOBJ-N-FIL_13
1002
{
1000
OWNER
1000
GEN
1002
}
1001
GENIUS_GENODEF_13
1002
{
1000
HIER
1070
     0
1002
}
1002
{
1000
MANEDIT
1070
     0
1002
}
1002
{
1000
NOSEL
1070
     0
1002
}
1002
{
1000
BEHIND
1070
     0
1002
}
1002
{
1000
OTHER
1070
     0
1002
}
1002
{
1000
REACTOR
1002
}
  0
LINE
  5
A8F
  8
247
  6
CONTINUOUS
 10
6.3160181129366322
 20
-4.5999999999160082
 30
0.0
 11
6.9181834230060391
 21
-2.5
 31
0.0
  0
LINE
  5
A90
  8
247
  6
CONTINUOUS
 10
8.4143372690920444
 20
-2.5
 30
0.0
 11
8.0183216356964184
 21
-2.5
 31
0.0
  0
LINE
  5
A91
  8
247
  6
CONTINUOUS
 10
7.3912603460560433
 20
-4.5999999999160082
 30
0.0
 11
7.8220295768080321
 21
-4.5999999999160082
 31
0.0
  0
ARC
  5
A92
  8
247
  6
CONTINUOUS
 10
8.6181834229300431
 20
-3.958299595083361
 30
0.0
 40
1.576855057639547
 50
112.35948814152729
 51
164.993248542846
  0
ARC
  5
A93
  8
247
  6
CONTINUOUS
 10
8.1524886338667812
 20
-3.0658188585381381
 30
0.0
 40
0.6234706797009447
 50
4.9945893190753692
 51
65.166328957303591
1001
GENIUS_GENOBJ-N-FIL_13
1002
{
1000
OWNER
1000
GEN
1002
}
1001
GENIUS_GENODEF_13
1002
{
1000
HIER
1070
     0
1002
}
1002
{
1000
MANEDIT
1070
     0
1002
}
1002
{
1000
NOSEL
1070
     0
1002
}
1002
{
1000
BEHIND
1070
     0
1002
}
1002
{
1000
OTHER
1070
     0
1002
}
1002
{
1000
REACTOR
1002
}
  0
ARC
  5
A94
  8
247
  6
CONTINUOUS
 10
7.5558160489672304
 20
-3.662102121969439
 30
0.0
 40
0.9749472149106983
 50
285.84609655577998
 51
352.32513700416922
  0
ARC
  5
A95
  8
247
  6
CONTINUOUS
 10
7.964788361227785
 20
-3.871470401971068
 30
0.0
 40
0.9271945638692009
 50
159.7136016704971
 51
231.78874565640959
1001
GENIUS_GENOBJ-N-FIL_13
1002
{
1000
OWNER
1000
GEN
1002
}
1001
GENIUS_GENODEF_13
1002
{
1000
HIER
1070
     0
1002
}
1002
{
1000
MANEDIT
1070
     0
1002
}
1002
{
1000
NOSEL
1070
     0
1002
}
1002
{
1000
BEHIND
1070
     0
1002
}
1002
{
1000
OTHER
1070
     0
1002
}
1002
{
1000
REACTOR
1002
}
  0
LINE
  5
A96
  8
247
  6
CONTINUOUS
 10
8.0374141921840412
 20
-3.7923076922559762
 30
0.0
 11
8.5220295767800422
 21
-3.7923076922559762
 31
0.0
  0
ARC
  5
A97
  8
247
  6
CONTINUOUS
 10
4.25
 20
-3.75
 30
0.0
 40
1.25
 50
90.0
 51
270.0
  0
LINE
  5
A98
  8
247
  6
CONTINUOUS
 10
4.25
 20
-2.5
 30
0.0
 11
4.6961538460860037
 21
-2.5
 31
0.0
  0
ARC
  5
A99
  8
247
  6
CONTINUOUS
 10
8.8846153843299902
 20
-3.75
 30
0.0
 40
1.25
 50
270.0
 51
90.0
  0
LINE
  5
C60
  8
240
  6
CONTINUOUS
 10
26.291252209902989
 20
12.166777427222099
 30
0.0
 11
26.43027255704736
 21
12.07990787656748
 31
0.0
  0
LINE
  5
C61
  8
240
  6
CONTINUOUS
 10
25.010726850000001
 20
19.075075139999999
 30
0.0
 11
26.706227639381591
 21
19.976589493017158
 31
0.0
  0
VIEWPORT
  5
22
 67
     1
  8
0
 10
261.51769911999997
 20
148.5
 30
0.0
 40
523.03539823000006
 41
297.0
 68
     1
 69
     1
1001
ACAD
1000
MVIEW
1002
{
1070
    16
1010
0.0
1020
0.0
1030
0.0
1010
0.0
1020
0.0
1030
1.0
1040
0.0
1040
297.0
1040
261.51769911999997
1040
148.5
1040
50.0
1040
0.0
1040
0.0
1070
     0
1070
   100
1070
     1
1070
     1
1070
     0
1070
     0
1070
     0
1070
     0
1040
0.0
1040
0.0
1040
0.0
1040
1.0
1040
1.0
1040
10.0
1040
10.0
1070
     0
1002
{
1002
}
1002
}
1001
GENIUS_GENOBJ-N-SDF_13
1002
{
1000
OWNER
1000
GEN
1002
}
1001
GENIUS_GENODEF_13
1002
{
1000
HIER
1070
     0
1002
}
1002
{
1000
MANEDIT
1070
     0
1002
}
1002
{
1000
NOSEL
1070
     0
1002
}
1002
{
1000
BEHIND
1070
     0
1002
}
1002
{
1000
OTHER
1070
     0
1002
}
1002
{
1000
REACTOR
1002
}
1001
GENIUS_GENSCREG_15
1000
PF
1040
1.0
1000
DF
1040
1.0
1000
MIN
1011
0.0000000049999471
1021
0.0
1031
0.0
1021
0.0
1031
0.0
1000
MAX
1011
523.035398235
1021
0.0
1031
0.0
1021
297.0
1031
0.0
1000
FLAGS
1070
     4
  0
ENDSEC
  0
EOF
