  0
SECTION
  2
HEADER
  9
$ACADVER
  1
AC1009
  9
$INSBASE
 10
0.0
 20
0.0
 30
0.0
  9
$EXTMIN
 10
-4.1858295295436392
 20
-16.758503645852329
 30
-0.0015258207003583
  9
$EXTMAX
 10
22.74433227320128
 20
43.721502461626919
 30
0.0000000349246037
  9
$LIMMIN
 10
0.0
 20
0.0
  9
$LIMMAX
 10
297.0
 20
210.0
  9
$ORTHOMODE
 70
     0
  9
$REGENMODE
 70
     1
  9
$FILLMODE
 70
     1
  9
$QTEXTMODE
 70
     0
  9
$MIRRTEXT
 70
     1
  9
$DRAGMODE
 70
     2
  9
$LTSCALE
 40
10.0
  9
$OSMODE
 70
  3071
  9
$ATTMODE
 70
     1
  9
$TEXTSIZE
 40
3.0
  9
$TRACEWID
 40
1.0
  9
$TEXTSTYLE
  7
YOKO
  9
$CLAYER
  8
240
  9
$CELTYPE
  6
BYLAYER
  9
$CECOLOR
 62
   256
  9
$DIMSCALE
 40
1.0
  9
$DIMASZ
 40
2.2299999999999991
  9
$DIMEXO
 40
0.5
  9
$DIMDLI
 40
7.0
  9
$DIMRND
 40
0.0
  9
$DIMDLE
 40
0.0
  9
$DIMEXE
 40
1.0
  9
$DIMTP
 40
0.0
  9
$DIMTM
 40
0.01
  9
$DIMTXT
 40
2.799999999999998
  9
$DIMCEN
 40
0.0
  9
$DIMTSZ
 40
0.0
  9
$DIMTOL
 70
     0
  9
$DIMLIM
 70
     0
  9
$DIMTIH
 70
     0
  9
$DIMTOH
 70
     0
  9
$DIMSE1
 70
     0
  9
$DIMSE2
 70
     0
  9
$DIMTAD
 70
     3
  9
$DIMZIN
 70
     9
  9
$DIMBLK
  1
OPEN
  9
$DIMASO
 70
     1
  9
$DIMSHO
 70
     1
  9
$DIMPOST
  1

  9
$DIMAPOST
  1

  9
$DIMALT
 70
     0
  9
$DIMALTD
 70
     2
  9
$DIMALTF
 40
25.399999999999999
  9
$DIMLFAC
 40
1.0
  9
$DIMTOFL
 70
     1
  9
$DIMTVP
 40
0.0
  9
$DIMTIX
 70
     1
  9
$DIMSOXD
 70
     0
  9
$DIMSAH
 70
     0
  9
$DIMBLK1
  1

  9
$DIMBLK2
  1

  9
$DIMSTYLE
  2
BIGT
  9
$DIMCLRD
 70
   256
  9
$DIMCLRE
 70
   256
  9
$DIMCLRT
 70
    40
  9
$DIMTFAC
 40
1.0
  9
$DIMGAP
 40
1.0
  9
$LUNITS
 70
     2
  9
$LUPREC
 70
     3
  9
$SKETCHINC
 40
1.0
  9
$FILLETRAD
 40
0.0
  9
$AUNITS
 70
     0
  9
$AUPREC
 70
     3
  9
$MENU
  1
.
  9
$ELEVATION
 40
0.0
  9
$PELEVATION
 40
0.0
  9
$THICKNESS
 40
0.0
  9
$LIMCHECK
 70
     0
  9
$BLIPMODE
 70
     0
  9
$CHAMFERA
 40
0.25
  9
$CHAMFERB
 40
0.25
  9
$SKPOLY
 70
     0
  9
$TDCREATE
 40
2456568.5927196648
  9
$TDUPDATE
 40
2457361.7220448842
  9
$TDINDWG
 40
0.0246276852
  9
$TDUSRTIMER
 40
0.0246274769
  9
$USRTIMER
 70
     1
  9
$ANGBASE
 50
0.0
  9
$ANGDIR
 70
     0
  9
$PDMODE
 70
     1
  9
$PDSIZE
 40
0.0
  9
$PLINEWID
 40
0.0
  9
$COORDS
 70
     1
  9
$SPLFRAME
 70
     0
  9
$SPLINETYPE
 70
     6
  9
$SPLINESEGS
 70
     4
  9
$ATTDIA
 70
     1
  9
$ATTREQ
 70
     1
  9
$HANDLING
 70
     1
  9
$HANDSEED
  5
1D7B
  9
$SURFTAB1
 70
     6
  9
$SURFTAB2
 70
     6
  9
$SURFTYPE
 70
     6
  9
$SURFU
 70
     6
  9
$SURFV
 70
     6
  9
$UCSNAME
  2

  9
$UCSORG
 10
0.0
 20
0.0
 30
0.0
  9
$UCSXDIR
 10
1.0
 20
0.0
 30
0.0
  9
$UCSYDIR
 10
0.0
 20
1.0
 30
0.0
  9
$PUCSNAME
  2

  9
$PUCSORG
 10
0.0
 20
0.0
 30
0.0
  9
$PUCSXDIR
 10
1.0
 20
0.0
 30
0.0
  9
$PUCSYDIR
 10
0.0
 20
1.0
 30
0.0
  9
$USERI1
 70
     1
  9
$USERI2
 70
     0
  9
$USERI3
 70
     0
  9
$USERI4
 70
     0
  9
$USERI5
 70
     0
  9
$USERR1
 40
0.0
  9
$USERR2
 40
0.0
  9
$USERR3
 40
0.0
  9
$USERR4
 40
0.0
  9
$USERR5
 40
0.0
  9
$WORLDVIEW
 70
     1
  9
$SHADEDGE
 70
     3
  9
$SHADEDIF
 70
    70
  9
$TILEMODE
 70
     1
  9
$MAXACTVP
 70
    16
  9
$PLIMCHECK
 70
     0
  9
$PEXTMIN
 10
1.0000000000000000E+020
 20
1.0000000000000000E+020
 30
1.0000000000000000E+020
  9
$PEXTMAX
 10
-1.0000000000000000E+020
 20
-1.0000000000000000E+020
 30
-1.0000000000000000E+020
  9
$PLIMMIN
 10
0.0
 20
0.0
  9
$PLIMMAX
 10
420.0
 20
297.0
  9
$UNITMODE
 70
     0
  9
$VISRETAIN
 70
     1
  9
$PLINEGEN
 70
     0
  9
$PSLTSCALE
 70
     1
  0
ENDSEC
  0
SECTION
  2
TABLES
  0
TABLE
  2
VPORT
 70
     1
  0
VPORT
  2
*ACTIVE
 70
     0
 10
0.0
 20
0.0
 11
1.0
 21
1.0
 12
9.2792513718288205
 22
13.4814994078873
 13
0.0
 23
0.0
 14
7.0
 24
7.0
 15
7.0
 25
7.0
 16
0.0
 26
0.0
 36
1.0
 17
0.0
 27
0.0
 37
0.0
 40
60.883206148195782
 41
1.5417130144605109
 42
50.0
 43
0.0
 44
0.0
 50
0.0
 51
0.0
 71
     0
 72
  2000
 73
     1
 74
     0
 75
     0
 76
     1
 77
     0
 78
     0
  0
ENDTAB
  0
TABLE
  2
LTYPE
 70
    17
  0
LTYPE
  2
CONTINUOUS
 70
     0
  3
Solid line
 72
    65
 73
     0
 40
0.0
  0
LTYPE
  2
CENTER2
 70
     0
  3
___ _ ___ _ ___ _ ___ _ ___ _ ___ _ ___ _ ___ _
 72
    65
 73
     4
 40
1.125
 49
0.75
 49
-0.125
 49
0.125
 49
-0.125
  0
LTYPE
  2
HIDDEN2
 70
     0
  3
_ _ _ _ _ _ _ _ _ _ _ _ _ _ _ _ _ _ _ _ _ _ _ _
 72
    65
 73
     2
 40
0.1875
 49
0.125
 49
-0.0625
  0
LTYPE
  2
PHANTOM2
 70
     0
  3
___ _ _ ___ _ _ ___ _ _ ___ _ _ ___ _ _ ___ _ _
 72
    65
 73
     6
 40
1.25
 49
0.625
 49
-0.125
 49
0.125
 49
-0.125
 49
0.125
 49
-0.125
  0
LTYPE
  2
CENTER
 70
     0
  3
____ _ ____ _ ____ _ ____ _ ____ _ ____ _ ____ 
 72
    65
 73
     4
 40
2.0
 49
1.25
 49
-0.25
 49
0.25
 49
-0.25
  0
LTYPE
  2
AMCONSTR
 70
     0
  3
_______________________
 72
    65
 73
     2
 40
9999.0
 49
9999.0
 49
0.0
  0
LTYPE
  2
HIDDEN
 70
     0
  3
Hidden __ __ __ __ __ __ __ __ __ __ __ __ __ _
 72
    65
 73
     2
 40
9.5249999999999986
 49
6.349999999999997
 49
-3.174999999999998
  0
LTYPE
  2
AMZIGZAG2
 70
     0
  3
/\/-/\/-/\/-/\/-/\/-/\/
 72
    65
 73
     2
 40
0.4401
 49
0.0001
 49
-0.4400000000000002
  0
LTYPE
  2
ACANSTGB
 70
     0
  3
__ . . __ . .
 72
    65
 73
     6
 40
0.35433070866
 49
0.15748031496
 49
-0.03937007874
 49
0.03937007874
 49
-0.03937007874
 49
0.03937007874
 49
-0.03937007874
  0
LTYPE
  2
ACANSTGL
 70
     0
  3
_ _ _ _ _
 72
    65
 73
     2
 40
0.11811023622
 49
0.07874015748
 49
-0.03937007874
  0
ENDTAB
  0
TABLE
  2
LAYER
 70
    10
  0
LAYER
  2
0
 70
     0
 62
     7
  6
CONTINUOUS
  0
LAYER
  2
240
 70
     0
 62
     4
  6
CONTINUOUS
  0
LAYER
  2
DEFPOINTS
 70
     0
 62
     7
  6
CONTINUOUS
  0
LAYER
  2
245
 70
     0
 62
     2
  6
CENTER2
  0
LAYER
  2
241
 70
     0
 62
   211
  6
CONTINUOUS
  0
LAYER
  2
243
 70
     0
 62
   211
  6
HIDDEN2
  0
LAYER
  2
250
 70
     0
 62
     3
  6
CONTINUOUS
  0
LAYER
  2
247
 70
     0
 62
    60
  6
CONTINUOUS
  0
ENDTAB
  0
TABLE
  2
STYLE
 70
     7
  0
STYLE
  2
STANDARD
 70
     0
 40
0.0
 41
1.0
 50
0.0
 71
     0
 42
3.0
  3
romans.shx
  4
extfont.shx
  0
STYLE
  2
YOKO
 70
     0
 40
0.0
 41
1.0
 50
0.0
 71
     0
 42
3.0
  3
romans.shx
  4
extfont.shx
  0
STYLE
  2
ACANSGDT
 70
     0
 40
0.0
 41
1.0
 50
0.0
 71
     0
 42
3.0
  3
amgdt.shx
  4

  0
ENDTAB
  0
TABLE
  2
VIEW
 70
     0
  0
ENDTAB
  0
TABLE
  2
UCS
 70
     0
  0
ENDTAB
  0
TABLE
  2
APPID
 70
    37
  0
APPID
  2
ACAD
 70
     0
  0
APPID
  2
ACADANNOTATIVE
 70
     0
  0
APPID
  2
GLOBAL
 70
     0
  0
APPID
  2
DETAIL
 70
     0
  0
APPID
  2
GRPNAME
 70
     0
  0
APPID
  2
GPARA
 70
     0
  0
APPID
  2
MCAD_NO_VIS
 70
     0
  0
APPID
  2
ACAD_TEMP_GRAPHIC
 70
     0
  0
APPID
  2
ACATTRIBSERVICES
 70
     0
  0
APPID
  2
GENIUS_GENSCREG_15
 70
     0
  0
APPID
  2
GENIUS_GENODEF_13
 70
     0
  0
APPID
  2
GENIUS_GENOBJ-N-SDF_13
 70
     0
  0
APPID
  2
GENIUS_GENREC_14
 70
     0
  0
APPID
  2
GENIUS_GENOBJ-N-REC_13
 70
     0
  0
APPID
  2
GENIUS_GENDIMSH_14
 70
     0
  0
APPID
  2
GENIUS_GENOBJ-N-DIM_13
 70
     0
  0
APPID
  2
GENIUS_GENDIM_13
 70
     0
  0
APPID
  2
GENIUS_GENDTOL_13
 70
     0
  0
APPID
  2
GENIUS_GENOLIS_13
 70
     0
  0
APPID
  2
GENIUS_GENOENT_13
 70
     0
  0
APPID
  2
GENIUS_GENOBJ-F-FEM_13
 70
     0
  0
APPID
  2
GENIUS_GENOREF_13
 70
     0
  0
APPID
  2
GENIUS_GEFFEM_13
 70
     0
  0
APPID
  2
GENIUS_GEFFEMP_13
 70
     0
  0
APPID
  2
AD_DRAW
 70
     0
  0
APPID
  2
DESIGNERASSEMBLIES
 70
     0
  0
APPID
  2
ACADM_DIM_EDIT
 70
     0
  0
APPID
  2
AMDT_DM_ADJ
 70
     0
  0
APPID
  2
ACAD_DSTYLE_DIMBREAK
 70
     0
  0
APPID
  2
ACAD_DSTYLE_DIMJAG
 70
     0
  0
APPID
  2
ACAD_NAV_VCDISPLAY
 70
     0
  0
APPID
  2
ACAD_EXEMPT_FROM_CAD_STANDARDS
 70
     0
  0
APPID
  2
ITEMNAME
 70
     0
  0
APPID
  2
GENIUS_GENOBJ-N-FIL_13
 70
     0
  0
APPID
  2
GENIUS_GENFIL_13
 70
     0
  0
APPID
  2
GENIUS_GENOBJ-N-CHA_13
 70
     0
  0
APPID
  2
ACAD_MLEADERVER
 70
     0
  0
ENDTAB
  0
TABLE
  2
DIMSTYLE
 70
    10
  0
DIMSTYLE
  2
STANDARD
 70
     0
  3

  4

  5

  6

  7

 40
1.0
 41
0.18
 42
0.0625
 43
0.38
 44
0.18
 45
0.0
 46
0.0
 47
0.0
 48
0.0
140
0.18
141
0.09
142
0.0
143
25.399999999999999
144
1.0
145
0.0
146
1.0
147
0.09
 71
     0
 72
     0
 73
     1
 74
     1
 75
     0
 76
     0
 77
     0
 78
     0
170
     0
171
     2
172
     0
173
     0
174
     0
175
     0
176
     0
177
     0
178
     0
  0
DIMSTYLE
  2
BIGT
 70
     0
  3

  4

  5

  6

  7

 40
1.0
 41
2.2299999999999991
 42
0.5
 43
7.0
 44
1.0
 45
0.0
 46
0.0
 47
0.0
 48
0.01
140
2.799999999999998
141
0.0
142
0.0
143
25.399999999999999
144
1.0
145
0.0
146
1.0
147
1.0
 71
     0
 72
     0
 73
     0
 74
     0
 75
     0
 76
     0
 77
     3
 78
     9
170
     0
171
     2
172
     1
173
     0
174
     1
175
     0
176
   256
177
   256
178
    40
  0
DIMSTYLE
  2
AM_ANSI
 70
     0
  3

  4
mm
  5

  6

  7

 40
1.0
 41
0.1
 42
0.05
 43
0.5
 44
0.1
 45
0.0
 46
0.0
 47
0.1
 48
0.1
140
0.12
141
0.0
142
0.0
143
25.399999999999999
144
1.0
145
0.0
146
0.71
147
0.06
 71
     0
 72
     0
 73
     1
 74
     1
 75
     0
 76
     0
 77
     0
 78
     7
170
     0
171
     2
172
     0
173
     0
174
     0
175
     0
176
   256
177
   256
178
     2
  0
DIMSTYLE
  2
AM_ANSI$3
 70
     0
  3

  4
mm
  5

  6

  7

 40
1.0
 41
0.1
 42
0.05
 43
0.5
 44
0.1
 45
0.0
 46
0.0
 47
0.1
 48
0.1
140
0.12
141
0.0
142
0.0
143
25.399999999999999
144
1.0
145
0.0
146
0.71
147
0.06
 71
     0
 72
     0
 73
     1
 74
     1
 75
     0
 76
     0
 77
     0
 78
     7
170
     0
171
     2
172
     0
173
     0
174
     0
175
     0
176
   256
177
   256
178
     2
  0
DIMSTYLE
  2
AM_ANSI$4
 70
     0
  3

  4
mm
  5

  6

  7

 40
1.0
 41
0.1
 42
0.05
 43
0.5
 44
0.1
 45
0.0
 46
0.0
 47
0.1
 48
0.1
140
0.12
141
0.0
142
0.0
143
25.399999999999999
144
1.0
145
0.0
146
0.71
147
0.06
 71
     0
 72
     0
 73
     1
 74
     1
 75
     0
 76
     0
 77
     0
 78
     7
170
     0
171
     2
172
     0
173
     0
174
     0
175
     0
176
   256
177
   256
178
     2
  0
DIMSTYLE
  2
AM_ANSI$7
 70
     0
  3

  4
mm
  5

  6

  7

 40
1.0
 41
0.1
 42
0.05
 43
0.5
 44
0.1
 45
0.0
 46
0.0
 47
0.1
 48
0.1
140
0.24
141
0.0
142
0.0
143
25.399999999999999
144
1.0
145
0.0
146
0.71
147
0.06
 71
     0
 72
     0
 73
     1
 74
     1
 75
     0
 76
     0
 77
     0
 78
     7
170
     0
171
     2
172
     0
173
     0
174
     0
175
     0
176
   256
177
   256
178
     2
  0
DIMSTYLE
  2
AM_ANSI$SF
 70
     0
  3

  4
mm
  5

  6

  7

 40
1.0
 41
0.1
 42
0.05
 43
0.5
 44
0.1
 45
0.0
 46
0.0
 47
0.1
 48
0.1
140
0.12
141
0.0
142
0.0
143
25.399999999999999
144
1.0
145
0.0
146
0.71
147
0.06
 71
     0
 72
     0
 73
     1
 74
     1
 75
     1
 76
     1
 77
     0
 78
     7
170
     0
171
     2
172
     0
173
     0
174
     0
175
     0
176
   256
177
   256
178
     2
  0
DIMSTYLE
  2
AM_ANSI$SH
 70
     0
  3

  4
mm
  5

  6

  7

 40
1.0
 41
0.1
 42
0.05
 43
0.5
 44
0.1
 45
0.0
 46
0.0
 47
0.1
 48
0.1
140
0.12
141
0.0
142
0.0
143
25.399999999999999
144
1.0
145
0.0
146
0.71
147
0.06
 71
     0
 72
     0
 73
     1
 74
     1
 75
     1
 76
     1
 77
     0
 78
     7
170
     0
171
     2
172
     0
173
     1
174
     0
175
     0
176
   256
177
   256
178
     2
  0
ENDTAB
  0
ENDSEC
  0
SECTION
  2
BLOCKS
  0
BLOCK
  8
0
  2
$MODEL_SPACE
 70
     0
 10
0.0
 20
0.0
 30
0.0
  3
$MODEL_SPACE
  1

  0
ENDBLK
  5
1C1E
  8
0
  0
BLOCK
 67
     1
  8
0
  2
$PAPER_SPACE
 70
     0
 10
0.0
 20
0.0
 30
0.0
  3
$PAPER_SPACE
  1

  0
ENDBLK
  5
1C1A
 67
     1
  8
0
  0
BLOCK
  8
0
  2
_OPEN
 70
     0
 10
0.0
 20
0.0
 30
0.0
  3
_OPEN
  1

  0
LINE
  5
19A6
  8
0
  6
BYBLOCK
 62
     0
 10
-1.0
 20
0.1666666666666666
 30
0.0
 11
0.0
 21
0.0
 31
0.0
  0
LINE
  5
19A7
  8
0
  6
BYBLOCK
 62
     0
 10
-1.0
 20
-0.1666666666666666
 30
0.0
 11
0.0
 21
0.0
 31
0.0
  0
LINE
  5
19A8
  8
0
  6
BYBLOCK
 62
     0
 10
0.0
 20
0.0
 30
0.0
 11
-1.0
 21
0.0
 31
0.0
  0
ENDBLK
  5
19A9
  8
0
  0
BLOCK
  8
0
  2
_ACMFILLEDHALF
 70
     0
 10
0.0
 20
0.0
 30
0.0
  3
_ACMFILLEDHALF
  1

  0
TRACE
  5
1CB8
  8
240
 62
     0
 10
-0.8
 20
0.0
 30
0.0
 11
-1.0
 21
0.166666666
 31
0.0
 12
0.0
 22
0.0
 32
0.0
 13
0.0
 23
0.0
 33
0.0
  0
LINE
  5
1CB9
  8
240
 62
     0
 10
-1.0
 20
0.0
 30
0.0
 11
-0.8
 21
0.0
 31
0.0
  0
ENDBLK
  5
1CB7
  8
0
  0
ENDSEC
  0
SECTION
  2
ENTITIES
  0
LINE
  5
1582
  8
240
  6
CONTINUOUS
 10
0.6672450087918067
 20
-16.751584264603729
 30
0.0
 11
-4.176639049152846
 21
-16.751584264603729
 31
0.0
  0
LINE
  5
15A3
  8
241
  6
CONTINUOUS
 10
3.9265210432504221
 20
15.748415735396261
 30
0.0
 11
11.229373566718429
 21
15.748415735396261
 31
0.0
  0
LINE
  5
15A4
  8
241
  6
CONTINUOUS
 10
-3.007063333978913
 20
-12.06067228585794
 30
0.0
 11
4.4835632326924637
 21
-12.06067228585794
 31
0.0
  0
LINE
  5
15A6
  8
241
  6
CONTINUOUS
 10
4.528624292977331
 20
-12.026109414401329
 30
0.0
 11
9.6596163858598683
 21
8.5531758418554791
 31
0.0
  0
LINE
  5
15A7
  8
241
  6
CONTINUOUS
 10
9.6596163858598683
 20
8.5531758418554791
 30
0.0
 11
2.132546250616377
 21
8.5531758418554791
 31
0.0
  0
LINE
  5
15AC
  8
240
  6
CONTINUOUS
 10
19.942033198557532
 20
21.918816993666919
 30
0.0
 11
5.4649748657160719
 21
21.918816993666919
 31
0.0
  0
LINE
  5
15AF
  8
240
  6
CONTINUOUS
 10
4.4835632326924637
 20
-15.938117744076971
 30
0.0
 11
0.8700649917345285
 21
-15.938117744076971
 31
0.0
  0
LINE
  5
15B0
  8
241
  6
CONTINUOUS
 10
4.4835632326924637
 20
-12.06067228585794
 30
0.0
 11
4.4835632326924637
 21
-15.938117744076971
 31
0.0
  0
ARC
  5
15B8
  8
240
  6
CONTINUOUS
 10
-434.73369348968311
 20
712.32483313077535
 30
0.0
 40
850.45794970690781
 50
301.09428655115568
 51
301.27217997471922
  0
LINE
  5
15BA
  8
241
  6
CONTINUOUS
 10
20.157877053362039
 20
8.6650728390063705
 30
0.0
 11
16.307527825008549
 21
10.9968319298377
 31
0.0
  0
LINE
  5
15F5
  8
240
  6
CONTINUOUS
 10
20.704998544647541
 20
9.6127150598256836
 30
0.0
 11
6.7425721171223412
 21
-14.57091710266223
 31
0.0
  0
LINE
  5
1630
  8
243
  6
HIDDEN2
 10
1.536366218501489
 20
-13.26572948776839
 30
0.0
 11
-3.0240236949958081
 21
-12.12869657844996
 31
0.0
  0
LINE
  5
1664
  8
240
  6
CONTINUOUS
 10
-4.176639049152846
 20
-16.751584264603729
 30
0.0
 11
5.4649748657160728
 21
21.918816993666919
 31
0.0
  0
LINE
  5
1666
  8
243
  6
HIDDEN2
 10
0.8700649917345285
 20
-15.938117744076971
 30
0.0
 11
8.1677991973373683
 21
13.33149546576821
 31
0.0
  0
LINE
  5
1667
  8
243
  6
HIDDEN2
 10
16.900460733821379
 20
11.154198405371259
 30
0.0
 11
13.33218556136636
 21
-3.1573716219208161
 31
0.0
  0
LINE
  5
1685
  8
243
  6
HIDDEN2
 10
7.5844136084930414
 20
10.99166366913154
 30
0.0
 11
3.02402366355519
 21
12.12869658628899
 31
0.0
  0
LINE
  5
1686
  8
243
  6
HIDDEN2
 10
16.900460733821379
 20
11.154198405371259
 30
0.0
 11
8.1677991973373683
 21
13.33149546576821
 31
0.0
  0
LINE
  5
1687
  8
243
  6
HIDDEN2
 10
19.963937965856651
 20
8.3291604858734463
 30
0.0
 11
16.416616942439141
 21
9.2136069520856836
 31
0.0
  0
TEXT
  5
168A
  8
241
  6
CONTINUOUS
 10
5.4207578552168387
 20
40.70884354480021
 30
0.0
 40
3.0
  1
EB40AJ
  7
YOKO
  0
LINE
  5
16C5
  8
241
  6
CONTINUOUS
 10
11.229373566718429
 20
15.748415735396261
 30
0.0
 11
16.307527825008549
 21
10.9968319298377
 31
0.0
  0
LINE
  5
16C6
  8
241
  6
CONTINUOUS
 10
16.307527825008549
 20
10.9968319298377
 30
0.0
 11
9.6596163858598683
 21
8.5531758418554489
 31
0.0
  0
LINE
  5
16CF
  8
240
  6
CONTINUOUS
 10
0.6672450087918067
 20
-16.751584264603729
 30
0.0
 11
0.8700649917345285
 21
-15.938117744076971
 31
0.0
  0
LINE
  5
16DB
  8
240
  6
CONTINUOUS
 10
20.704998544647541
 20
9.6127150598256872
 30
0.0
 11
20.833187366528811
 21
11.938658150452961
 31
0.0
  0
LINE
  5
1769
  8
240
  6
CONTINUOUS
 10
19.942033198557532
 20
21.918816993666919
 30
0.0
 11
20.054912258821972
 21
21.773222380504802
 31
0.0
  0
LINE
  5
17AE
  8
245
  6
CENTER2
 10
4.5603899134972972
 20
-1.137032909318425
 30
0.0
 11
-2.439227024406017
 21
0.6081676024762448
 31
0.0
  0
LINE
  5
1800
  8
241
  6
CONTINUOUS
 10
20.74580640112789
 20
10.353159900731541
 30
0.0
 11
11.75814075207801
 21
15.796061268794301
 31
0.0
  0
LINE
  5
1801
  8
241
  6
CONTINUOUS
 10
11.229373566718429
 20
15.748415735396261
 30
0.0
 11
11.75814075207801
 21
15.796061268794301
 31
0.0
  0
LINE
  5
181B
  8
245
  6
CENTER2
 10
0.0
 20
0.0
 30
0.0
 11
22.733181025338929
 21
0.0
 31
0.0
  0
LINE
  5
181C
  8
250
  6
CONTINUOUS
 10
21.483563237025962
 20
22.348415737493351
 30
0.0
 11
21.483563237025962
 21
30.684586737459242
 31
0.0
  0
LINE
  5
181D
  8
250
  6
CONTINUOUS
 10
5.4649748657160728
 20
22.41881699366693
 30
0.0
 11
5.4649748657160764
 21
30.684586737459242
 31
0.0
  0
LINE
  5
181E
  8
250
  6
CONTINUOUS
 10
19.253563237025961
 20
29.684586737459249
 30
0.0
 11
7.6949748657160759
 21
29.684586737459249
 31
0.0
  0
TEXT
  5
1822
  8
250
  6
CONTINUOUS
 10
8.9409357180376858
 20
31.884586737459252
 30
0.0
 40
2.799999999999998
  1
(16)
  0
LINE
  5
1823
  8
250
  6
CONTINUOUS
 10
7.6949748657160759
 20
29.312920070792579
 30
0.0
 11
5.4649748657160764
 21
29.684586737459249
 31
0.0
  0
LINE
  5
1824
  8
250
  6
CONTINUOUS
 10
7.6949748657160759
 20
30.056253404125911
 30
0.0
 11
5.4649748657160764
 21
29.684586737459249
 31
0.0
  0
LINE
  5
1825
  8
250
  6
CONTINUOUS
 10
5.4649748657160764
 20
29.684586737459249
 30
0.0
 11
7.6949748657160759
 21
29.684586737459249
 31
0.0
  0
LINE
  5
1826
  8
250
  6
CONTINUOUS
 10
19.253563237025961
 20
30.056253404125911
 30
0.0
 11
21.483563237025962
 21
29.684586737459249
 31
0.0
  0
LINE
  5
1827
  8
250
  6
CONTINUOUS
 10
19.253563237025961
 20
29.312920070792579
 30
0.0
 11
21.483563237025962
 21
29.684586737459249
 31
0.0
  0
LINE
  5
1828
  8
250
  6
CONTINUOUS
 10
21.483563237025962
 20
29.684586737459249
 30
0.0
 11
19.253563237025961
 21
29.684586737459249
 31
0.0
  0
LINE
  5
1CD7
  8
240
  6
CONTINUOUS
 10
20.901967037130159
 20
22.20481834716869
 30
0.0
 11
20.054912258821961
 21
21.773222380504809
 31
0.0
  0
ARC
  5
1CD8
  8
241
  6
CONTINUOUS
 10
12.51842267480469
 20
17.484258642544582
 30
0.0
 40
0.4000000000000041
 50
117.0000000000004
 51
237.00000000000031
  0
LINE
  5
1CD9
  8
241
  6
CONTINUOUS
 10
12.300567060798681
 20
17.14879041536641
 30
0.0
 11
20.362608252240989
 21
11.913239648972599
 31
0.0
  0
ARC
  5
1CDA
  8
240
  6
CONTINUOUS
 10
20.580463866246969
 20
12.24870787615075
 30
0.0
 40
0.3999999999999754
 50
309.18369530904118
 51
357.0000000000029
  0
LINE
  5
1CDB
  8
240
  6
CONTINUOUS
 10
20.979915680148778
 20
12.227773493653601
 30
0.0
 11
21.48301505092779
 21
21.827481354996181
 31
0.0
  0
ARC
  5
1CDC
  8
240
  6
CONTINUOUS
 10
21.08356323702597
 20
21.848415737493362
 30
0.0
 40
0.3999999999999868
 50
356.99999999999937
 51
117.0
  0
LINE
  5
1CE6
  8
241
  6
CONTINUOUS
 10
4.4835632326894901
 20
-12.060672285860189
 30
0.0
 11
10.08411905516823
 21
-8.7831879838837672
 31
0.0
  0
LINE
  5
1CE7
  8
241
  6
CONTINUOUS
 10
12.33682647490887
 20
17.840661252219931
 30
0.0
 11
20.05491225882195
 21
21.773222380504841
 31
0.0
  0
ARC
  5
1CE8
  8
241
  6
CONTINUOUS
 10
20.580463866246969
 20
12.24870787615075
 30
0.0
 40
0.3999999999999763
 50
236.9999999999998
 51
309.18369530904113
  0
LINE
  5
1D07
  8
247
  6
CONTINUOUS
 10
6.7149748657160728
 20
18.418816993666969
 30
0.0
 11
11.349590250046051
 21
18.418816993666908
 31
0.0
  0
LINE
  5
1D08
  8
247
  6
CONTINUOUS
 10
7.5100813657281327
 20
20.918816993666908
 30
0.0
 11
6.9079160556587169
 21
18.818816993750911
 31
0.0
  0
LINE
  5
1D09
  8
247
  6
CONTINUOUS
 10
8.1398234621970431
 20
19.922663147552921
 30
0.0
 11
7.2244388468490399
 21
19.922663147552921
 31
0.0
  0
ARC
  5
1D0A
  8
247
  6
CONTINUOUS
 10
8.3777114637692733
 20
20.534097926372819
 30
0.0
 40
0.3876715809326743
 50
342.99788967529201
 51
82.924166218512326
  0
ARC
  5
1D0B
  8
247
  6
CONTINUOUS
 10
8.082497308911968
 20
20.613593862638901
 30
0.0
 40
0.6933047965358768
 50
274.74293685220141
 51
343.84922627326642
1001
GENIUS_GENOBJ-N-FIL_13
1002
{
1000
OWNER
1000
GEN
1002
}
1001
GENIUS_GENODEF_13
1002
{
1000
HIER
1070
     0
1002
}
1002
{
1000
MANEDIT
1070
     0
1002
}
1002
{
1000
NOSEL
1070
     0
1002
}
1002
{
1000
BEHIND
1070
     0
1002
}
1002
{
1000
OTHER
1070
     0
1002
}
1002
{
1000
REACTOR
1002
}
  0
LINE
  5
1D0C
  8
247
  6
CONTINUOUS
 10
7.8233006710067192
 20
18.818816993750911
 30
0.0
 11
6.9079160556587169
 21
18.818816993750911
 31
0.0
  0
LINE
  5
1D0D
  8
247
  6
CONTINUOUS
 10
7.5100813657281247
 20
20.918816993666908
 30
0.0
 11
8.4254659810761297
 21
20.918816993666908
 31
0.0
  0
ARC
  5
1D0E
  8
247
  6
CONTINUOUS
 10
8.0866683894492422
 20
19.531400030899039
 30
0.0
 40
0.394857301075386
 50
335.99094165252882
 51
82.263443459069507
  0
ARC
  5
1D0F
  8
247
  6
CONTINUOUS
 10
7.7525282552891639
 20
19.527616666334339
 30
0.0
 40
0.7123241612361686
 50
275.70198516425808
 51
347.27733843682228
1001
GENIUS_GENOBJ-N-FIL_13
1002
{
1000
OWNER
1000
GEN
1002
}
1001
GENIUS_GENODEF_13
1002
{
1000
HIER
1070
     0
1002
}
1002
{
1000
MANEDIT
1070
     0
1002
}
1002
{
1000
NOSEL
1070
     0
1002
}
1002
{
1000
BEHIND
1070
     0
1002
}
1002
{
1000
OTHER
1070
     0
1002
}
1002
{
1000
REACTOR
1002
}
  0
LINE
  5
1D10
  8
247
  6
CONTINUOUS
 10
8.780992978652705
 20
18.818816993750911
 30
0.0
 11
9.3831582887221145
 21
20.918816993666908
 31
0.0
  0
LINE
  5
1D11
  8
247
  6
CONTINUOUS
 10
10.87931213480811
 20
20.918816993666908
 30
0.0
 11
10.4832965014125
 21
20.918816993666908
 31
0.0
  0
LINE
  5
1D12
  8
247
  6
CONTINUOUS
 10
9.8562352117721161
 20
18.818816993750911
 30
0.0
 11
10.287004442524109
 21
18.818816993750911
 31
0.0
  0
ARC
  5
1D13
  8
247
  6
CONTINUOUS
 10
11.083158288646111
 20
19.460517398583551
 30
0.0
 40
1.576855057639547
 50
112.35948814152719
 51
164.99324854284589
  0
ARC
  5
1D14
  8
247
  6
CONTINUOUS
 10
10.617463499582851
 20
20.352998135128779
 30
0.0
 40
0.6234706797009447
 50
4.9945893190753701
 51
65.166328957303548
1001
GENIUS_GENOBJ-N-FIL_13
1002
{
1000
OWNER
1000
GEN
1002
}
1001
GENIUS_GENODEF_13
1002
{
1000
HIER
1070
     0
1002
}
1002
{
1000
MANEDIT
1070
     0
1002
}
1002
{
1000
NOSEL
1070
     0
1002
}
1002
{
1000
BEHIND
1070
     0
1002
}
1002
{
1000
OTHER
1070
     0
1002
}
1002
{
1000
REACTOR
1002
}
  0
ARC
  5
1D15
  8
247
  6
CONTINUOUS
 10
10.0207909146833
 20
19.756714871697469
 30
0.0
 40
0.9749472149106983
 50
285.84609655577998
 51
352.32513700416911
  0
ARC
  5
1D16
  8
247
  6
CONTINUOUS
 10
10.42976322694386
 20
19.547346591695849
 30
0.0
 40
0.9271945638692009
 50
159.71360167049701
 51
231.78874565640959
1001
GENIUS_GENOBJ-N-FIL_13
1002
{
1000
OWNER
1000
GEN
1002
}
1001
GENIUS_GENODEF_13
1002
{
1000
HIER
1070
     0
1002
}
1002
{
1000
MANEDIT
1070
     0
1002
}
1002
{
1000
NOSEL
1070
     0
1002
}
1002
{
1000
BEHIND
1070
     0
1002
}
1002
{
1000
OTHER
1070
     0
1002
}
1002
{
1000
REACTOR
1002
}
  0
LINE
  5
1D17
  8
247
  6
CONTINUOUS
 10
10.502389057900119
 20
19.626509301410941
 30
0.0
 11
10.98700444249611
 21
19.626509301410941
 31
0.0
  0
ARC
  5
1D18
  8
247
  6
CONTINUOUS
 10
6.7149748657160728
 20
19.668816993666908
 30
0.0
 40
1.25
 50
90.0
 51
270.0
  0
LINE
  5
1D19
  8
247
  6
CONTINUOUS
 10
6.7149748657160728
 20
20.918816993666908
 30
0.0
 11
7.1611287118020792
 21
20.918816993666908
 31
0.0
  0
ARC
  5
1D1A
  8
247
  6
CONTINUOUS
 10
11.349590250046059
 20
19.668816993666908
 30
0.0
 40
1.25
 50
270.0
 51
90.0
  0
VIEWPORT
  5
22
 67
     1
  8
0
 10
261.51769911504419
 20
148.5
 30
0.0
 40
523.0353982300885
 41
297.0
 68
     1
 69
     1
1001
ACAD
1000
MVIEW
1002
{
1070
    16
1010
0.0
1020
0.0
1030
0.0
1010
0.0
1020
0.0
1030
1.0
1040
0.0
1040
297.0
1040
261.51769911504419
1040
148.5
1040
50.0
1040
0.0
1040
0.0
1070
     0
1070
   100
1070
     1
1070
     1
1070
     0
1070
     0
1070
     0
1070
     0
1040
0.0
1040
0.0
1040
0.0
1040
1.0
1040
1.0
1040
10.0
1040
10.0
1070
     0
1002
{
1002
}
1002
}
1001
GENIUS_GENODEF_13
1002
{
1000
HIER
1070
     0
1002
}
1002
{
1000
MANEDIT
1070
     0
1002
}
1002
{
1000
NOSEL
1070
     0
1002
}
1002
{
1000
BEHIND
1070
     0
1002
}
1002
{
1000
OTHER
1070
     0
1002
}
1002
{
1000
REACTOR
1002
}
1001
GENIUS_GENOBJ-N-SDF_13
1002
{
1000
OWNER
1000
GEN
1002
}
1001
GENIUS_GENSCREG_15
1000
PF
1040
1.0
1000
DF
1040
1.0
1000
MIN
1011
0.0
1021
0.0
1031
0.0
1021
0.0
1031
0.0
1000
MAX
1011
523.0353982300885
1021
0.0
1031
0.0
1021
297.0
1031
0.0
1000
FLAGS
1070
     4
  0
ENDSEC
  0
EOF
