  0
SECTION
  2
HEADER
  9
$ACADVER
  1
AC1009
  9
$INSBASE
 10
0.0
 20
0.0
 30
0.0
  9
$EXTMIN
 10
-3.5600552761726472
 20
-14.24866002932327
 30
-0.0015258207003583
  9
$EXTMAX
 10
26.707825172110692
 20
44.91181676793849
 30
0.0000000349246037
  9
$LIMMIN
 10
0.0
 20
0.0
  9
$LIMMAX
 10
297.0
 20
210.0
  9
$ORTHOMODE
 70
     1
  9
$REGENMODE
 70
     1
  9
$FILLMODE
 70
     1
  9
$QTEXTMODE
 70
     0
  9
$MIRRTEXT
 70
     1
  9
$DRAGMODE
 70
     2
  9
$LTSCALE
 40
10.0
  9
$OSMODE
 70
  3071
  9
$ATTMODE
 70
     1
  9
$TEXTSIZE
 40
3.0
  9
$TRACEWID
 40
1.0
  9
$TEXTSTYLE
  7
YOKO
  9
$CLAYER
  8
240
  9
$CELTYPE
  6
BYLAYER
  9
$CECOLOR
 62
   256
  9
$DIMSCALE
 40
1.0
  9
$DIMASZ
 40
2.2299999999999991
  9
$DIMEXO
 40
0.5
  9
$DIMDLI
 40
7.0
  9
$DIMRND
 40
0.0
  9
$DIMDLE
 40
0.0
  9
$DIMEXE
 40
1.0
  9
$DIMTP
 40
0.0
  9
$DIMTM
 40
0.01
  9
$DIMTXT
 40
2.799999999999998
  9
$DIMCEN
 40
0.0
  9
$DIMTSZ
 40
0.0
  9
$DIMTOL
 70
     0
  9
$DIMLIM
 70
     0
  9
$DIMTIH
 70
     0
  9
$DIMTOH
 70
     0
  9
$DIMSE1
 70
     0
  9
$DIMSE2
 70
     0
  9
$DIMTAD
 70
     3
  9
$DIMZIN
 70
     9
  9
$DIMBLK
  1
OPEN
  9
$DIMASO
 70
     1
  9
$DIMSHO
 70
     1
  9
$DIMPOST
  1

  9
$DIMAPOST
  1

  9
$DIMALT
 70
     0
  9
$DIMALTD
 70
     2
  9
$DIMALTF
 40
25.399999999999999
  9
$DIMLFAC
 40
1.0
  9
$DIMTOFL
 70
     1
  9
$DIMTVP
 40
0.0
  9
$DIMTIX
 70
     1
  9
$DIMSOXD
 70
     0
  9
$DIMSAH
 70
     0
  9
$DIMBLK1
  1

  9
$DIMBLK2
  1

  9
$DIMSTYLE
  2
BIGT
  9
$DIMCLRD
 70
   256
  9
$DIMCLRE
 70
   256
  9
$DIMCLRT
 70
    40
  9
$DIMTFAC
 40
1.0
  9
$DIMGAP
 40
1.0
  9
$LUNITS
 70
     2
  9
$LUPREC
 70
     3
  9
$SKETCHINC
 40
1.0
  9
$FILLETRAD
 40
0.0
  9
$AUNITS
 70
     0
  9
$AUPREC
 70
     3
  9
$MENU
  1
.
  9
$ELEVATION
 40
0.0
  9
$PELEVATION
 40
0.0
  9
$THICKNESS
 40
0.0
  9
$LIMCHECK
 70
     0
  9
$BLIPMODE
 70
     0
  9
$CHAMFERA
 40
0.25
  9
$CHAMFERB
 40
0.25
  9
$SKPOLY
 70
     0
  9
$TDCREATE
 40
2456568.555739468
  9
$TDUPDATE
 40
2457361.7174991318
  9
$TDINDWG
 40
0.0403989699
  9
$TDUSRTIMER
 40
0.0403989583
  9
$USRTIMER
 70
     1
  9
$ANGBASE
 50
0.0
  9
$ANGDIR
 70
     0
  9
$PDMODE
 70
     1
  9
$PDSIZE
 40
0.0
  9
$PLINEWID
 40
0.0
  9
$COORDS
 70
     1
  9
$SPLFRAME
 70
     0
  9
$SPLINETYPE
 70
     6
  9
$SPLINESEGS
 70
     4
  9
$ATTDIA
 70
     1
  9
$ATTREQ
 70
     1
  9
$HANDLING
 70
     1
  9
$HANDSEED
  5
201D
  9
$SURFTAB1
 70
     6
  9
$SURFTAB2
 70
     6
  9
$SURFTYPE
 70
     6
  9
$SURFU
 70
     6
  9
$SURFV
 70
     6
  9
$UCSNAME
  2

  9
$UCSORG
 10
0.0
 20
0.0
 30
0.0
  9
$UCSXDIR
 10
1.0
 20
0.0
 30
0.0
  9
$UCSYDIR
 10
0.0
 20
1.0
 30
0.0
  9
$PUCSNAME
  2

  9
$PUCSORG
 10
0.0
 20
0.0
 30
0.0
  9
$PUCSXDIR
 10
1.0
 20
0.0
 30
0.0
  9
$PUCSYDIR
 10
0.0
 20
1.0
 30
0.0
  9
$USERI1
 70
     1
  9
$USERI2
 70
     0
  9
$USERI3
 70
     0
  9
$USERI4
 70
     0
  9
$USERI5
 70
     0
  9
$USERR1
 40
0.0
  9
$USERR2
 40
0.0
  9
$USERR3
 40
0.0
  9
$USERR4
 40
0.0
  9
$USERR5
 40
0.0
  9
$WORLDVIEW
 70
     1
  9
$SHADEDGE
 70
     3
  9
$SHADEDIF
 70
    70
  9
$TILEMODE
 70
     1
  9
$MAXACTVP
 70
    16
  9
$PLIMCHECK
 70
     0
  9
$PEXTMIN
 10
1.0000000000000000E+020
 20
1.0000000000000000E+020
 30
1.0000000000000000E+020
  9
$PEXTMAX
 10
-1.0000000000000000E+020
 20
-1.0000000000000000E+020
 30
-1.0000000000000000E+020
  9
$PLIMMIN
 10
0.0
 20
0.0
  9
$PLIMMAX
 10
420.0
 20
297.0
  9
$UNITMODE
 70
     0
  9
$VISRETAIN
 70
     1
  9
$PLINEGEN
 70
     0
  9
$PSLTSCALE
 70
     1
  0
ENDSEC
  0
SECTION
  2
TABLES
  0
TABLE
  2
VPORT
 70
     1
  0
VPORT
  2
*ACTIVE
 70
     0
 10
0.0
 20
0.0
 11
1.0
 21
1.0
 12
7.6376670362719494
 22
19.797809630782641
 13
0.0
 23
0.0
 14
7.0
 24
7.0
 15
7.0
 25
7.0
 16
0.0
 26
0.0
 36
1.0
 17
0.0
 27
0.0
 37
0.0
 40
95.219057665064895
 41
1.5417130144605109
 42
50.0
 43
0.0
 44
0.0
 50
0.0
 51
0.0
 71
     0
 72
  2000
 73
     1
 74
     0
 75
     0
 76
     0
 77
     0
 78
     0
  0
ENDTAB
  0
TABLE
  2
LTYPE
 70
    23
  0
LTYPE
  2
CONTINUOUS
 70
     0
  3
Solid line
 72
    65
 73
     0
 40
0.0
  0
LTYPE
  2
CENTER2
 70
     0
  3
___ _ ___ _ ___ _ ___ _ ___ _ ___ _ ___ _ ___ _
 72
    65
 73
     4
 40
1.125
 49
0.75
 49
-0.125
 49
0.125
 49
-0.125
  0
LTYPE
  2
HIDDEN2
 70
     0
  3
_ _ _ _ _ _ _ _ _ _ _ _ _ _ _ _ _ _ _ _ _ _ _ _
 72
    65
 73
     2
 40
0.1875
 49
0.125
 49
-0.0625
  0
LTYPE
  2
PHANTOM2
 70
     0
  3
___ _ _ ___ _ _ ___ _ _ ___ _ _ ___ _ _ ___ _ _
 72
    65
 73
     6
 40
1.25
 49
0.625
 49
-0.125
 49
0.125
 49
-0.125
 49
0.125
 49
-0.125
  0
LTYPE
  2
CENTER
 70
     0
  3
____ _ ____ _ ____ _ ____ _ ____ _ ____ _ ____ 
 72
    65
 73
     4
 40
2.0
 49
1.25
 49
-0.25
 49
0.25
 49
-0.25
  0
LTYPE
  2
AMCONSTR
 70
     0
  3
_______________________
 72
    65
 73
     2
 40
9999.0
 49
9999.0
 49
0.0
  0
LTYPE
  2
HIDDEN
 70
     0
  3
Hidden __ __ __ __ __ __ __ __ __ __ __ __ __ _
 72
    65
 73
     2
 40
9.5249999999999986
 49
6.3499999999999979
 49
-3.174999999999998
  0
LTYPE
  2
AMZIGZAG2
 70
     0
  3
/\/-/\/-/\/-/\/-/\/-/\/
 72
    65
 73
     2
 40
0.4401
 49
0.0001
 49
-0.4400000000000001
  0
LTYPE
  2
ACANSTGB
 70
     0
  3
__ . . __ . .
 72
    65
 73
     6
 40
0.35433070866
 49
0.15748031496
 49
-0.03937007874
 49
0.03937007874
 49
-0.03937007874
 49
0.03937007874
 49
-0.03937007874
  0
LTYPE
  2
ACANSTGL
 70
     0
  3
_ _ _ _ _
 72
    65
 73
     2
 40
0.11811023622
 49
0.07874015748
 49
-0.03937007874
  0
ENDTAB
  0
TABLE
  2
LAYER
 70
    11
  0
LAYER
  2
0
 70
     0
 62
     7
  6
CONTINUOUS
  0
LAYER
  2
245
 70
     0
 62
     2
  6
CENTER2
  0
LAYER
  2
DEFPOINTS
 70
     0
 62
     7
  6
CONTINUOUS
  0
LAYER
  2
240
 70
     0
 62
     4
  6
CONTINUOUS
  0
LAYER
  2
241
 70
     0
 62
   211
  6
CONTINUOUS
  0
LAYER
  2
243
 70
     0
 62
   211
  6
HIDDEN2
  0
LAYER
  2
250
 70
     0
 62
     3
  6
CONTINUOUS
  0
LAYER
  2
247
 70
     0
 62
    60
  6
CONTINUOUS
  0
ENDTAB
  0
TABLE
  2
STYLE
 70
    10
  0
STYLE
  2
STANDARD
 70
     0
 40
0.0
 41
1.0
 50
0.0
 71
     0
 42
3.0
  3
romans.shx
  4
extfont.shx
  0
STYLE
  2
YOKO
 70
     0
 40
0.0
 41
1.0
 50
0.0
 71
     0
 42
3.0
  3
romans.shx
  4
extfont.shx
  0
STYLE
  2

 70
     1
 40
0.0
 41
1.0
 50
0.0
 71
     0
 42
3.0
  3
genltshp.shx
  4

  0
STYLE
  2
ACANSGDT
 70
     0
 40
0.0
 41
1.0
 50
0.0
 71
     0
 42
3.0
  3
amgdt.shx
  4

  0
ENDTAB
  0
TABLE
  2
VIEW
 70
     0
  0
ENDTAB
  0
TABLE
  2
UCS
 70
     0
  0
ENDTAB
  0
TABLE
  2
APPID
 70
    37
  0
APPID
  2
ACAD
 70
     0
  0
APPID
  2
ACADANNOTATIVE
 70
     0
  0
APPID
  2
GLOBAL
 70
     0
  0
APPID
  2
DETAIL
 70
     0
  0
APPID
  2
GRPNAME
 70
     0
  0
APPID
  2
GPARA
 70
     0
  0
APPID
  2
MCAD_NO_VIS
 70
     0
  0
APPID
  2
ACAD_TEMP_GRAPHIC
 70
     0
  0
APPID
  2
ACATTRIBSERVICES
 70
     0
  0
APPID
  2
GENIUS_GENSCREG_15
 70
     0
  0
APPID
  2
GENIUS_GENODEF_13
 70
     0
  0
APPID
  2
GENIUS_GENOBJ-N-SDF_13
 70
     0
  0
APPID
  2
GENIUS_GENREC_14
 70
     0
  0
APPID
  2
GENIUS_GENOBJ-N-REC_13
 70
     0
  0
APPID
  2
GENIUS_GENDIMSH_14
 70
     0
  0
APPID
  2
GENIUS_GENOBJ-N-DIM_13
 70
     0
  0
APPID
  2
GENIUS_GENDIM_13
 70
     0
  0
APPID
  2
GENIUS_GENDTOL_13
 70
     0
  0
APPID
  2
GENIUS_GENOLIS_13
 70
     0
  0
APPID
  2
GENIUS_GENOENT_13
 70
     0
  0
APPID
  2
GENIUS_GENOBJ-F-FEM_13
 70
     0
  0
APPID
  2
GENIUS_GENOREF_13
 70
     0
  0
APPID
  2
GENIUS_GEFFEM_13
 70
     0
  0
APPID
  2
GENIUS_GEFFEMP_13
 70
     0
  0
APPID
  2
AD_DRAW
 70
     0
  0
APPID
  2
DESIGNERASSEMBLIES
 70
     0
  0
APPID
  2
ACADM_DIM_EDIT
 70
     0
  0
APPID
  2
AMDT_DM_ADJ
 70
     0
  0
APPID
  2
ACAD_DSTYLE_DIMJAG
 70
     0
  0
APPID
  2
ACAD_DSTYLE_DIMBREAK
 70
     0
  0
APPID
  2
ACAD_NAV_VCDISPLAY
 70
     0
  0
APPID
  2
ACAD_EXEMPT_FROM_CAD_STANDARDS
 70
     0
  0
APPID
  2
ITEMNAME
 70
     0
  0
APPID
  2
GENIUS_GENOBJ-N-FIL_13
 70
     0
  0
APPID
  2
GENIUS_GENFIL_13
 70
     0
  0
APPID
  2
GENIUS_GENOBJ-N-CHA_13
 70
     0
  0
APPID
  2
ACAD_MLEADERVER
 70
     0
  0
ENDTAB
  0
TABLE
  2
DIMSTYLE
 70
    32
  0
DIMSTYLE
  2
STANDARD
 70
     0
  3

  4

  5

  6

  7

 40
1.0
 41
0.18
 42
0.0625
 43
0.38
 44
0.18
 45
0.0
 46
0.0
 47
0.0
 48
0.0
140
0.18
141
0.09
142
0.0
143
25.399999999999999
144
1.0
145
0.0
146
1.0
147
0.09
 71
     0
 72
     0
 73
     1
 74
     1
 75
     0
 76
     0
 77
     0
 78
     0
170
     0
171
     2
172
     0
173
     0
174
     0
175
     0
176
     0
177
     0
178
     0
  0
DIMSTYLE
  2
BIGT
 70
     0
  3

  4

  5

  6

  7

 40
1.0
 41
2.2299999999999991
 42
0.5
 43
7.0
 44
1.0
 45
0.0
 46
0.0
 47
0.0
 48
0.01
140
2.799999999999998
141
0.0
142
0.0
143
25.399999999999999
144
1.0
145
0.0
146
1.0
147
1.0
 71
     0
 72
     0
 73
     0
 74
     0
 75
     0
 76
     0
 77
     3
 78
     9
170
     0
171
     2
172
     1
173
     0
174
     1
175
     0
176
   256
177
   256
178
    40
  0
DIMSTYLE
  2
AM_ANSI
 70
     0
  3

  4
mm
  5

  6

  7

 40
1.0
 41
0.12
 42
0.05
 43
0.5
 44
0.1
 45
0.0
 46
0.0
 47
0.1
 48
0.1
140
0.12
141
0.0
142
0.0
143
25.399999999999999
144
1.0
145
0.0
146
0.71
147
0.06
 71
     0
 72
     0
 73
     1
 74
     1
 75
     0
 76
     0
 77
     0
 78
     7
170
     0
171
     2
172
     0
173
     0
174
     0
175
     0
176
   256
177
   256
178
     2
  0
DIMSTYLE
  2
AM_ANSI$3
 70
     0
  3

  4
mm
  5

  6

  7

 40
1.0
 41
0.12
 42
0.05
 43
0.5
 44
0.1
 45
0.0
 46
0.0
 47
0.1
 48
0.1
140
0.12
141
0.0
142
0.0
143
25.399999999999999
144
1.0
145
0.0
146
0.71
147
0.06
 71
     0
 72
     0
 73
     1
 74
     1
 75
     0
 76
     0
 77
     0
 78
     7
170
     0
171
     2
172
     0
173
     0
174
     0
175
     0
176
   256
177
   256
178
     2
  0
DIMSTYLE
  2
AM_ANSI$4
 70
     0
  3

  4
mm
  5

  6

  7

 40
1.0
 41
0.12
 42
0.05
 43
0.5
 44
0.1
 45
0.0
 46
0.0
 47
0.1
 48
0.1
140
0.12
141
0.0
142
0.0
143
25.399999999999999
144
1.0
145
0.0
146
0.71
147
0.06
 71
     0
 72
     0
 73
     1
 74
     1
 75
     0
 76
     0
 77
     0
 78
     7
170
     0
171
     2
172
     0
173
     0
174
     0
175
     0
176
   256
177
   256
178
     2
  0
DIMSTYLE
  2
AM_ANSI$7
 70
     0
  3

  4
mm
  5

  6

  7

 40
1.0
 41
0.12
 42
0.05
 43
0.5
 44
0.1
 45
0.0
 46
0.0
 47
0.1
 48
0.1
140
0.12
141
0.0
142
0.0
143
25.399999999999999
144
1.0
145
0.0
146
0.71
147
0.06
 71
     0
 72
     0
 73
     1
 74
     1
 75
     0
 76
     0
 77
     0
 78
     7
170
     0
171
     2
172
     0
173
     0
174
     0
175
     0
176
   256
177
   256
178
     2
  0
DIMSTYLE
  2
AM_ANSI$SF
 70
     0
  3

  4
mm
  5

  6

  7

 40
1.0
 41
0.12
 42
0.05
 43
0.5
 44
0.1
 45
0.0
 46
0.0
 47
0.1
 48
0.1
140
0.12
141
0.0
142
0.0
143
25.399999999999999
144
1.0
145
0.0
146
0.71
147
0.06
 71
     0
 72
     0
 73
     1
 74
     1
 75
     1
 76
     1
 77
     0
 78
     7
170
     0
171
     2
172
     0
173
     0
174
     0
175
     0
176
   256
177
   256
178
     2
  0
DIMSTYLE
  2
AM_ANSI$SH
 70
     0
  3

  4
mm
  5

  6
GENAXEH
  7

 40
1.0
 41
0.12
 42
0.05
 43
0.5
 44
0.1
 45
0.0
 46
0.0
 47
0.1
 48
0.1
140
0.12
141
0.0
142
0.0
143
25.399999999999999
144
1.0
145
0.0
146
0.71
147
0.06
 71
     0
 72
     0
 73
     1
 74
     1
 75
     1
 76
     1
 77
     0
 78
     7
170
     0
171
     2
172
     0
173
     1
174
     0
175
     0
176
   256
177
   256
178
     2
  0
ENDTAB
  0
ENDSEC
  0
SECTION
  2
BLOCKS
  0
BLOCK
  8
0
  2
$MODEL_SPACE
 70
     0
 10
0.0
 20
0.0
 30
0.0
  3
$MODEL_SPACE
  1

  0
ENDBLK
  5
1E9D
  8
0
  0
BLOCK
 67
     1
  8
0
  2
$PAPER_SPACE
 70
     0
 10
0.0
 20
0.0
 30
0.0
  3
$PAPER_SPACE
  1

  0
ENDBLK
  5
1E99
 67
     1
  8
0
  0
BLOCK
  8
0
  2
_OPEN
 70
     0
 10
0.0
 20
0.0
 30
0.0
  3
_OPEN
  1

  0
LINE
  5
1CB5
  8
0
  6
BYBLOCK
 62
     0
 10
-1.0
 20
0.1666666666666666
 30
0.0
 11
0.0
 21
0.0
 31
0.0
  0
LINE
  5
1CB6
  8
0
  6
BYBLOCK
 62
     0
 10
-1.0
 20
-0.1666666666666666
 30
0.0
 11
0.0
 21
0.0
 31
0.0
  0
LINE
  5
1CB7
  8
0
  6
BYBLOCK
 62
     0
 10
0.0
 20
0.0
 30
0.0
 11
-1.0
 21
0.0
 31
0.0
  0
ENDBLK
  5
1CB8
  8
0
  0
BLOCK
  8
0
  2
GENAXEH
 70
     0
 10
0.0
 20
0.0
 30
0.0
  3
GENAXEH
  1

  0
LINE
  5
1CE0
  8
0
 10
-1.0
 20
0.0
 30
0.0
 11
1.0
 21
0.0
 31
0.0
  0
ENDBLK
  5
1CE1
  8
0
  0
BLOCK
  8
0
  2
_ACMFILLEDHALF
 70
     0
 10
0.0
 20
0.0
 30
0.0
  3
_ACMFILLEDHALF
  1

  0
TRACE
  5
1F58
  8
245
 62
     0
 10
-0.8
 20
0.0
 30
0.0
 11
-1.0
 21
0.166666666
 31
0.0
 12
0.0
 22
0.0
 32
0.0
 13
0.0
 23
0.0
 33
0.0
  0
LINE
  5
1F59
  8
245
 62
     0
 10
-1.0
 20
0.0
 30
0.0
 11
-0.8
 21
0.0
 31
0.0
  0
ENDBLK
  5
1F57
  8
0
  0
ENDSEC
  0
SECTION
  2
ENTITIES
  0
LINE
  5
15C8
  8
240
  6
CONTINUOUS
 10
1.293000259745682
 20
-14.24181723424266
 30
0.0
 11
-3.5508838908568241
 21
-14.24181723424266
 31
0.0
  0
LINE
  5
15CA
  8
240
  6
CONTINUOUS
 10
24.028901043382469
 20
6.403503745512265
 30
0.0
 11
21.921917155269369
 21
2.7541027993089311
 31
0.0
  0
LINE
  5
15CE
  8
241
  6
CONTINUOUS
 10
13.489247622198031
 20
11.75818276575737
 30
0.0
 11
2.931644275723686
 21
11.75818276575737
 31
0.0
  0
LINE
  5
15D1
  8
241
  6
CONTINUOUS
 10
-1.8782823434498639
 20
-7.5333792101311552
 30
0.0
 11
6.6593184836463184
 21
-7.5333792101311552
 31
0.0
  0
ARC
  5
15D2
  8
240
  6
CONTINUOUS
 10
-19.28569104509635
 20
31.86997762449289
 30
0.0
 40
47.178046263967019
 50
303.36277287932978
 51
303.39147210824927
  0
LINE
  5
15D3
  8
241
  6
CONTINUOUS
 10
6.6790522133557193
 20
-7.5203785151359694
 30
0.0
 11
10.31508260968452
 21
7.0629428722166132
 31
0.0
  0
LINE
  5
15D4
  8
241
  6
CONTINUOUS
 10
10.31508260968452
 20
7.0629428722166132
 30
0.0
 11
1.7609894901975891
 21
7.0629428722166132
 31
0.0
  0
LINE
  5
15DA
  8
240
  6
CONTINUOUS
 10
24.03133814987816
 20
16.457253578871711
 30
0.0
 11
4.1032542167761452
 21
16.4572535788717
 31
0.0
  0
LINE
  5
15DD
  8
240
  6
CONTINUOUS
 10
6.6593184836463184
 20
-13.19710297119553
 30
0.0
 11
1.5534767804930021
 21
-13.19710297119553
 31
0.0
  0
LINE
  5
15DE
  8
241
  6
CONTINUOUS
 10
6.6593184836463184
 20
-7.5333792101311552
 30
0.0
 11
6.6593184836463184
 21
-13.19710297119553
 31
0.0
  0
ARC
  5
15E6
  8
240
  6
CONTINUOUS
 10
22.177383037625152
 20
-5.2418172342425979
 30
0.0
 40
7.9999999999999076
 50
91.829950708211896
 51
145.00000000000131
  0
ARC
  5
15E7
  8
240
  6
CONTINUOUS
 10
-296.23279304222967
 20
761.03326864872304
 30
0.0
 40
831.37013391348194
 50
291.36628384431521
 51
291.38478922734907
  0
LINE
  5
163F
  8
241
  6
CONTINUOUS
 10
15.624166683313261
 20
-0.6532057434343236
 30
0.0
 11
21.646952348411482
 21
7.9482235992107872
 31
0.0
  0
LINE
  5
1641
  8
240
  6
CONTINUOUS
 10
15.624166683313179
 20
-0.6532057434344321
 30
0.0
 11
6.9093632586554623
 21
-13.099234340871069
 31
0.0
  0
LINE
  5
1644
  8
243
  6
HIDDEN2
 10
1.983921772126068
 20
-11.47068240581765
 30
0.0
 11
-2.576468217500695
 21
-10.333649477518041
 31
0.0
  0
LINE
  5
167B
  8
240
  6
CONTINUOUS
 10
-3.5508838908568241
 20
-14.24181723424266
 30
0.0
 11
4.1032542167761452
 21
16.4572535788717
 31
0.0
  0
LINE
  5
167C
  8
243
  6
HIDDEN2
 10
7.704905918092793
 20
11.47493172788734
 30
0.0
 11
1.5534767804931451
 21
-13.19710297119553
 31
0.0
  0
LINE
  5
167D
  8
240
  6
CONTINUOUS
 10
1.293000259745682
 20
-14.24181723424266
 30
0.0
 11
1.5534767804930021
 21
-13.19710297119553
 31
0.0
  0
ARC
  5
167E
  8
240
  6
CONTINUOUS
 10
-296.00019423339421
 20
760.43899967738685
 30
0.0
 40
830.731966376282
 50
291.3662767364288
 51
291.38479633527749
  0
LINE
  5
167F
  8
243
  6
HIDDEN2
 10
16.437567454576779
 20
9.2976346674903745
 30
0.0
 11
13.03438016136092
 21
-4.3518040413920041
 31
0.0
  0
LINE
  5
169D
  8
243
  6
HIDDEN2
 10
7.136858148398816
 20
9.1966165638610882
 30
0.0
 11
2.5764682175006919
 21
10.33364947751803
 31
0.0
  0
LINE
  5
169E
  8
243
  6
HIDDEN2
 10
16.437567454576779
 20
9.2976346674903745
 30
0.0
 11
7.704905918092793
 21
11.47493172788734
 31
0.0
  0
LINE
  5
169F
  8
243
  6
HIDDEN2
 10
20.448329112936172
 20
6.2364122146318861
 30
0.0
 11
15.95372366337746
 21
7.357043214938388
 31
0.0
  0
TEXT
  5
17E6
  8
241
  6
CONTINUOUS
 10
6.9643041529207181
 20
41.908195664659381
 30
0.0
 40
3.0
  1
EB32AJ
  7
YOKO
  0
LINE
  5
1A11
  8
241
  6
CONTINUOUS
 10
21.017291231212688
 20
7.1992238037410718
 30
0.0
 11
13.489247622198031
 21
11.75818276575737
 31
0.0
  0
LINE
  5
1AAA
  8
245
  6
CENTER2
 10
4.5603899602624196
 20
-1.137032920978289
 30
0.0
 11
-1.4174249689723231
 21
0.3534037366939178
 31
0.0
  0
LINE
  5
1AAB
  8
245
  6
CENTER2
 10
0.0000000000000013
 20
0.0
 30
0.0
 11
26.691089657107131
 21
0.0
 31
0.0
  0
LINE
  5
1B36
  8
250
  6
CONTINUOUS
 10
4.1032542167761452
 20
16.9572535788717
 30
0.0
 11
4.1032542167761452
 21
28.187114953891879
 31
0.0
  0
LINE
  5
1B37
  8
250
  6
CONTINUOUS
 10
25.117168971437518
 20
16.85777134145015
 30
0.0
 11
25.117168971437518
 21
28.187114953891879
 31
0.0
  0
LINE
  5
1B38
  8
250
  6
CONTINUOUS
 10
6.3332542167761439
 20
27.187114953891879
 30
0.0
 11
22.887168971437521
 21
27.187114953891879
 31
0.0
  0
TEXT
  5
1B3C
  8
250
  6
CONTINUOUS
 10
10.076878260773499
 20
29.387114953891881
 30
0.0
 40
2.799999999999998
  1
(21)
  0
LINE
  5
1B3D
  8
250
  6
CONTINUOUS
 10
22.887168971437521
 20
27.558781620558548
 30
0.0
 11
25.117168971437518
 21
27.187114953891879
 31
0.0
  0
LINE
  5
1B3E
  8
250
  6
CONTINUOUS
 10
22.887168971437521
 20
26.81544828722522
 30
0.0
 11
25.117168971437518
 21
27.187114953891879
 31
0.0
  0
LINE
  5
1B3F
  8
250
  6
CONTINUOUS
 10
25.117168971437518
 20
27.187114953891879
 30
0.0
 11
22.887168971437521
 21
27.187114953891879
 31
0.0
  0
LINE
  5
1B40
  8
250
  6
CONTINUOUS
 10
6.3332542167761439
 20
26.81544828722522
 30
0.0
 11
4.1032542167761452
 21
27.187114953891879
 31
0.0
  0
LINE
  5
1B41
  8
250
  6
CONTINUOUS
 10
6.3332542167761439
 20
27.558781620558548
 30
0.0
 11
4.1032542167761452
 21
27.187114953891879
 31
0.0
  0
LINE
  5
1B42
  8
250
  6
CONTINUOUS
 10
4.1032542167761452
 20
27.187114953891879
 30
0.0
 11
6.3332542167761439
 21
27.187114953891879
 31
0.0
  0
LINE
  5
1F77
  8
240
  6
CONTINUOUS
 10
24.53557277154172
 20
16.714173951125481
 30
0.0
 11
24.031338149878181
 21
16.457253578871711
 31
0.0
  0
ARC
  5
1F78
  8
241
  6
CONTINUOUS
 10
16.15202840921625
 20
11.99361424650138
 30
0.0
 40
0.4000000000000025
 50
117.0
 51
237.0000000000002
  0
LINE
  5
1F79
  8
241
  6
CONTINUOUS
 10
15.934172795210239
 20
11.65814601932321
 30
0.0
 11
23.996213986652531
 21
6.4225952529294013
 31
0.0
  0
ARC
  5
1F7A
  8
240
  6
CONTINUOUS
 10
24.214069600658519
 20
6.758063480107559
 30
0.0
 40
0.3999999999999761
 50
242.42421907454909
 51
357.0000000000021
  0
LINE
  5
1F7B
  8
240
  6
CONTINUOUS
 10
24.613521414560331
 20
6.7371290976103984
 30
0.0
 11
25.11662078533935
 21
16.336836958952961
 31
0.0
  0
ARC
  5
1F7C
  8
240
  6
CONTINUOUS
 10
24.717168971437541
 20
16.357771341450139
 30
0.0
 40
0.3999999999999866
 50
356.99999999999989
 51
117.0
  0
LINE
  5
1F86
  8
241
  6
CONTINUOUS
 10
10.315099999999999
 20
7.0629399999999993
 30
0.0
 11
15.469107518155811
 21
9.0393823165520129
 31
0.0
  0
LINE
  5
1F87
  8
241
  6
CONTINUOUS
 10
20.343876253638669
 20
6.087238071827672
 30
0.0
 11
11.936657417591
 21
11.70908785036732
 31
0.0
  0
LINE
  5
1F88
  8
241
  6
CONTINUOUS
 10
6.6691861625142543
 20
-7.5268800982096664
 30
0.0
 11
11.921099999999999
 21
-5.9416900000000004
 31
0.0
  0
ARC
  5
1F89
  8
241
  6
CONTINUOUS
 10
24.214069600658519
 20
6.758063480107559
 30
0.0
 40
0.3999999999999764
 50
236.9999999999998
 51
242.42421907454909
  0
LINE
  5
1F8A
  8
241
  6
CONTINUOUS
 10
24.031338149878181
 20
16.457253578871711
 30
0.0
 11
15.97043220932043
 21
12.35001685617673
 31
0.0
  0
LINE
  5
1FA9
  8
247
  6
CONTINUOUS
 10
6.3532542167761452
 20
12.457253578871761
 30
0.0
 11
10.987869601106119
 21
12.4572535788717
 31
0.0
  0
LINE
  5
1FAA
  8
247
  6
CONTINUOUS
 10
7.1483607167882042
 20
14.9572535788717
 30
0.0
 11
6.5461954067187893
 21
12.857253578955691
 31
0.0
  0
LINE
  5
1FAB
  8
247
  6
CONTINUOUS
 10
7.7781028132571137
 20
13.961099732757701
 30
0.0
 11
6.8627181979091123
 21
13.961099732757701
 31
0.0
  0
ARC
  5
1FAC
  8
247
  6
CONTINUOUS
 10
8.0159908148293457
 20
14.572534511577601
 30
0.0
 40
0.3876715809326743
 50
342.99788967529201
 51
82.92416621851234
  0
ARC
  5
1FAD
  8
247
  6
CONTINUOUS
 10
7.7207766599720404
 20
14.65203044784368
 30
0.0
 40
0.6933047965358768
 50
274.74293685220141
 51
343.84922627326631
1001
GENIUS_GENOBJ-N-FIL_13
1002
{
1000
OWNER
1000
GEN
1002
}
1001
GENIUS_GENODEF_13
1002
{
1000
HIER
1070
     0
1002
}
1002
{
1000
MANEDIT
1070
     0
1002
}
1002
{
1000
NOSEL
1070
     0
1002
}
1002
{
1000
BEHIND
1070
     0
1002
}
1002
{
1000
OTHER
1070
     0
1002
}
1002
{
1000
REACTOR
1002
}
  0
LINE
  5
1FAE
  8
247
  6
CONTINUOUS
 10
7.4615800220667898
 20
12.857253578955691
 30
0.0
 11
6.5461954067187893
 21
12.857253578955691
 31
0.0
  0
LINE
  5
1FAF
  8
247
  6
CONTINUOUS
 10
7.1483607167881971
 20
14.9572535788717
 30
0.0
 11
8.0637453321362003
 21
14.9572535788717
 31
0.0
  0
ARC
  5
1FB0
  8
247
  6
CONTINUOUS
 10
7.7249477405093163
 20
13.569836616103821
 30
0.0
 40
0.394857301075386
 50
335.99094165252882
 51
82.263443459069507
  0
ARC
  5
1FB1
  8
247
  6
CONTINUOUS
 10
7.3908076063492363
 20
13.566053251539129
 30
0.0
 40
0.7123241612361686
 50
275.70198516425808
 51
347.27733843682239
1001
GENIUS_GENOBJ-N-FIL_13
1002
{
1000
OWNER
1000
GEN
1002
}
1001
GENIUS_GENODEF_13
1002
{
1000
HIER
1070
     0
1002
}
1002
{
1000
MANEDIT
1070
     0
1002
}
1002
{
1000
NOSEL
1070
     0
1002
}
1002
{
1000
BEHIND
1070
     0
1002
}
1002
{
1000
OTHER
1070
     0
1002
}
1002
{
1000
REACTOR
1002
}
  0
LINE
  5
1FB2
  8
247
  6
CONTINUOUS
 10
8.4192723297127774
 20
12.857253578955691
 30
0.0
 11
9.0214376397821852
 21
14.9572535788717
 31
0.0
  0
LINE
  5
1FB3
  8
247
  6
CONTINUOUS
 10
10.51759148586819
 20
14.9572535788717
 30
0.0
 11
10.121575852472571
 21
14.9572535788717
 31
0.0
  0
LINE
  5
1FB4
  8
247
  6
CONTINUOUS
 10
9.4945145628321885
 20
12.857253578955691
 30
0.0
 11
9.9252837935841782
 21
12.857253578955691
 31
0.0
  0
ARC
  5
1FB5
  8
247
  6
CONTINUOUS
 10
10.72143763970619
 20
13.49895398378834
 30
0.0
 40
1.576855057639547
 50
112.35948814152729
 51
164.993248542846
  0
ARC
  5
1FB6
  8
247
  6
CONTINUOUS
 10
10.255742850642919
 20
14.39143472033356
 30
0.0
 40
0.6234706797009447
 50
4.9945893190753701
 51
65.166328957303591
1001
GENIUS_GENOBJ-N-FIL_13
1002
{
1000
OWNER
1000
GEN
1002
}
1001
GENIUS_GENODEF_13
1002
{
1000
HIER
1070
     0
1002
}
1002
{
1000
MANEDIT
1070
     0
1002
}
1002
{
1000
NOSEL
1070
     0
1002
}
1002
{
1000
BEHIND
1070
     0
1002
}
1002
{
1000
OTHER
1070
     0
1002
}
1002
{
1000
REACTOR
1002
}
  0
ARC
  5
1FB7
  8
247
  6
CONTINUOUS
 10
9.6590702657433756
 20
13.795151456902261
 30
0.0
 40
0.9749472149106983
 50
285.84609655577998
 51
352.32513700416911
  0
ARC
  5
1FB8
  8
247
  6
CONTINUOUS
 10
10.068042578003929
 20
13.58578317690063
 30
0.0
 40
0.9271945638692009
 50
159.7136016704971
 51
231.78874565640959
1001
GENIUS_GENOBJ-N-FIL_13
1002
{
1000
OWNER
1000
GEN
1002
}
1001
GENIUS_GENODEF_13
1002
{
1000
HIER
1070
     0
1002
}
1002
{
1000
MANEDIT
1070
     0
1002
}
1002
{
1000
NOSEL
1070
     0
1002
}
1002
{
1000
BEHIND
1070
     0
1002
}
1002
{
1000
OTHER
1070
     0
1002
}
1002
{
1000
REACTOR
1002
}
  0
LINE
  5
1FB9
  8
247
  6
CONTINUOUS
 10
10.14066840896019
 20
13.664945886615721
 30
0.0
 11
10.62528379355618
 21
13.664945886615721
 31
0.0
  0
ARC
  5
1FBA
  8
247
  6
CONTINUOUS
 10
6.3532542167761452
 20
13.7072535788717
 30
0.0
 40
1.25
 50
90.0
 51
270.0
  0
LINE
  5
1FBB
  8
247
  6
CONTINUOUS
 10
6.3532542167761452
 20
14.9572535788717
 30
0.0
 11
6.7994080628621498
 21
14.9572535788717
 31
0.0
  0
ARC
  5
1FBC
  8
247
  6
CONTINUOUS
 10
10.98786960110613
 20
13.7072535788717
 30
0.0
 40
1.25
 50
270.0
 51
90.0
  0
VIEWPORT
  5
22
 67
     1
  8
0
 10
261.51769911504419
 20
148.5
 30
0.0
 40
523.0353982300885
 41
297.0
 68
     1
 69
     1
1001
ACAD
1000
MVIEW
1002
{
1070
    16
1010
0.0
1020
0.0
1030
0.0
1010
0.0
1020
0.0
1030
1.0
1040
0.0
1040
297.0
1040
261.51769911504419
1040
148.5
1040
50.0
1040
0.0
1040
0.0
1070
     0
1070
   100
1070
     1
1070
     1
1070
     0
1070
     0
1070
     0
1070
     0
1040
0.0
1040
0.0
1040
0.0
1040
1.0
1040
1.0
1040
10.0
1040
10.0
1070
     0
1002
{
1002
}
1002
}
1001
GENIUS_GENODEF_13
1002
{
1000
HIER
1070
     0
1002
}
1002
{
1000
MANEDIT
1070
     0
1002
}
1002
{
1000
NOSEL
1070
     0
1002
}
1002
{
1000
BEHIND
1070
     0
1002
}
1002
{
1000
OTHER
1070
     0
1002
}
1002
{
1000
REACTOR
1002
}
1001
GENIUS_GENOBJ-N-SDF_13
1002
{
1000
OWNER
1000
GEN
1002
}
1001
GENIUS_GENSCREG_15
1000
PF
1040
1.0
1000
DF
1040
1.0
1000
MIN
1011
0.0
1021
0.0
1031
0.0
1021
0.0
1031
0.0
1000
MAX
1011
523.0353982300885
1021
0.0
1031
0.0
1021
297.0
1031
0.0
1000
FLAGS
1070
     4
  0
ENDSEC
  0
EOF
