  0
SECTION
  2
HEADER
  9
$ACADVER
  1
AC1009
  9
$INSBASE
 10
0.0
 20
0.0
 30
0.0
  9
$EXTMIN
 10
-2.3910193459855691
 20
-9.5599131823215657
 30
-0.0015258207003583
  9
$EXTMAX
 10
21.340805367805839
 20
35.147386932110919
 30
0.0000000349246037
  9
$LIMMIN
 10
0.0
 20
0.0
  9
$LIMMAX
 10
297.0
 20
210.0
  9
$ORTHOMODE
 70
     0
  9
$REGENMODE
 70
     1
  9
$FILLMODE
 70
     1
  9
$QTEXTMODE
 70
     0
  9
$MIRRTEXT
 70
     1
  9
$DRAGMODE
 70
     2
  9
$LTSCALE
 40
10.0
  9
$OSMODE
 70
  3071
  9
$ATTMODE
 70
     1
  9
$TEXTSIZE
 40
3.0
  9
$TRACEWID
 40
1.0
  9
$TEXTSTYLE
  7
YOKO
  9
$CLAYER
  8
240
  9
$CELTYPE
  6
BYLAYER
  9
$CECOLOR
 62
   256
  9
$DIMSCALE
 40
1.0
  9
$DIMASZ
 40
2.2299999999999991
  9
$DIMEXO
 40
0.5
  9
$DIMDLI
 40
7.0
  9
$DIMRND
 40
0.0
  9
$DIMDLE
 40
0.0
  9
$DIMEXE
 40
1.0
  9
$DIMTP
 40
0.0
  9
$DIMTM
 40
0.01
  9
$DIMTXT
 40
2.799999999999998
  9
$DIMCEN
 40
0.0
  9
$DIMTSZ
 40
0.0
  9
$DIMTOL
 70
     0
  9
$DIMLIM
 70
     0
  9
$DIMTIH
 70
     0
  9
$DIMTOH
 70
     0
  9
$DIMSE1
 70
     0
  9
$DIMSE2
 70
     0
  9
$DIMTAD
 70
     3
  9
$DIMZIN
 70
     9
  9
$DIMBLK
  1
OPEN
  9
$DIMASO
 70
     1
  9
$DIMSHO
 70
     1
  9
$DIMPOST
  1

  9
$DIMAPOST
  1

  9
$DIMALT
 70
     0
  9
$DIMALTD
 70
     2
  9
$DIMALTF
 40
25.399999999999999
  9
$DIMLFAC
 40
1.0
  9
$DIMTOFL
 70
     1
  9
$DIMTVP
 40
0.0
  9
$DIMTIX
 70
     1
  9
$DIMSOXD
 70
     0
  9
$DIMSAH
 70
     0
  9
$DIMBLK1
  1

  9
$DIMBLK2
  1

  9
$DIMSTYLE
  2
BIGT
  9
$DIMCLRD
 70
   256
  9
$DIMCLRE
 70
   256
  9
$DIMCLRT
 70
    40
  9
$DIMTFAC
 40
1.0
  9
$DIMGAP
 40
1.0
  9
$LUNITS
 70
     2
  9
$LUPREC
 70
     3
  9
$SKETCHINC
 40
1.0
  9
$FILLETRAD
 40
0.0
  9
$AUNITS
 70
     0
  9
$AUPREC
 70
     3
  9
$MENU
  1
.
  9
$ELEVATION
 40
0.0
  9
$PELEVATION
 40
0.0
  9
$THICKNESS
 40
0.0
  9
$LIMCHECK
 70
     0
  9
$BLIPMODE
 70
     0
  9
$CHAMFERA
 40
0.25
  9
$CHAMFERB
 40
0.25
  9
$SKPOLY
 70
     0
  9
$TDCREATE
 40
2456568.3788325121
  9
$TDUPDATE
 40
2457361.7104513892
  9
$TDINDWG
 40
0.1822611574
  9
$TDUSRTIMER
 40
0.1822611227
  9
$USRTIMER
 70
     1
  9
$ANGBASE
 50
0.0
  9
$ANGDIR
 70
     0
  9
$PDMODE
 70
     1
  9
$PDSIZE
 40
0.0
  9
$PLINEWID
 40
0.0
  9
$COORDS
 70
     1
  9
$SPLFRAME
 70
     0
  9
$SPLINETYPE
 70
     6
  9
$SPLINESEGS
 70
     4
  9
$ATTDIA
 70
     1
  9
$ATTREQ
 70
     1
  9
$HANDLING
 70
     1
  9
$HANDSEED
  5
1EF5
  9
$SURFTAB1
 70
     6
  9
$SURFTAB2
 70
     6
  9
$SURFTYPE
 70
     6
  9
$SURFU
 70
     6
  9
$SURFV
 70
     6
  9
$UCSNAME
  2

  9
$UCSORG
 10
0.0
 20
0.0
 30
0.0
  9
$UCSXDIR
 10
1.0
 20
0.0
 30
0.0
  9
$UCSYDIR
 10
0.0
 20
1.0
 30
0.0
  9
$PUCSNAME
  2

  9
$PUCSORG
 10
0.0
 20
0.0
 30
0.0
  9
$PUCSXDIR
 10
1.0
 20
0.0
 30
0.0
  9
$PUCSYDIR
 10
0.0
 20
1.0
 30
0.0
  9
$USERI1
 70
     1
  9
$USERI2
 70
     0
  9
$USERI3
 70
     0
  9
$USERI4
 70
     0
  9
$USERI5
 70
     0
  9
$USERR1
 40
0.0
  9
$USERR2
 40
0.0
  9
$USERR3
 40
0.0
  9
$USERR4
 40
0.0
  9
$USERR5
 40
0.0
  9
$WORLDVIEW
 70
     1
  9
$SHADEDGE
 70
     3
  9
$SHADEDIF
 70
    70
  9
$TILEMODE
 70
     1
  9
$MAXACTVP
 70
    16
  9
$PLIMCHECK
 70
     0
  9
$PEXTMIN
 10
1.0000000000000000E+020
 20
1.0000000000000000E+020
 30
1.0000000000000000E+020
  9
$PEXTMAX
 10
-1.0000000000000000E+020
 20
-1.0000000000000000E+020
 30
-1.0000000000000000E+020
  9
$PLIMMIN
 10
0.0
 20
0.0
  9
$PLIMMAX
 10
420.0
 20
297.0
  9
$UNITMODE
 70
     0
  9
$VISRETAIN
 70
     1
  9
$PLINEGEN
 70
     0
  9
$PSLTSCALE
 70
     1
  0
ENDSEC
  0
SECTION
  2
TABLES
  0
TABLE
  2
VPORT
 70
     1
  0
VPORT
  2
*ACTIVE
 70
     0
 10
0.0
 20
0.0
 11
1.0
 21
1.0
 12
18.151731798968431
 22
12.423574527975219
 13
0.0
 23
0.0
 14
7.0
 24
7.0
 15
7.0
 25
7.0
 16
0.0
 26
0.0
 36
1.0
 17
0.0
 27
0.0
 37
0.0
 40
72.203486888239553
 41
1.5417130144605109
 42
50.0
 43
0.0
 44
0.0
 50
0.0
 51
0.0
 71
     0
 72
  2000
 73
     1
 74
     0
 75
     0
 76
     1
 77
     0
 78
     0
  0
ENDTAB
  0
TABLE
  2
LTYPE
 70
    23
  0
LTYPE
  2
CONTINUOUS
 70
     0
  3
Solid line
 72
    65
 73
     0
 40
0.0
  0
LTYPE
  2
CENTER2
 70
     0
  3
___ _ ___ _ ___ _ ___ _ ___ _ ___ _ ___ _ ___ _
 72
    65
 73
     4
 40
1.125
 49
0.75
 49
-0.125
 49
0.125
 49
-0.125
  0
LTYPE
  2
HIDDEN2
 70
     0
  3
_ _ _ _ _ _ _ _ _ _ _ _ _ _ _ _ _ _ _ _ _ _ _ _
 72
    65
 73
     2
 40
0.1875
 49
0.125
 49
-0.0625
  0
LTYPE
  2
PHANTOM2
 70
     0
  3
___ _ _ ___ _ _ ___ _ _ ___ _ _ ___ _ _ ___ _ _
 72
    65
 73
     6
 40
1.25
 49
0.625
 49
-0.125
 49
0.125
 49
-0.125
 49
0.125
 49
-0.125
  0
LTYPE
  2
CENTER
 70
     0
  3
____ _ ____ _ ____ _ ____ _ ____ _ ____ _ ____ 
 72
    65
 73
     4
 40
2.0
 49
1.25
 49
-0.25
 49
0.25
 49
-0.25
  0
LTYPE
  2
AMCONSTR
 70
     0
  3
_______________________
 72
    65
 73
     2
 40
9999.0
 49
9999.0
 49
0.0
  0
LTYPE
  2
HIDDEN
 70
     0
  3
Hidden __ __ __ __ __ __ __ __ __ __ __ __ __ _
 72
    65
 73
     2
 40
9.5249999999999986
 49
6.3499999999999979
 49
-3.174999999999998
  0
LTYPE
  2
AMZIGZAG2
 70
     0
  3
/\/-/\/-/\/-/\/-/\/-/\/
 72
    65
 73
     2
 40
0.4401
 49
0.0001
 49
-0.4400000000000001
  0
LTYPE
  2
ACANSTGB
 70
     0
  3
__ . . __ . .
 72
    65
 73
     6
 40
0.35433070866
 49
0.15748031496
 49
-0.03937007874
 49
0.03937007874
 49
-0.03937007874
 49
0.03937007874
 49
-0.03937007874
  0
LTYPE
  2
ACANSTGL
 70
     0
  3
_ _ _ _ _
 72
    65
 73
     2
 40
0.11811023622
 49
0.07874015748
 49
-0.03937007874
  0
ENDTAB
  0
TABLE
  2
LAYER
 70
    11
  0
LAYER
  2
0
 70
     0
 62
     7
  6
CONTINUOUS
  0
LAYER
  2
240
 70
     0
 62
     4
  6
CONTINUOUS
  0
LAYER
  2
DEFPOINTS
 70
     0
 62
     7
  6
CONTINUOUS
  0
LAYER
  2
245
 70
     0
 62
     2
  6
CENTER2
  0
LAYER
  2
241
 70
     0
 62
   211
  6
CONTINUOUS
  0
LAYER
  2
243
 70
     0
 62
   211
  6
HIDDEN2
  0
LAYER
  2
250
 70
     0
 62
     3
  6
CONTINUOUS
  0
LAYER
  2
247
 70
     0
 62
    60
  6
CONTINUOUS
  0
ENDTAB
  0
TABLE
  2
STYLE
 70
    10
  0
STYLE
  2
STANDARD
 70
     0
 40
0.0
 41
1.0
 50
0.0
 71
     0
 42
3.0
  3
romans.shx
  4
extfont.shx
  0
STYLE
  2
YOKO
 70
     0
 40
0.0
 41
1.0
 50
0.0
 71
     0
 42
3.0
  3
romans.shx
  4
extfont.shx
  0
STYLE
  2

 70
     1
 40
0.0
 41
1.0
 50
0.0
 71
     0
 42
3.0
  3
genltshp.shx
  4

  0
STYLE
  2
ACANSGDT
 70
     0
 40
0.0
 41
1.0
 50
0.0
 71
     0
 42
3.0
  3
amgdt.shx
  4

  0
ENDTAB
  0
TABLE
  2
VIEW
 70
     0
  0
ENDTAB
  0
TABLE
  2
UCS
 70
     0
  0
ENDTAB
  0
TABLE
  2
APPID
 70
    37
  0
APPID
  2
ACAD
 70
     0
  0
APPID
  2
ACADANNOTATIVE
 70
     0
  0
APPID
  2
GLOBAL
 70
     0
  0
APPID
  2
DETAIL
 70
     0
  0
APPID
  2
GRPNAME
 70
     0
  0
APPID
  2
GPARA
 70
     0
  0
APPID
  2
MCAD_NO_VIS
 70
     0
  0
APPID
  2
ACAD_TEMP_GRAPHIC
 70
     0
  0
APPID
  2
ACATTRIBSERVICES
 70
     0
  0
APPID
  2
GENIUS_GENSCREG_15
 70
     0
  0
APPID
  2
GENIUS_GENODEF_13
 70
     0
  0
APPID
  2
GENIUS_GENOBJ-N-SDF_13
 70
     0
  0
APPID
  2
GENIUS_GENREC_14
 70
     0
  0
APPID
  2
GENIUS_GENOBJ-N-REC_13
 70
     0
  0
APPID
  2
GENIUS_GENDIMSH_14
 70
     0
  0
APPID
  2
GENIUS_GENOBJ-N-DIM_13
 70
     0
  0
APPID
  2
GENIUS_GENDIM_13
 70
     0
  0
APPID
  2
GENIUS_GENDTOL_13
 70
     0
  0
APPID
  2
GENIUS_GENOLIS_13
 70
     0
  0
APPID
  2
GENIUS_GENOENT_13
 70
     0
  0
APPID
  2
GENIUS_GENOBJ-F-FEM_13
 70
     0
  0
APPID
  2
GENIUS_GENOREF_13
 70
     0
  0
APPID
  2
GENIUS_GEFFEM_13
 70
     0
  0
APPID
  2
GENIUS_GEFFEMP_13
 70
     0
  0
APPID
  2
AD_DRAW
 70
     0
  0
APPID
  2
DESIGNERASSEMBLIES
 70
     0
  0
APPID
  2
ACADM_DIM_EDIT
 70
     0
  0
APPID
  2
AMDT_DM_ADJ
 70
     0
  0
APPID
  2
ACAD_DSTYLE_DIMJAG
 70
     0
  0
APPID
  2
ACAD_DSTYLE_DIMBREAK
 70
     0
  0
APPID
  2
ACAD_NAV_VCDISPLAY
 70
     0
  0
APPID
  2
ACAD_EXEMPT_FROM_CAD_STANDARDS
 70
     0
  0
APPID
  2
ITEMNAME
 70
     0
  0
APPID
  2
GENIUS_GENOBJ-N-FIL_13
 70
     0
  0
APPID
  2
GENIUS_GENFIL_13
 70
     0
  0
APPID
  2
GENIUS_GENOBJ-N-CHA_13
 70
     0
  0
APPID
  2
ACAD_MLEADERVER
 70
     0
  0
ENDTAB
  0
TABLE
  2
DIMSTYLE
 70
    32
  0
DIMSTYLE
  2
STANDARD
 70
     0
  3

  4

  5

  6

  7

 40
1.0
 41
0.18
 42
0.0625
 43
0.38
 44
0.18
 45
0.0
 46
0.0
 47
0.0
 48
0.0
140
0.18
141
0.09
142
0.0
143
25.399999999999999
144
1.0
145
0.0
146
1.0
147
0.09
 71
     0
 72
     0
 73
     1
 74
     1
 75
     0
 76
     0
 77
     0
 78
     0
170
     0
171
     2
172
     0
173
     0
174
     0
175
     0
176
     0
177
     0
178
     0
  0
DIMSTYLE
  2
BIGT
 70
     0
  3

  4

  5

  6

  7

 40
1.0
 41
2.2299999999999991
 42
0.5
 43
7.0
 44
1.0
 45
0.0
 46
0.0
 47
0.0
 48
0.01
140
2.799999999999998
141
0.0
142
0.0
143
25.399999999999999
144
1.0
145
0.0
146
1.0
147
1.0
 71
     0
 72
     0
 73
     0
 74
     0
 75
     0
 76
     0
 77
     3
 78
     9
170
     0
171
     2
172
     1
173
     0
174
     1
175
     0
176
   256
177
   256
178
    40
  0
DIMSTYLE
  2
AM_ANSI
 70
     0
  3

  4
mm
  5

  6

  7

 40
1.0
 41
0.12
 42
0.05
 43
0.5
 44
0.1
 45
0.0
 46
0.0
 47
0.1
 48
0.1
140
0.12
141
0.0
142
0.0
143
25.399999999999999
144
1.0
145
0.0
146
0.71
147
0.06
 71
     0
 72
     0
 73
     1
 74
     1
 75
     0
 76
     0
 77
     0
 78
     7
170
     0
171
     2
172
     0
173
     0
174
     0
175
     0
176
   256
177
   256
178
     2
  0
DIMSTYLE
  2
AM_ANSI$3
 70
     0
  3

  4
mm
  5

  6

  7

 40
1.0
 41
0.12
 42
0.05
 43
0.5
 44
0.1
 45
0.0
 46
0.0
 47
0.1
 48
0.1
140
0.12
141
0.0
142
0.0
143
25.399999999999999
144
1.0
145
0.0
146
0.71
147
0.06
 71
     0
 72
     0
 73
     1
 74
     1
 75
     0
 76
     0
 77
     0
 78
     7
170
     0
171
     2
172
     0
173
     0
174
     0
175
     0
176
   256
177
   256
178
     2
  0
DIMSTYLE
  2
AM_ANSI$4
 70
     0
  3

  4
mm
  5

  6

  7

 40
1.0
 41
0.12
 42
0.05
 43
0.5
 44
0.1
 45
0.0
 46
0.0
 47
0.1
 48
0.1
140
0.12
141
0.0
142
0.0
143
25.399999999999999
144
1.0
145
0.0
146
0.71
147
0.06
 71
     0
 72
     0
 73
     1
 74
     1
 75
     0
 76
     0
 77
     0
 78
     7
170
     0
171
     2
172
     0
173
     0
174
     0
175
     0
176
   256
177
   256
178
     2
  0
DIMSTYLE
  2
AM_ANSI$7
 70
     0
  3

  4
mm
  5

  6

  7

 40
1.0
 41
0.12
 42
0.05
 43
0.5
 44
0.1
 45
0.0
 46
0.0
 47
0.1
 48
0.1
140
0.12
141
0.0
142
0.0
143
25.399999999999999
144
1.0
145
0.0
146
0.71
147
0.06
 71
     0
 72
     0
 73
     1
 74
     1
 75
     0
 76
     0
 77
     0
 78
     7
170
     0
171
     2
172
     0
173
     0
174
     0
175
     0
176
   256
177
   256
178
     2
  0
DIMSTYLE
  2
AM_ANSI$SF
 70
     0
  3

  4
mm
  5

  6

  7

 40
1.0
 41
0.12
 42
0.05
 43
0.5
 44
0.1
 45
0.0
 46
0.0
 47
0.1
 48
0.1
140
0.12
141
0.0
142
0.0
143
25.399999999999999
144
1.0
145
0.0
146
0.71
147
0.06
 71
     0
 72
     0
 73
     1
 74
     1
 75
     1
 76
     1
 77
     0
 78
     7
170
     0
171
     2
172
     0
173
     0
174
     0
175
     0
176
   256
177
   256
178
     2
  0
DIMSTYLE
  2
AM_ANSI$SH
 70
     0
  3

  4
mm
  5

  6
GENAXEH
  7

 40
1.0
 41
0.12
 42
0.05
 43
0.5
 44
0.1
 45
0.0
 46
0.0
 47
0.1
 48
0.1
140
0.12
141
0.0
142
0.0
143
25.399999999999999
144
1.0
145
0.0
146
0.71
147
0.06
 71
     0
 72
     0
 73
     1
 74
     1
 75
     1
 76
     1
 77
     0
 78
     7
170
     0
171
     2
172
     0
173
     1
174
     0
175
     0
176
   256
177
   256
178
     2
  0
ENDTAB
  0
ENDSEC
  0
SECTION
  2
BLOCKS
  0
BLOCK
  8
0
  2
$MODEL_SPACE
 70
     0
 10
0.0
 20
0.0
 30
0.0
  3
$MODEL_SPACE
  1

  0
ENDBLK
  5
1D77
  8
0
  0
BLOCK
 67
     1
  8
0
  2
$PAPER_SPACE
 70
     0
 10
0.0
 20
0.0
 30
0.0
  3
$PAPER_SPACE
  1

  0
ENDBLK
  5
1D73
 67
     1
  8
0
  0
BLOCK
  8
0
  2
_OPEN
 70
     0
 10
0.0
 20
0.0
 30
0.0
  3
_OPEN
  1

  0
LINE
  5
1C9D
  8
0
  6
BYBLOCK
 62
     0
 10
-1.0
 20
0.1666666666666666
 30
0.0
 11
0.0
 21
0.0
 31
0.0
  0
LINE
  5
1C9E
  8
0
  6
BYBLOCK
 62
     0
 10
-1.0
 20
-0.1666666666666666
 30
0.0
 11
0.0
 21
0.0
 31
0.0
  0
LINE
  5
1C9F
  8
0
  6
BYBLOCK
 62
     0
 10
0.0
 20
0.0
 30
0.0
 11
-1.0
 21
0.0
 31
0.0
  0
ENDBLK
  5
1CA0
  8
0
  0
BLOCK
  8
0
  2
GENAXEH
 70
     0
 10
0.0
 20
0.0
 30
0.0
  3
GENAXEH
  1

  0
LINE
  5
1CC8
  8
0
 10
-1.0
 20
0.0
 30
0.0
 11
1.0
 21
0.0
 31
0.0
  0
ENDBLK
  5
1CC9
  8
0
  0
BLOCK
  8
0
  2
_ACMFILLEDHALF
 70
     0
 10
0.0
 20
0.0
 30
0.0
  3
_ACMFILLEDHALF
  1

  0
TRACE
  5
1E32
  8
240
 62
     0
 10
-0.8
 20
0.0
 30
0.0
 11
-1.0
 21
0.166666666
 31
0.0
 12
0.0
 22
0.0
 32
0.0
 13
0.0
 23
0.0
 33
0.0
  0
LINE
  5
1E33
  8
240
 62
     0
 10
-1.0
 20
0.0
 30
0.0
 11
-0.8
 21
0.0
 31
0.0
  0
ENDBLK
  5
1E31
  8
0
  0
ENDSEC
  0
SECTION
  2
ENTITIES
  0
LINE
  5
1654
  8
243
  6
HIDDEN2
 10
2.8905127426234039
 20
-4.9410485814988467
 30
0.0
 11
-0.9906701624806173
 21
-3.9733609991001928
 31
0.0
  0
LINE
  5
165A
  8
243
  6
HIDDEN2
 10
5.3073124796640112
 20
4.7522057239983724
 30
0.0
 11
2.0083502772477591
 21
-8.4792089779085416
 31
0.0
  0
LINE
  5
16C5
  8
240
  6
CONTINUOUS
 10
-2.3818836330047071
 20
-9.5532134611565596
 30
0.0
 11
2.380281221299954
 21
9.5467865388434632
 31
0.0
  0
LINE
  5
16C6
  8
240
  6
CONTINUOUS
 10
1.740570884394919
 20
-9.5532134611565596
 30
0.0
 11
2.0083502772477622
 21
-8.4792089779085416
 31
0.0
  0
LINE
  5
16DD
  8
243
  6
HIDDEN2
 10
17.78368333421685
 20
1.6414970961019151
 30
0.0
 11
5.3073124796640112
 21
4.7522057239983431
 31
0.0
  0
LINE
  5
16DE
  8
243
  6
HIDDEN2
 10
4.871853067584599
 20
3.0056734167015682
 30
0.0
 11
0.9906701624806205
 21
3.9733609991002088
 31
0.0
  0
LINE
  5
16E0
  8
240
  6
CONTINUOUS
 10
1.740570884394919
 20
-9.5532134611565596
 30
0.0
 11
-2.3818836330047062
 21
-9.5532134611565596
 31
0.0
  0
LINE
  5
16E1
  8
241
  6
CONTINUOUS
 10
8.6082708012234583
 20
5.2467865388434243
 30
0.0
 11
1.3081708090742881
 21
5.2467865388434243
 31
0.0
  0
LINE
  5
16E5
  8
241
  6
CONTINUOUS
 10
8.6082708012234583
 20
5.2467865388434243
 30
0.0
 11
17.65228724855854
 21
-0.6264664150590701
 31
0.0
  0
LINE
  5
16E7
  8
241
  6
CONTINUOUS
 10
-1.7567501996695061
 20
-7.045940205820159
 30
0.0
 11
6.5334324851035639
 21
-7.045940205820159
 31
0.0
  0
LINE
  5
16E8
  8
240
  6
CONTINUOUS
 10
4.0509381509446323
 20
-8.4792089779085416
 30
0.0
 11
17.65228724855854
 21
-0.6264664150590701
 31
0.0
  0
LINE
  5
16EB
  8
241
  6
CONTINUOUS
 10
5.6903900667098402
 20
10.767294829718461
 30
0.0
 11
17.848168187792972
 21
2.871941401476505
 31
0.0
  0
LINE
  5
16EC
  8
241
  6
CONTINUOUS
 10
17.65228724855854
 20
-0.6264664150590701
 30
0.0
 11
17.665215584095169
 21
-0.6190022370568326
 31
0.0
  0
LINE
  5
16F0
  8
240
  6
CONTINUOUS
 10
17.665215584095169
 20
-0.6190022370568326
 30
0.0
 11
17.936208467067321
 21
4.5518500043362469
 31
0.0
  0
LINE
  5
16F7
  8
240
  6
CONTINUOUS
 10
16.539545710323551
 20
14.026786538843419
 30
0.0
 11
12.08750273764543
 21
14.026786538843419
 31
0.0
  0
LINE
  5
16F8
  8
240
  6
CONTINUOUS
 10
12.08750273764543
 20
14.026786538843419
 30
0.0
 11
3.2950076729824249
 21
9.5467865388434632
 31
0.0
  0
LINE
  5
16F9
  8
240
  6
CONTINUOUS
 10
3.2950076729824249
 20
9.5467865388434632
 30
0.0
 11
2.380281221299954
 21
9.5467865388434632
 31
0.0
  0
LINE
  5
1701
  8
240
  6
CONTINUOUS
 10
2.0083502772477622
 20
-8.4792089779085416
 30
0.0
 11
4.0509381509446323
 21
-8.4792089779085416
 31
0.0
  0
TEXT
  5
1936
  8
241
  6
CONTINUOUS
 10
2.116955550445315
 20
32.137977011522587
 30
0.0
 40
3.0
  1
EB27AJ
  7
YOKO
  0
LINE
  5
1A61
  8
245
  6
CENTER2
 10
3.8811829051039881
 20
-0.9676875823986431
 30
0.0
 11
-1.4758271858153711
 21
0.3679650447810073
 31
0.0
  0
LINE
  5
1A62
  8
245
  6
CENTER2
 10
-0.0000000000000009
 20
0.0
 30
0.0
 11
21.323331145145691
 21
0.0
 31
0.0
  0
LINE
  5
1B1D
  8
250
  6
CONTINUOUS
 10
2.380281221299954
 20
10.04678653884346
 30
0.0
 11
2.380281221299954
 21
22.0
 31
0.0
  0
LINE
  5
1B1E
  8
250
  6
CONTINUOUS
 10
18.850249381978919
 20
15.05140819094056
 30
0.0
 11
18.850249381978919
 21
22.0
 31
0.0
  0
LINE
  5
1B1F
  8
250
  6
CONTINUOUS
 10
4.6102812212999531
 20
21.0
 30
0.0
 11
16.620249381978919
 21
21.0
 31
0.0
  0
TEXT
  5
1B23
  8
250
  6
CONTINUOUS
 10
4.0819319683061011
 20
23.199999999999999
 30
0.0
 40
2.799999999999998
  1
(16.5)
  0
LINE
  5
1B24
  8
250
  6
CONTINUOUS
 10
16.620249381978919
 20
21.37166666666667
 30
0.0
 11
18.850249381978919
 21
21.0
 31
0.0
  0
LINE
  5
1B25
  8
250
  6
CONTINUOUS
 10
16.620249381978919
 20
20.62833333333333
 30
0.0
 11
18.850249381978919
 21
21.0
 31
0.0
  0
LINE
  5
1B26
  8
250
  6
CONTINUOUS
 10
18.850249381978919
 20
21.0
 30
0.0
 11
16.620249381978919
 21
21.0
 31
0.0
  0
LINE
  5
1B27
  8
250
  6
CONTINUOUS
 10
4.6102812212999531
 20
20.62833333333333
 30
0.0
 11
2.380281221299954
 21
21.0
 31
0.0
  0
LINE
  5
1B28
  8
250
  6
CONTINUOUS
 10
4.6102812212999531
 20
21.37166666666667
 30
0.0
 11
2.380281221299954
 21
21.0
 31
0.0
  0
LINE
  5
1B29
  8
250
  6
CONTINUOUS
 10
2.380281221299954
 20
21.0
 30
0.0
 11
4.6102812212999531
 21
21.0
 31
0.0
  0
LINE
  5
1E51
  8
240
  6
CONTINUOUS
 10
18.268653182083121
 20
14.90781080061589
 30
0.0
 11
16.539545710323551
 21
14.026786538843419
 31
0.0
  0
ARC
  5
1E52
  8
241
  6
CONTINUOUS
 10
9.8851088197576544
 20
10.18725109599178
 30
0.0
 40
0.3999999999999946
 50
117.0
 51
237.0000000000002
  0
LINE
  5
1E53
  8
241
  6
CONTINUOUS
 10
9.6672532057516474
 20
9.8517828688136184
 30
0.0
 11
17.729294397193922
 21
4.616232102419807
 31
0.0
  0
ARC
  5
1E54
  8
240
  6
CONTINUOUS
 10
17.947150011199909
 20
4.9517003295979674
 30
0.0
 40
0.3999999999999808
 50
268.43254373756531
 51
357.00000000000188
  0
LINE
  5
1E55
  8
240
  6
CONTINUOUS
 10
18.346601825101722
 20
4.9307659471008041
 30
0.0
 11
18.849701195880751
 21
14.53047380844338
 31
0.0
  0
ARC
  5
1E56
  8
240
  6
CONTINUOUS
 10
18.450249381978939
 20
14.551408190940551
 30
0.0
 40
0.3999999999999865
 50
357.0000000000004
 51
117.0000000000008
  0
LINE
  5
1E61
  8
241
  6
CONTINUOUS
 10
16.539545710323551
 20
14.026786538843419
 30
0.0
 11
9.7035126198618382
 21
10.543653705667129
 31
0.0
  0
ARC
  5
1E62
  8
241
  6
CONTINUOUS
 10
17.947150011199909
 20
4.9517003295979674
 30
0.0
 40
0.3999999999999808
 50
236.99999999999929
 51
268.43254373756531
  0
LINE
  5
1E81
  8
247
  6
CONTINUOUS
 10
3.630281221299954
 20
5.54678653884352
 30
0.0
 11
8.2648966056299287
 21
5.5467865388434632
 31
0.0
  0
LINE
  5
1E82
  8
247
  6
CONTINUOUS
 10
4.4253877213120134
 20
8.0467865388434632
 30
0.0
 11
3.8232224112425981
 21
5.946786538927455
 31
0.0
  0
LINE
  5
1E83
  8
247
  6
CONTINUOUS
 10
5.0551298177809221
 20
7.0506326927294642
 30
0.0
 11
4.1397452024329207
 21
7.0506326927294642
 31
0.0
  0
ARC
  5
1E84
  8
247
  6
CONTINUOUS
 10
5.2930178193531541
 20
7.6620674715493609
 30
0.0
 40
0.3876715809326743
 50
342.99788967529201
 51
82.92416621851234
  0
ARC
  5
1E85
  8
247
  6
CONTINUOUS
 10
4.9978036644958488
 20
7.7415634078154474
 30
0.0
 40
0.6933047965358768
 50
274.74293685220141
 51
343.84922627326631
1001
GENIUS_GENOBJ-N-FIL_13
1002
{
1000
OWNER
1000
GEN
1002
}
1001
GENIUS_GENODEF_13
1002
{
1000
HIER
1070
     0
1002
}
1002
{
1000
MANEDIT
1070
     0
1002
}
1002
{
1000
NOSEL
1070
     0
1002
}
1002
{
1000
BEHIND
1070
     0
1002
}
1002
{
1000
OTHER
1070
     0
1002
}
1002
{
1000
REACTOR
1002
}
  0
LINE
  5
1E86
  8
247
  6
CONTINUOUS
 10
4.7386070265905991
 20
5.946786538927455
 30
0.0
 11
3.8232224112425981
 21
5.946786538927455
 31
0.0
  0
LINE
  5
1E87
  8
247
  6
CONTINUOUS
 10
4.4253877213120063
 20
8.0467865388434632
 30
0.0
 11
5.3407723366600086
 21
8.0467865388434632
 31
0.0
  0
ARC
  5
1E88
  8
247
  6
CONTINUOUS
 10
5.0019747450331247
 20
6.659369576075588
 30
0.0
 40
0.394857301075386
 50
335.99094165252887
 51
82.263443459069535
  0
ARC
  5
1E89
  8
247
  6
CONTINUOUS
 10
4.6678346108730446
 20
6.6555862115108928
 30
0.0
 40
0.7123241612361686
 50
275.70198516425802
 51
347.27733843682228
1001
GENIUS_GENOBJ-N-FIL_13
1002
{
1000
OWNER
1000
GEN
1002
}
1001
GENIUS_GENODEF_13
1002
{
1000
HIER
1070
     0
1002
}
1002
{
1000
MANEDIT
1070
     0
1002
}
1002
{
1000
NOSEL
1070
     0
1002
}
1002
{
1000
BEHIND
1070
     0
1002
}
1002
{
1000
OTHER
1070
     0
1002
}
1002
{
1000
REACTOR
1002
}
  0
LINE
  5
1E8A
  8
247
  6
CONTINUOUS
 10
5.6962993342365857
 20
5.946786538927455
 30
0.0
 11
6.2984646443059944
 21
8.0467865388434632
 31
0.0
  0
LINE
  5
1E8B
  8
247
  6
CONTINUOUS
 10
7.7946184903919979
 20
8.0467865388434632
 30
0.0
 11
7.3986028569963764
 21
8.0467865388434632
 31
0.0
  0
LINE
  5
1E8C
  8
247
  6
CONTINUOUS
 10
6.7715415673559969
 20
5.946786538927455
 30
0.0
 11
7.2023107981079866
 21
5.946786538927455
 31
0.0
  0
ARC
  5
1E8D
  8
247
  6
CONTINUOUS
 10
7.9984646442299967
 20
6.5884869437600999
 30
0.0
 40
1.576855057639547
 50
112.35948814152729
 51
164.993248542846
  0
ARC
  5
1E8E
  8
247
  6
CONTINUOUS
 10
7.5327698551667348
 20
7.4809676803053238
 30
0.0
 40
0.6234706797009447
 50
4.994589319075371
 51
65.16632895730362
1001
GENIUS_GENOBJ-N-FIL_13
1002
{
1000
OWNER
1000
GEN
1002
}
1001
GENIUS_GENODEF_13
1002
{
1000
HIER
1070
     0
1002
}
1002
{
1000
MANEDIT
1070
     0
1002
}
1002
{
1000
NOSEL
1070
     0
1002
}
1002
{
1000
BEHIND
1070
     0
1002
}
1002
{
1000
OTHER
1070
     0
1002
}
1002
{
1000
REACTOR
1002
}
  0
ARC
  5
1E8F
  8
247
  6
CONTINUOUS
 10
6.9360972702671839
 20
6.8846844168740224
 30
0.0
 40
0.9749472149106983
 50
285.84609655577998
 51
352.32513700416922
  0
ARC
  5
1E90
  8
247
  6
CONTINUOUS
 10
7.3450695825277421
 20
6.6753161368723939
 30
0.0
 40
0.9271945638692009
 50
159.7136016704971
 51
231.78874565640959
1001
GENIUS_GENOBJ-N-FIL_13
1002
{
1000
OWNER
1000
GEN
1002
}
1001
GENIUS_GENODEF_13
1002
{
1000
HIER
1070
     0
1002
}
1002
{
1000
MANEDIT
1070
     0
1002
}
1002
{
1000
NOSEL
1070
     0
1002
}
1002
{
1000
BEHIND
1070
     0
1002
}
1002
{
1000
OTHER
1070
     0
1002
}
1002
{
1000
REACTOR
1002
}
  0
LINE
  5
1E91
  8
247
  6
CONTINUOUS
 10
7.4176954134839974
 20
6.7544788465874861
 30
0.0
 11
7.902310798079994
 21
6.7544788465874861
 31
0.0
  0
ARC
  5
1E92
  8
247
  6
CONTINUOUS
 10
3.630281221299954
 20
6.7967865388434632
 30
0.0
 40
1.25
 50
90.0
 51
270.0
  0
LINE
  5
1E93
  8
247
  6
CONTINUOUS
 10
3.630281221299954
 20
8.0467865388434632
 30
0.0
 11
4.0764350673859591
 21
8.0467865388434632
 31
0.0
  0
ARC
  5
1E94
  8
247
  6
CONTINUOUS
 10
8.2648966056299447
 20
6.7967865388434632
 30
0.0
 40
1.25
 50
270.0
 51
90.0
  0
VIEWPORT
  5
22
 67
     1
  8
0
 10
261.51769911504419
 20
148.5
 30
0.0
 40
523.0353982300885
 41
297.0
 68
     1
 69
     1
1001
ACAD
1000
MVIEW
1002
{
1070
    16
1010
0.0
1020
0.0
1030
0.0
1010
0.0
1020
0.0
1030
1.0
1040
0.0
1040
297.0
1040
261.51769911504419
1040
148.5
1040
50.0
1040
0.0
1040
0.0
1070
     0
1070
   100
1070
     1
1070
     1
1070
     0
1070
     0
1070
     0
1070
     0
1040
0.0
1040
0.0
1040
0.0
1040
1.0
1040
1.0
1040
10.0
1040
10.0
1070
     0
1002
{
1002
}
1002
}
1001
GENIUS_GENODEF_13
1002
{
1000
HIER
1070
     0
1002
}
1002
{
1000
MANEDIT
1070
     0
1002
}
1002
{
1000
NOSEL
1070
     0
1002
}
1002
{
1000
BEHIND
1070
     0
1002
}
1002
{
1000
OTHER
1070
     0
1002
}
1002
{
1000
REACTOR
1002
}
1001
GENIUS_GENOBJ-N-SDF_13
1002
{
1000
OWNER
1000
GEN
1002
}
1001
GENIUS_GENSCREG_15
1000
PF
1040
1.0
1000
DF
1040
1.0
1000
MIN
1011
0.0
1021
0.0
1031
0.0
1021
0.0
1031
0.0
1000
MAX
1011
523.0353982300885
1021
0.0
1031
0.0
1021
297.0
1031
0.0
1000
FLAGS
1070
     4
  0
ENDSEC
  0
EOF
