  0
SECTION
  2
HEADER
  9
$ACADVER
  1
AC1009
  9
$INSBASE
 10
0.0
 20
0.0
 30
0.0
  9
$EXTMIN
 10
-2.2739537922110449
 20
-9.1053672414950597
 30
-0.0000000000112498
  9
$EXTMAX
 10
20.37721116530679
 20
36.08116522145901
 30
0.0000000000002956
  9
$LIMMIN
 10
0.0
 20
0.0
  9
$LIMMAX
 10
297.0
 20
210.0
  9
$ORTHOMODE
 70
     1
  9
$REGENMODE
 70
     1
  9
$FILLMODE
 70
     1
  9
$QTEXTMODE
 70
     0
  9
$MIRRTEXT
 70
     1
  9
$DRAGMODE
 70
     2
  9
$LTSCALE
 40
10.0
  9
$OSMODE
 70
  3071
  9
$ATTMODE
 70
     1
  9
$TEXTSIZE
 40
3.0
  9
$TRACEWID
 40
1.0
  9
$TEXTSTYLE
  7
YOKO
  9
$CLAYER
  8
240
  9
$CELTYPE
  6
BYLAYER
  9
$CECOLOR
 62
   256
  9
$DIMSCALE
 40
1.0
  9
$DIMASZ
 40
2.2299999999999991
  9
$DIMEXO
 40
0.5
  9
$DIMDLI
 40
7.0
  9
$DIMRND
 40
0.0
  9
$DIMDLE
 40
0.0
  9
$DIMEXE
 40
1.0
  9
$DIMTP
 40
0.0
  9
$DIMTM
 40
0.01
  9
$DIMTXT
 40
2.799999999999998
  9
$DIMCEN
 40
0.0
  9
$DIMTSZ
 40
0.0
  9
$DIMTOL
 70
     0
  9
$DIMLIM
 70
     0
  9
$DIMTIH
 70
     0
  9
$DIMTOH
 70
     0
  9
$DIMSE1
 70
     0
  9
$DIMSE2
 70
     0
  9
$DIMTAD
 70
     3
  9
$DIMZIN
 70
     9
  9
$DIMBLK
  1
OPEN
  9
$DIMASO
 70
     1
  9
$DIMSHO
 70
     1
  9
$DIMPOST
  1

  9
$DIMAPOST
  1

  9
$DIMALT
 70
     0
  9
$DIMALTD
 70
     2
  9
$DIMALTF
 40
25.399999999999999
  9
$DIMLFAC
 40
1.0
  9
$DIMTOFL
 70
     1
  9
$DIMTVP
 40
0.0
  9
$DIMTIX
 70
     1
  9
$DIMSOXD
 70
     0
  9
$DIMSAH
 70
     0
  9
$DIMBLK1
  1

  9
$DIMBLK2
  1

  9
$DIMSTYLE
  2
BIGT
  9
$DIMCLRD
 70
   256
  9
$DIMCLRE
 70
   256
  9
$DIMCLRT
 70
    40
  9
$DIMTFAC
 40
1.0
  9
$DIMGAP
 40
1.0
  9
$LUNITS
 70
     2
  9
$LUPREC
 70
     3
  9
$SKETCHINC
 40
1.0
  9
$FILLETRAD
 40
0.0
  9
$AUNITS
 70
     0
  9
$AUPREC
 70
     3
  9
$MENU
  1
.
  9
$ELEVATION
 40
0.0
  9
$PELEVATION
 40
0.0
  9
$THICKNESS
 40
0.0
  9
$LIMCHECK
 70
     0
  9
$BLIPMODE
 70
     0
  9
$CHAMFERA
 40
0.25
  9
$CHAMFERB
 40
0.25
  9
$SKPOLY
 70
     0
  9
$TDCREATE
 40
2456542.6995979282
  9
$TDUPDATE
 40
2457361.704636794
  9
$TDINDWG
 40
0.0260847917
  9
$TDUSRTIMER
 40
0.0260843981
  9
$USRTIMER
 70
     1
  9
$ANGBASE
 50
0.0
  9
$ANGDIR
 70
     0
  9
$PDMODE
 70
     1
  9
$PDSIZE
 40
0.0
  9
$PLINEWID
 40
0.0
  9
$COORDS
 70
     1
  9
$SPLFRAME
 70
     0
  9
$SPLINETYPE
 70
     6
  9
$SPLINESEGS
 70
     4
  9
$ATTDIA
 70
     1
  9
$ATTREQ
 70
     1
  9
$HANDLING
 70
     1
  9
$HANDSEED
  5
1AA6
  9
$SURFTAB1
 70
     6
  9
$SURFTAB2
 70
     6
  9
$SURFTYPE
 70
     6
  9
$SURFU
 70
     6
  9
$SURFV
 70
     6
  9
$UCSNAME
  2

  9
$UCSORG
 10
0.0
 20
0.0
 30
0.0
  9
$UCSXDIR
 10
1.0
 20
0.0
 30
0.0
  9
$UCSYDIR
 10
0.0
 20
1.0
 30
0.0
  9
$PUCSNAME
  2

  9
$PUCSORG
 10
0.0
 20
0.0
 30
0.0
  9
$PUCSXDIR
 10
1.0
 20
0.0
 30
0.0
  9
$PUCSYDIR
 10
0.0
 20
1.0
 30
0.0
  9
$USERI1
 70
     1
  9
$USERI2
 70
     0
  9
$USERI3
 70
     0
  9
$USERI4
 70
     0
  9
$USERI5
 70
     0
  9
$USERR1
 40
0.0
  9
$USERR2
 40
0.0
  9
$USERR3
 40
0.0
  9
$USERR4
 40
0.0
  9
$USERR5
 40
0.0
  9
$WORLDVIEW
 70
     1
  9
$SHADEDGE
 70
     3
  9
$SHADEDIF
 70
    70
  9
$TILEMODE
 70
     1
  9
$MAXACTVP
 70
    16
  9
$PLIMCHECK
 70
     0
  9
$PEXTMIN
 10
1.0000000000000000E+020
 20
1.0000000000000000E+020
 30
1.0000000000000000E+020
  9
$PEXTMAX
 10
-1.0000000000000000E+020
 20
-1.0000000000000000E+020
 30
-1.0000000000000000E+020
  9
$PLIMMIN
 10
0.0
 20
0.0
  9
$PLIMMAX
 10
420.0
 20
297.0
  9
$UNITMODE
 70
     0
  9
$VISRETAIN
 70
     1
  9
$PLINEGEN
 70
     0
  9
$PSLTSCALE
 70
     1
  0
ENDSEC
  0
SECTION
  2
TABLES
  0
TABLE
  2
VPORT
 70
     1
  0
VPORT
  2
*ACTIVE
 70
     0
 10
0.0
 20
0.0
 11
1.0
 21
1.0
 12
9.0516286865478701
 22
13.48789898998197
 13
0.0
 23
0.0
 14
7.0
 24
7.0
 15
7.0
 25
7.0
 16
0.0
 26
0.0
 36
1.0
 17
0.0
 27
0.0
 37
0.0
 40
45.487776012707087
 41
1.541713014460512
 42
50.0
 43
0.0
 44
0.0
 50
0.0
 51
0.0
 71
     0
 72
  2000
 73
     1
 74
     0
 75
     0
 76
     0
 77
     0
 78
     0
  0
ENDTAB
  0
TABLE
  2
LTYPE
 70
    17
  0
LTYPE
  2
CONTINUOUS
 70
     0
  3
Solid line
 72
    65
 73
     0
 40
0.0
  0
LTYPE
  2
CENTER2
 70
     0
  3
___ _ ___ _ ___ _ ___ _ ___ _ ___ _ ___ _ ___ _
 72
    65
 73
     4
 40
1.125
 49
0.75
 49
-0.125
 49
0.125
 49
-0.125
  0
LTYPE
  2
HIDDEN2
 70
     0
  3
_ _ _ _ _ _ _ _ _ _ _ _ _ _ _ _ _ _ _ _ _ _ _ _
 72
    65
 73
     2
 40
0.1875
 49
0.125
 49
-0.0625
  0
LTYPE
  2
PHANTOM2
 70
     0
  3
___ _ _ ___ _ _ ___ _ _ ___ _ _ ___ _ _ ___ _ _
 72
    65
 73
     6
 40
1.25
 49
0.625
 49
-0.125
 49
0.125
 49
-0.125
 49
0.125
 49
-0.125
  0
LTYPE
  2
CENTER
 70
     0
  3
____ _ ____ _ ____ _ ____ _ ____ _ ____ _ ____ 
 72
    65
 73
     4
 40
2.0
 49
1.25
 49
-0.25
 49
0.25
 49
-0.25
  0
LTYPE
  2
AMCONSTR
 70
     0
  3
_______________________
 72
    65
 73
     2
 40
9999.0
 49
9999.0
 49
0.0
  0
LTYPE
  2
HIDDEN
 70
     0
  3
Hidden __ __ __ __ __ __ __ __ __ __ __ __ __ _
 72
    65
 73
     2
 40
9.5249999999999986
 49
6.349999999999997
 49
-3.174999999999998
  0
LTYPE
  2
AMZIGZAG2
 70
     0
  3
/\/-/\/-/\/-/\/-/\/-/\/
 72
    65
 73
     2
 40
0.4401
 49
0.0001
 49
-0.4400000000000003
  0
LTYPE
  2
ACANSTGB
 70
     0
  3
__ . . __ . .
 72
    65
 73
     6
 40
0.35433070866
 49
0.15748031496
 49
-0.03937007874
 49
0.03937007874
 49
-0.03937007874
 49
0.03937007874
 49
-0.03937007874
  0
LTYPE
  2
ACANSTGL
 70
     0
  3
_ _ _ _ _
 72
    65
 73
     2
 40
0.11811023622
 49
0.07874015748
 49
-0.03937007874
  0
ENDTAB
  0
TABLE
  2
LAYER
 70
     9
  0
LAYER
  2
0
 70
     0
 62
     7
  6
CONTINUOUS
  0
LAYER
  2
240
 70
     0
 62
     4
  6
CONTINUOUS
  0
LAYER
  2
245
 70
     0
 62
     2
  6
CENTER2
  0
LAYER
  2
DEFPOINTS
 70
     0
 62
     7
  6
CONTINUOUS
  0
LAYER
  2
241
 70
     0
 62
   211
  6
CONTINUOUS
  0
LAYER
  2
243
 70
     0
 62
   211
  6
HIDDEN2
  0
LAYER
  2
AM_5
 70
     0
 62
     3
  6
CONTINUOUS
  0
LAYER
  2
247
 70
     0
 62
    60
  6
CONTINUOUS
  0
ENDTAB
  0
TABLE
  2
STYLE
 70
     6
  0
STYLE
  2
STANDARD
 70
     0
 40
0.0
 41
1.0
 50
0.0
 71
     0
 42
3.0
  3
romans.shx
  4
extfont.shx
  0
STYLE
  2
YOKO
 70
     0
 40
0.0
 41
1.0
 50
0.0
 71
     0
 42
3.0
  3
romans.shx
  4
extfont.shx
  0
STYLE
  2
ACANSGDT
 70
     0
 40
0.0
 41
1.0
 50
0.0
 71
     0
 42
3.0
  3
amgdt.shx
  4

  0
ENDTAB
  0
TABLE
  2
VIEW
 70
     0
  0
ENDTAB
  0
TABLE
  2
UCS
 70
     0
  0
ENDTAB
  0
TABLE
  2
APPID
 70
    38
  0
APPID
  2
ACAD
 70
     0
  0
APPID
  2
ACADANNOTATIVE
 70
     0
  0
APPID
  2
GLOBAL
 70
     0
  0
APPID
  2
DETAIL
 70
     0
  0
APPID
  2
GRPNAME
 70
     0
  0
APPID
  2
GPARA
 70
     0
  0
APPID
  2
MCAD_NO_VIS
 70
     0
  0
APPID
  2
ACAD_TEMP_GRAPHIC
 70
     0
  0
APPID
  2
ACATTRIBSERVICES
 70
     0
  0
APPID
  2
GENIUS_GENSCREG_15
 70
     0
  0
APPID
  2
GENIUS_GENODEF_13
 70
     0
  0
APPID
  2
GENIUS_GENOBJ-N-SDF_13
 70
     0
  0
APPID
  2
GENIUS_GENREC_14
 70
     0
  0
APPID
  2
GENIUS_GENOBJ-N-REC_13
 70
     0
  0
APPID
  2
GENIUS_GENDIMSH_14
 70
     0
  0
APPID
  2
GENIUS_GENOBJ-N-DIM_13
 70
     0
  0
APPID
  2
GENIUS_GENDIM_13
 70
     0
  0
APPID
  2
GENIUS_GENDTOL_13
 70
     0
  0
APPID
  2
GENIUS_GENOLIS_13
 70
     0
  0
APPID
  2
GENIUS_GENOENT_13
 70
     0
  0
APPID
  2
GENIUS_GENOBJ-F-FEM_13
 70
     0
  0
APPID
  2
GENIUS_GENOREF_13
 70
     0
  0
APPID
  2
GENIUS_GEFFEM_13
 70
     0
  0
APPID
  2
GENIUS_GEFFEMP_13
 70
     0
  0
APPID
  2
AD_DRAW
 70
     0
  0
APPID
  2
DESIGNERASSEMBLIES
 70
     0
  0
APPID
  2
ACADM_DIM_EDIT
 70
     0
  0
APPID
  2
AMDT_DM_ADJ
 70
     0
  0
APPID
  2
ACAD_PSEXT
 70
     0
  0
APPID
  2
ACAD_DSTYLE_DIMBREAK
 70
     0
  0
APPID
  2
ACAD_DSTYLE_DIMJAG
 70
     0
  0
APPID
  2
ACAD_NAV_VCDISPLAY
 70
     0
  0
APPID
  2
ACAD_EXEMPT_FROM_CAD_STANDARDS
 70
     0
  0
APPID
  2
ITEMNAME
 70
     0
  0
APPID
  2
GENIUS_GENOBJ-N-FIL_13
 70
     0
  0
APPID
  2
GENIUS_GENFIL_13
 70
     0
  0
APPID
  2
GENIUS_GENOBJ-N-CHA_13
 70
     0
  0
APPID
  2
ACAD_MLEADERVER
 70
     0
  0
ENDTAB
  0
TABLE
  2
DIMSTYLE
 70
    10
  0
DIMSTYLE
  2
STANDARD
 70
     0
  3

  4

  5

  6

  7

 40
1.0
 41
0.18
 42
0.0625
 43
0.38
 44
0.18
 45
0.0
 46
0.0
 47
0.0
 48
0.0
140
0.18
141
0.09
142
0.0
143
25.399999999999999
144
1.0
145
0.0
146
1.0
147
0.09
 71
     0
 72
     0
 73
     1
 74
     1
 75
     0
 76
     0
 77
     0
 78
     0
170
     0
171
     2
172
     0
173
     0
174
     0
175
     0
176
     0
177
     0
178
     0
  0
DIMSTYLE
  2
BIGT
 70
     0
  3

  4

  5

  6

  7

 40
1.0
 41
2.2299999999999991
 42
0.5
 43
7.0
 44
1.0
 45
0.0
 46
0.0
 47
0.0
 48
0.01
140
2.799999999999998
141
0.0
142
0.0
143
25.399999999999999
144
1.0
145
0.0
146
1.0
147
1.0
 71
     0
 72
     0
 73
     0
 74
     0
 75
     0
 76
     0
 77
     3
 78
     9
170
     0
171
     2
172
     1
173
     0
174
     1
175
     0
176
   256
177
   256
178
    40
  0
DIMSTYLE
  2
AM_ANSI
 70
     0
  3

  4
mm
  5

  6

  7

 40
1.0
 41
0.1
 42
0.05
 43
0.5
 44
0.1
 45
0.0
 46
0.0
 47
0.1
 48
0.1
140
0.12
141
0.0
142
0.0
143
25.399999999999999
144
1.0
145
0.0
146
0.71
147
0.06
 71
     0
 72
     0
 73
     1
 74
     1
 75
     0
 76
     0
 77
     0
 78
     7
170
     0
171
     2
172
     0
173
     0
174
     0
175
     0
176
   256
177
   256
178
     2
  0
DIMSTYLE
  2
AM_ANSI$3
 70
     0
  3

  4
mm
  5

  6

  7

 40
1.0
 41
0.1
 42
0.05
 43
0.5
 44
0.1
 45
0.0
 46
0.0
 47
0.1
 48
0.1
140
0.12
141
0.0
142
0.0
143
25.399999999999999
144
1.0
145
0.0
146
0.71
147
0.06
 71
     0
 72
     0
 73
     1
 74
     1
 75
     0
 76
     0
 77
     0
 78
     7
170
     0
171
     2
172
     0
173
     0
174
     0
175
     0
176
   256
177
   256
178
     2
  0
DIMSTYLE
  2
AM_ANSI$4
 70
     0
  3

  4
mm
  5

  6

  7

 40
1.0
 41
0.1
 42
0.05
 43
0.5
 44
0.1
 45
0.0
 46
0.0
 47
0.1
 48
0.1
140
0.12
141
0.0
142
0.0
143
25.399999999999999
144
1.0
145
0.0
146
0.71
147
0.06
 71
     0
 72
     0
 73
     1
 74
     1
 75
     0
 76
     0
 77
     0
 78
     7
170
     0
171
     2
172
     0
173
     0
174
     0
175
     0
176
   256
177
   256
178
     2
  0
DIMSTYLE
  2
AM_ANSI$7
 70
     0
  3

  4
mm
  5

  6

  7

 40
1.0
 41
0.1
 42
0.05
 43
0.5
 44
0.1
 45
0.0
 46
0.0
 47
0.1
 48
0.1
140
0.24
141
0.0
142
0.0
143
25.399999999999999
144
1.0
145
0.0
146
0.71
147
0.06
 71
     0
 72
     0
 73
     1
 74
     1
 75
     0
 76
     0
 77
     0
 78
     7
170
     0
171
     2
172
     0
173
     0
174
     0
175
     0
176
   256
177
   256
178
     2
  0
DIMSTYLE
  2
AM_ANSI$SF
 70
     0
  3

  4
mm
  5

  6

  7

 40
1.0
 41
0.1
 42
0.05
 43
0.5
 44
0.1
 45
0.0
 46
0.0
 47
0.1
 48
0.1
140
0.12
141
0.0
142
0.0
143
25.399999999999999
144
1.0
145
0.0
146
0.71
147
0.06
 71
     0
 72
     0
 73
     1
 74
     1
 75
     1
 76
     1
 77
     0
 78
     7
170
     0
171
     2
172
     0
173
     0
174
     0
175
     0
176
   256
177
   256
178
     2
  0
DIMSTYLE
  2
AM_ANSI$SH
 70
     0
  3

  4
mm
  5

  6

  7

 40
1.0
 41
0.1
 42
0.05
 43
0.5
 44
0.1
 45
0.0
 46
0.0
 47
0.1
 48
0.1
140
0.12
141
0.0
142
0.0
143
25.399999999999999
144
1.0
145
0.0
146
0.71
147
0.06
 71
     0
 72
     0
 73
     1
 74
     1
 75
     1
 76
     1
 77
     0
 78
     7
170
     0
171
     2
172
     0
173
     1
174
     0
175
     0
176
   256
177
   256
178
     2
  0
ENDTAB
  0
ENDSEC
  0
SECTION
  2
BLOCKS
  0
BLOCK
  8
0
  2
$MODEL_SPACE
 70
     0
 10
0.0
 20
0.0
 30
0.0
  3
$MODEL_SPACE
  1

  0
ENDBLK
  5
1947
  8
0
  0
BLOCK
 67
     1
  8
0
  2
$PAPER_SPACE
 70
     0
 10
0.0
 20
0.0
 30
0.0
  3
$PAPER_SPACE
  1

  0
ENDBLK
  5
1943
 67
     1
  8
0
  0
BLOCK
  8
0
  2
_OPEN
 70
     0
 10
0.0
 20
0.0
 30
0.0
  3
_OPEN
  1

  0
LINE
  5
146E
  8
0
  6
BYBLOCK
 62
     0
 10
-1.0
 20
0.1666666666666666
 30
0.0
 11
0.0
 21
0.0
 31
0.0
  0
LINE
  5
146F
  8
0
  6
BYBLOCK
 62
     0
 10
-1.0
 20
-0.1666666666666666
 30
0.0
 11
0.0
 21
0.0
 31
0.0
  0
LINE
  5
1470
  8
0
  6
BYBLOCK
 62
     0
 10
0.0
 20
0.0
 30
0.0
 11
-1.0
 21
0.0
 31
0.0
  0
ENDBLK
  5
1471
  8
0
  0
BLOCK
  8
0
  2
_ACMFILLEDHALF
 70
     0
 10
0.0
 20
0.0
 30
0.0
  3
_ACMFILLEDHALF
  1

  0
TRACE
  5
19DF
  8
240
 62
     0
 10
-0.8
 20
0.0
 30
0.0
 11
-1.0
 21
0.166666666
 31
0.0
 12
0.0
 22
0.0
 32
0.0
 13
0.0
 23
0.0
 33
0.0
  0
LINE
  5
19E0
  8
240
 62
     0
 10
-1.0
 20
0.0
 30
0.0
 11
-0.8
 21
0.0
 31
0.0
  0
ENDBLK
  5
19DE
  8
0
  0
ENDSEC
  0
SECTION
  2
ENTITIES
  0
LINE
  5
138D
  8
243
  6
HIDDEN2
 10
2.952202826001296
 20
-4.6936231712985004
 30
0.0
 11
-0.9289800791027003
 21
-3.7259355888998562
 31
0.0
  0
LINE
  5
138E
  8
240
  6
CONTINUOUS
 10
17.908702148521169
 20
1.8030375170544271
 30
0.0
 11
17.779233093328031
 21
-0.6673792219172903
 31
0.0
  0
LINE
  5
1390
  8
243
  6
HIDDEN2
 10
5.245622396286107
 20
4.5047803137979612
 30
0.0
 11
4.1811660556475374
 21
0.2354791181835445
 31
0.0
  0
LINE
  5
1391
  8
243
  6
HIDDEN2
 10
2.1018506153173151
 20
-8.1041996047000886
 30
0.0
 11
4.1811660556475374
 21
0.2354791181835445
 31
0.0
  0
LINE
  5
1392
  8
243
  6
HIDDEN2
 10
4.810162984206694
 20
2.7582480065011872
 30
0.0
 11
0.928980079102729
 21
3.725935588899834
 31
0.0
  0
LINE
  5
1393
  8
245
  6
CENTER2
 10
3.8811829051039961
 20
-0.9676875823986428
 30
0.0
 11
-0.9702957262759641
 21
0.2419218955996563
 31
0.0
  0
LINE
  5
1394
  8
243
  6
HIDDEN2
 10
17.88513739749132
 20
1.3533952816411521
 30
0.0
 11
5.245622396286107
 21
4.5047803137979612
 31
0.0
  0
LINE
  5
1396
  8
240
  6
CONTINUOUS
 10
1.8530645658487681
 20
-9.1020259484382144
 30
0.0
 11
-2.269389951550834
 21
-9.1020259484382144
 31
0.0
  0
LINE
  5
1397
  8
241
  6
CONTINUOUS
 10
12.66423040341075
 20
4.9979740515617772
 30
0.0
 11
6.3669477213762491
 21
4.9979740515617772
 31
0.0
  0
LINE
  5
1398
  8
241
  6
CONTINUOUS
 10
6.3669477213762491
 20
4.9979740515617772
 30
0.0
 11
1.2461348885379091
 21
4.9979740515617772
 31
0.0
  0
LINE
  5
1399
  8
241
  6
CONTINUOUS
 10
6.3669477213762491
 20
4.9979740515617772
 30
0.0
 11
16.356074085073459
 21
-1.489040458432729
 31
0.0
  0
LINE
  5
139A
  8
240
  6
CONTINUOUS
 10
2.5675733036067352
 20
10.297974051561759
 30
0.0
 11
-2.269389951550834
 21
-9.1020259484382144
 31
0.0
  0
LINE
  5
139B
  8
241
  6
CONTINUOUS
 10
-1.6861273677802431
 20
-6.7626874982061631
 30
0.0
 11
7.2218494710006382
 21
-6.7626874982061631
 31
0.0
  0
LINE
  5
139C
  8
240
  6
CONTINUOUS
 10
12.19999641909928
 20
11.297974051561759
 30
0.0
 11
16.55242046437823
 21
11.297974051561759
 31
0.0
  0
LINE
  5
139D
  8
240
  6
CONTINUOUS
 10
4.8982823435843841
 20
-8.1041996047000886
 30
0.0
 11
2.1018506153173151
 21
-8.1041996047000886
 31
0.0
  0
LINE
  5
139E
  8
240
  6
CONTINUOUS
 10
10.237385913594069
 20
10.297974051561759
 30
0.0
 11
2.5675733036067352
 21
10.297974051561759
 31
0.0
  0
LINE
  5
139F
  8
241
  6
CONTINUOUS
 10
12.66423040341075
 20
4.9979740515617772
 30
0.0
 11
17.898015000915191
 21
1.599114592782195
 31
0.0
  0
LINE
  5
13A2
  8
240
  6
CONTINUOUS
 10
12.19999641909928
 20
11.297974051561759
 30
0.0
 11
10.237385913594069
 21
10.297974051561759
 31
0.0
  0
LINE
  5
13A4
  8
240
  6
CONTINUOUS
 10
17.779233093328031
 20
-0.6673792219172903
 30
0.0
 11
4.89828211798996
 21
-8.1041998967261897
 31
0.0
  0
LINE
  5
13A5
  8
245
  6
CENTER2
 10
0.0000000000000284
 20
-0.0000000000000036
 30
0.0
 11
20.362166608336651
 21
-0.0000000000000036
 31
0.0
  0
LINE
  5
13A6
  8
240
  6
CONTINUOUS
 10
1.8530645658487681
 20
-9.1020259484382144
 30
0.0
 11
2.1018506153173151
 21
-8.1041996047000886
 31
0.0
  0
TEXT
  5
13E0
  8
241
  6
CONTINUOUS
 10
3.444339589896797
 20
33.078418420246379
 30
0.0
 40
3.0
  1
EB22AJ
  7
YOKO
  0
LINE
  5
18AF
  8
AM_5
 10
2.5675733036067352
 20
10.797974051561759
 30
0.0
 11
2.5675733036067361
 21
22.0
 31
0.0
  0
LINE
  5
18B0
  8
AM_5
 10
18.822743063432789
 20
12.30259570365884
 30
0.0
 11
18.822743063432789
 21
22.0
 31
0.0
  0
LINE
  5
18B1
  8
AM_5
 10
4.7975733036067343
 20
21.0
 30
0.0
 11
16.592743063432781
 21
21.0
 31
0.0
  0
LINE
  5
18B7
  8
AM_5
 10
16.592743063432781
 20
21.37166666666667
 30
0.0
 11
18.822743063432789
 21
21.0
 31
0.0
  0
LINE
  5
18B8
  8
AM_5
 10
16.592743063432781
 20
20.62833333333333
 30
0.0
 11
18.822743063432789
 21
21.0
 31
0.0
  0
LINE
  5
18B9
  8
AM_5
 10
18.822743063432789
 20
21.0
 30
0.0
 11
16.592743063432781
 21
21.0
 31
0.0
  0
LINE
  5
18BA
  8
AM_5
 10
4.7975733036067343
 20
20.62833333333333
 30
0.0
 11
2.5675733036067352
 21
21.0
 31
0.0
  0
LINE
  5
18BB
  8
AM_5
 10
4.7975733036067343
 20
21.37166666666667
 30
0.0
 11
2.5675733036067352
 21
21.0
 31
0.0
  0
LINE
  5
18BC
  8
AM_5
 10
2.5675733036067352
 20
21.0
 30
0.0
 11
4.7975733036067343
 21
21.0
 31
0.0
  0
TEXT
  5
18BD
  8
AM_5
 10
3.92459547281817
 20
23.223487995224811
 30
0.0
 40
2.799999999999998
  1
(16.3)
  7
YOKO
  0
LINE
  5
19FE
  8
240
  6
CONTINUOUS
 10
18.241146863537001
 20
12.15899831333417
 30
0.0
 11
16.551291601887652
 21
11.297974051561759
 31
0.0
  0
ARC
  5
19FF
  8
241
  6
CONTINUOUS
 10
9.8576025012115291
 20
7.4384386087100696
 30
0.0
 40
0.4000000000000002
 50
117.0000000000001
 51
237.0
  0
LINE
  5
1A00
  8
241
  6
CONTINUOUS
 10
9.6397468872055185
 20
7.1029703815319003
 30
0.0
 11
17.701788078647809
 21
1.867419615138088
 31
0.0
  0
ARC
  5
1A01
  8
240
  6
CONTINUOUS
 10
17.9196436926538
 20
2.202887842316247
 30
0.0
 40
0.399999999999981
 50
268.43254373756128
 51
357.00000000000182
  0
LINE
  5
1A02
  8
240
  6
CONTINUOUS
 10
18.319095506555609
 20
2.1819534598190842
 30
0.0
 11
18.822194877334621
 21
11.781661321161661
 31
0.0
  0
ARC
  5
1A03
  8
240
  6
CONTINUOUS
 10
18.422743063432812
 20
11.80259570365884
 30
0.0
 40
0.3999999999999831
 50
356.99999999999989
 51
116.9999999999995
  0
ARC
  5
1A0E
  8
241
  6
CONTINUOUS
 10
17.9196436926538
 20
2.202887842316247
 30
0.0
 40
0.3999999999999876
 50
236.9999999999996
 51
268.43254373756128
  0
LINE
  5
1A0F
  8
241
  6
CONTINUOUS
 10
16.551291601887652
 20
11.297974051561759
 30
0.0
 11
9.6760063013157112
 21
7.7948412183854181
 31
0.0
  0
LINE
  5
1A32
  8
247
  6
CONTINUOUS
 10
3.3175733036067352
 20
5.2979740515618161
 30
0.0
 11
7.9521886879367107
 21
5.2979740515617593
 31
0.0
  0
LINE
  5
1A33
  8
247
  6
CONTINUOUS
 10
4.1126798036187937
 20
7.7979740515617593
 30
0.0
 11
3.5105144935493788
 21
5.6979740516457511
 31
0.0
  0
LINE
  5
1A34
  8
247
  6
CONTINUOUS
 10
4.742421900087705
 20
6.8018202054477612
 30
0.0
 11
3.8270372847397018
 21
6.8018202054477612
 31
0.0
  0
ARC
  5
1A35
  8
247
  6
CONTINUOUS
 10
4.9803099016599361
 20
7.4132549842676569
 30
0.0
 40
0.3876715809326743
 50
342.9978896752919
 51
82.92416621851234
  0
ARC
  5
1A36
  8
247
  6
CONTINUOUS
 10
4.68509574680263
 20
7.4927509205337444
 30
0.0
 40
0.6933047965358768
 50
274.74293685220141
 51
343.8492262732662
1001
GENIUS_GENOBJ-N-FIL_13
1002
{
1000
OWNER
1000
GEN
1002
}
1001
GENIUS_GENODEF_13
1002
{
1000
HIER
1070
     0
1002
}
1002
{
1000
MANEDIT
1070
     0
1002
}
1002
{
1000
NOSEL
1070
     0
1002
}
1002
{
1000
BEHIND
1070
     0
1002
}
1002
{
1000
OTHER
1070
     0
1002
}
1002
{
1000
REACTOR
1002
}
  0
LINE
  5
1A37
  8
247
  6
CONTINUOUS
 10
4.4258991088973811
 20
5.6979740516457511
 30
0.0
 11
3.5105144935493788
 21
5.6979740516457511
 31
0.0
  0
LINE
  5
1A38
  8
247
  6
CONTINUOUS
 10
4.1126798036187866
 20
7.7979740515617593
 30
0.0
 11
5.0280644189667898
 21
7.7979740515617593
 31
0.0
  0
ARC
  5
1A39
  8
247
  6
CONTINUOUS
 10
4.6892668273399059
 20
6.4105570887938841
 30
0.0
 40
0.394857301075386
 50
335.99094165252882
 51
82.263443459069535
  0
ARC
  5
1A3A
  8
247
  6
CONTINUOUS
 10
4.3551266931798258
 20
6.4067737242291889
 30
0.0
 40
0.7123241612361686
 50
275.70198516425802
 51
347.27733843682228
1001
GENIUS_GENOBJ-N-FIL_13
1002
{
1000
OWNER
1000
GEN
1002
}
1001
GENIUS_GENODEF_13
1002
{
1000
HIER
1070
     0
1002
}
1002
{
1000
MANEDIT
1070
     0
1002
}
1002
{
1000
NOSEL
1070
     0
1002
}
1002
{
1000
BEHIND
1070
     0
1002
}
1002
{
1000
OTHER
1070
     0
1002
}
1002
{
1000
REACTOR
1002
}
  0
LINE
  5
1A3B
  8
247
  6
CONTINUOUS
 10
5.3835914165433669
 20
5.6979740516457511
 30
0.0
 11
5.9857567266127747
 21
7.7979740515617593
 31
0.0
  0
LINE
  5
1A3C
  8
247
  6
CONTINUOUS
 10
7.48191057269878
 20
7.7979740515617593
 30
0.0
 11
7.0858949393031567
 21
7.7979740515617593
 31
0.0
  0
LINE
  5
1A3D
  8
247
  6
CONTINUOUS
 10
6.4588336496627781
 20
5.6979740516457511
 30
0.0
 11
6.8896028804147678
 21
5.6979740516457511
 31
0.0
  0
ARC
  5
1A3E
  8
247
  6
CONTINUOUS
 10
7.6857567265367797
 20
6.339674456478396
 30
0.0
 40
1.576855057639547
 50
112.35948814152729
 51
164.993248542846
  0
ARC
  5
1A3F
  8
247
  6
CONTINUOUS
 10
7.220061937473516
 20
7.2321551930236199
 30
0.0
 40
0.6234706797009447
 50
4.994589319075371
 51
65.166328957303591
1001
GENIUS_GENOBJ-N-FIL_13
1002
{
1000
OWNER
1000
GEN
1002
}
1001
GENIUS_GENODEF_13
1002
{
1000
HIER
1070
     0
1002
}
1002
{
1000
MANEDIT
1070
     0
1002
}
1002
{
1000
NOSEL
1070
     0
1002
}
1002
{
1000
BEHIND
1070
     0
1002
}
1002
{
1000
OTHER
1070
     0
1002
}
1002
{
1000
REACTOR
1002
}
  0
ARC
  5
1A40
  8
247
  6
CONTINUOUS
 10
6.6233893525739651
 20
6.6358719295923168
 30
0.0
 40
0.9749472149106983
 50
285.84609655577998
 51
352.32513700416911
  0
ARC
  5
1A41
  8
247
  6
CONTINUOUS
 10
7.0323616648345233
 20
6.42650364959069
 30
0.0
 40
0.9271945638692009
 50
159.7136016704971
 51
231.78874565640959
1001
GENIUS_GENOBJ-N-FIL_13
1002
{
1000
OWNER
1000
GEN
1002
}
1001
GENIUS_GENODEF_13
1002
{
1000
HIER
1070
     0
1002
}
1002
{
1000
MANEDIT
1070
     0
1002
}
1002
{
1000
NOSEL
1070
     0
1002
}
1002
{
1000
BEHIND
1070
     0
1002
}
1002
{
1000
OTHER
1070
     0
1002
}
1002
{
1000
REACTOR
1002
}
  0
LINE
  5
1A42
  8
247
  6
CONTINUOUS
 10
7.1049874957907777
 20
6.5056663593057831
 30
0.0
 11
7.589602880386777
 21
6.5056663593057831
 31
0.0
  0
ARC
  5
1A43
  8
247
  6
CONTINUOUS
 10
3.3175733036067352
 20
6.5479740515617593
 30
0.0
 40
1.25
 50
90.0
 51
270.0
  0
LINE
  5
1A44
  8
247
  6
CONTINUOUS
 10
3.3175733036067352
 20
7.7979740515617593
 30
0.0
 11
3.7637271496927411
 21
7.7979740515617593
 31
0.0
  0
ARC
  5
1A45
  8
247
  6
CONTINUOUS
 10
7.952188687936725
 20
6.5479740515617593
 30
0.0
 40
1.25
 50
270.0
 51
90.0
  0
VIEWPORT
  5
22
 67
     1
  8
0
 10
261.51769911504419
 20
148.5
 30
0.0
 40
523.0353982300885
 41
297.0
 68
     1
 69
     1
1001
ACAD
1000
MVIEW
1002
{
1070
    16
1010
0.0
1020
0.0
1030
0.0
1010
0.0
1020
0.0
1030
1.0
1040
0.0
1040
297.0
1040
261.51769911504419
1040
148.5
1040
50.0
1040
0.0
1040
0.0
1070
     0
1070
   100
1070
     1
1070
     1
1070
     0
1070
     0
1070
     0
1070
     0
1040
0.0
1040
0.0
1040
0.0
1040
1.0
1040
1.0
1040
10.0
1040
10.0
1070
     0
1002
{
1002
}
1002
}
1001
GENIUS_GENODEF_13
1002
{
1000
HIER
1070
     0
1002
}
1002
{
1000
MANEDIT
1070
     0
1002
}
1002
{
1000
NOSEL
1070
     0
1002
}
1002
{
1000
BEHIND
1070
     0
1002
}
1002
{
1000
OTHER
1070
     0
1002
}
1002
{
1000
REACTOR
1002
}
1001
GENIUS_GENOBJ-N-SDF_13
1002
{
1000
OWNER
1000
GEN
1002
}
1001
GENIUS_GENSCREG_15
1000
PF
1040
1.0
1000
DF
1040
1.0
1000
MIN
1011
0.0
1021
0.0
1031
0.0
1021
0.0
1031
0.0
1000
MAX
1011
523.0353982300885
1021
0.0
1031
0.0
1021
297.0
1031
0.0
1000
FLAGS
1070
     4
  0
ENDSEC
  0
EOF
