  0
SECTION
  2
HEADER
  9
$ACADVER
  1
AC1009
  9
$INSBASE
 10
0.0
 20
0.0
 30
0.0
  9
$EXTMIN
 10
-1.956416450638812
 20
-7.5247929767955384
 30
-0.0015258207003583
  9
$EXTMAX
 10
22.721696946745279
 20
34.345194761459076
 30
0.0000000349246037
  9
$LIMMIN
 10
0.0
 20
0.0
  9
$LIMMAX
 10
297.0
 20
210.0
  9
$ORTHOMODE
 70
     1
  9
$REGENMODE
 70
     1
  9
$FILLMODE
 70
     1
  9
$QTEXTMODE
 70
     0
  9
$MIRRTEXT
 70
     1
  9
$DRAGMODE
 70
     2
  9
$LTSCALE
 40
10.0
  9
$OSMODE
 70
  3071
  9
$ATTMODE
 70
     1
  9
$TEXTSIZE
 40
3.0
  9
$TRACEWID
 40
1.0
  9
$TEXTSTYLE
  7
YOKO
  9
$CLAYER
  8
240
  9
$CELTYPE
  6
BYLAYER
  9
$CECOLOR
 62
   256
  9
$DIMSCALE
 40
1.0
  9
$DIMASZ
 40
2.2299999999999991
  9
$DIMEXO
 40
0.5
  9
$DIMDLI
 40
7.0
  9
$DIMRND
 40
0.0
  9
$DIMDLE
 40
0.0
  9
$DIMEXE
 40
1.0
  9
$DIMTP
 40
0.0
  9
$DIMTM
 40
0.01
  9
$DIMTXT
 40
2.799999999999998
  9
$DIMCEN
 40
0.0
  9
$DIMTSZ
 40
0.0
  9
$DIMTOL
 70
     0
  9
$DIMLIM
 70
     0
  9
$DIMTIH
 70
     0
  9
$DIMTOH
 70
     0
  9
$DIMSE1
 70
     0
  9
$DIMSE2
 70
     0
  9
$DIMTAD
 70
     3
  9
$DIMZIN
 70
     9
  9
$DIMBLK
  1
OPEN
  9
$DIMASO
 70
     1
  9
$DIMSHO
 70
     1
  9
$DIMPOST
  1

  9
$DIMAPOST
  1

  9
$DIMALT
 70
     0
  9
$DIMALTD
 70
     2
  9
$DIMALTF
 40
25.399999999999999
  9
$DIMLFAC
 40
1.0
  9
$DIMTOFL
 70
     1
  9
$DIMTVP
 40
0.0
  9
$DIMTIX
 70
     1
  9
$DIMSOXD
 70
     0
  9
$DIMSAH
 70
     0
  9
$DIMBLK1
  1

  9
$DIMBLK2
  1

  9
$DIMSTYLE
  2
BIGT
  9
$DIMCLRD
 70
   256
  9
$DIMCLRE
 70
   256
  9
$DIMCLRT
 70
    40
  9
$DIMTFAC
 40
1.0
  9
$DIMGAP
 40
1.0
  9
$LUNITS
 70
     2
  9
$LUPREC
 70
     3
  9
$SKETCHINC
 40
1.0
  9
$FILLETRAD
 40
0.0
  9
$AUNITS
 70
     0
  9
$AUPREC
 70
     3
  9
$MENU
  1
.
  9
$ELEVATION
 40
0.0
  9
$PELEVATION
 40
0.0
  9
$THICKNESS
 40
0.0
  9
$LIMCHECK
 70
     0
  9
$BLIPMODE
 70
     0
  9
$CHAMFERA
 40
0.25
  9
$CHAMFERB
 40
0.25
  9
$SKPOLY
 70
     0
  9
$TDCREATE
 40
2456567.7575865742
  9
$TDUPDATE
 40
2457361.6992635531
  9
$TDINDWG
 40
0.0333297454
  9
$TDUSRTIMER
 40
0.0333296991
  9
$USRTIMER
 70
     1
  9
$ANGBASE
 50
0.0
  9
$ANGDIR
 70
     0
  9
$PDMODE
 70
     1
  9
$PDSIZE
 40
0.0
  9
$PLINEWID
 40
0.0
  9
$COORDS
 70
     1
  9
$SPLFRAME
 70
     0
  9
$SPLINETYPE
 70
     6
  9
$SPLINESEGS
 70
     4
  9
$ATTDIA
 70
     1
  9
$ATTREQ
 70
     1
  9
$HANDLING
 70
     1
  9
$HANDSEED
  5
1DCC
  9
$SURFTAB1
 70
     6
  9
$SURFTAB2
 70
     6
  9
$SURFTYPE
 70
     6
  9
$SURFU
 70
     6
  9
$SURFV
 70
     6
  9
$UCSNAME
  2

  9
$UCSORG
 10
0.0
 20
0.0
 30
0.0
  9
$UCSXDIR
 10
1.0
 20
0.0
 30
0.0
  9
$UCSYDIR
 10
0.0
 20
1.0
 30
0.0
  9
$PUCSNAME
  2

  9
$PUCSORG
 10
0.0
 20
0.0
 30
0.0
  9
$PUCSXDIR
 10
1.0
 20
0.0
 30
0.0
  9
$PUCSYDIR
 10
0.0
 20
1.0
 30
0.0
  9
$USERI1
 70
     1
  9
$USERI2
 70
     0
  9
$USERI3
 70
     0
  9
$USERI4
 70
     0
  9
$USERI5
 70
     0
  9
$USERR1
 40
0.0
  9
$USERR2
 40
0.0
  9
$USERR3
 40
0.0
  9
$USERR4
 40
0.0
  9
$USERR5
 40
0.0
  9
$WORLDVIEW
 70
     1
  9
$SHADEDGE
 70
     3
  9
$SHADEDIF
 70
    70
  9
$TILEMODE
 70
     1
  9
$MAXACTVP
 70
    16
  9
$PLIMCHECK
 70
     0
  9
$PEXTMIN
 10
1.0000000000000000E+020
 20
1.0000000000000000E+020
 30
1.0000000000000000E+020
  9
$PEXTMAX
 10
-1.0000000000000000E+020
 20
-1.0000000000000000E+020
 30
-1.0000000000000000E+020
  9
$PLIMMIN
 10
0.0
 20
0.0
  9
$PLIMMAX
 10
420.0
 20
297.0
  9
$UNITMODE
 70
     0
  9
$VISRETAIN
 70
     1
  9
$PLINEGEN
 70
     0
  9
$PSLTSCALE
 70
     1
  0
ENDSEC
  0
SECTION
  2
TABLES
  0
TABLE
  2
VPORT
 70
     1
  0
VPORT
  2
*ACTIVE
 70
     0
 10
0.0
 20
0.0
 11
1.0
 21
1.0
 12
10.38264024805324
 22
13.410200892331771
 13
0.0
 23
0.0
 14
7.0
 24
7.0
 15
7.0
 25
7.0
 16
0.0
 26
0.0
 36
1.0
 17
0.0
 27
0.0
 37
0.0
 40
42.149120989842977
 41
1.541713014460512
 42
50.0
 43
0.0
 44
0.0
 50
0.0
 51
0.0
 71
     0
 72
  2000
 73
     1
 74
     0
 75
     0
 76
     1
 77
     0
 78
     0
  0
ENDTAB
  0
TABLE
  2
LTYPE
 70
    22
  0
LTYPE
  2
CONTINUOUS
 70
     0
  3
Solid line
 72
    65
 73
     0
 40
0.0
  0
LTYPE
  2
CENTER2
 70
     0
  3
___ _ ___ _ ___ _ ___ _ ___ _ ___ _ ___ _ ___ _
 72
    65
 73
     4
 40
1.125
 49
0.75
 49
-0.125
 49
0.125
 49
-0.125
  0
LTYPE
  2
HIDDEN2
 70
     0
  3
_ _ _ _ _ _ _ _ _ _ _ _ _ _ _ _ _ _ _ _ _ _ _ _
 72
    65
 73
     2
 40
0.1875
 49
0.125
 49
-0.0625
  0
LTYPE
  2
PHANTOM2
 70
     0
  3
___ _ _ ___ _ _ ___ _ _ ___ _ _ ___ _ _ ___ _ _
 72
    65
 73
     6
 40
1.25
 49
0.625
 49
-0.125
 49
0.125
 49
-0.125
 49
0.125
 49
-0.125
  0
LTYPE
  2
CENTER
 70
     0
  3
____ _ ____ _ ____ _ ____ _ ____ _ ____ _ ____ 
 72
    65
 73
     4
 40
2.0
 49
1.25
 49
-0.25
 49
0.25
 49
-0.25
  0
LTYPE
  2
AMCONSTR
 70
     0
  3
_______________________
 72
    65
 73
     2
 40
9999.0
 49
9999.0
 49
0.0
  0
LTYPE
  2
HIDDEN
 70
     0
  3
Hidden __ __ __ __ __ __ __ __ __ __ __ __ __ _
 72
    65
 73
     2
 40
9.5249999999999986
 49
6.3499999999999979
 49
-3.174999999999998
  0
LTYPE
  2
AMZIGZAG2
 70
     0
  3
/\/-/\/-/\/-/\/-/\/-/\/
 72
    65
 73
     2
 40
0.4401
 49
0.0001
 49
-0.4400000000000001
  0
LTYPE
  2
ACANSTGB
 70
     0
  3
__ . . __ . .
 72
    65
 73
     6
 40
0.35433070866
 49
0.15748031496
 49
-0.03937007874
 49
0.03937007874
 49
-0.03937007874
 49
0.03937007874
 49
-0.03937007874
  0
LTYPE
  2
ACANSTGL
 70
     0
  3
_ _ _ _ _
 72
    65
 73
     2
 40
0.11811023622
 49
0.07874015748
 49
-0.03937007874
  0
ENDTAB
  0
TABLE
  2
LAYER
 70
     9
  0
LAYER
  2
0
 70
     0
 62
     7
  6
CONTINUOUS
  0
LAYER
  2
240
 70
     0
 62
     4
  6
CONTINUOUS
  0
LAYER
  2
DEFPOINTS
 70
     0
 62
     7
  6
CONTINUOUS
  0
LAYER
  2
245
 70
     0
 62
     2
  6
CENTER2
  0
LAYER
  2
241
 70
     0
 62
   211
  6
CONTINUOUS
  0
LAYER
  2
243
 70
     0
 62
   211
  6
HIDDEN2
  0
LAYER
  2
250
 70
     0
 62
     3
  6
CONTINUOUS
  0
LAYER
  2
247
 70
     0
 62
    60
  6
CONTINUOUS
  0
ENDTAB
  0
TABLE
  2
STYLE
 70
    10
  0
STYLE
  2
STANDARD
 70
     0
 40
0.0
 41
1.0
 50
0.0
 71
     0
 42
3.0
  3
romans.shx
  4
extfont.shx
  0
STYLE
  2
YOKO
 70
     0
 40
0.0
 41
1.0
 50
0.0
 71
     0
 42
3.0
  3
romans.shx
  4
extfont.shx
  0
STYLE
  2

 70
     1
 40
0.0
 41
1.0
 50
0.0
 71
     0
 42
3.0
  3
genltshp.shx
  4

  0
STYLE
  2
ACANSGDT
 70
     0
 40
0.0
 41
1.0
 50
0.0
 71
     0
 42
3.0
  3
amgdt.shx
  4

  0
ENDTAB
  0
TABLE
  2
VIEW
 70
     0
  0
ENDTAB
  0
TABLE
  2
UCS
 70
     0
  0
ENDTAB
  0
TABLE
  2
APPID
 70
    37
  0
APPID
  2
ACAD
 70
     0
  0
APPID
  2
ACADANNOTATIVE
 70
     0
  0
APPID
  2
GLOBAL
 70
     0
  0
APPID
  2
DETAIL
 70
     0
  0
APPID
  2
GRPNAME
 70
     0
  0
APPID
  2
GPARA
 70
     0
  0
APPID
  2
MCAD_NO_VIS
 70
     0
  0
APPID
  2
ACAD_TEMP_GRAPHIC
 70
     0
  0
APPID
  2
ACATTRIBSERVICES
 70
     0
  0
APPID
  2
GENIUS_GENSCREG_15
 70
     0
  0
APPID
  2
GENIUS_GENODEF_13
 70
     0
  0
APPID
  2
GENIUS_GENOBJ-N-SDF_13
 70
     0
  0
APPID
  2
GENIUS_GENREC_14
 70
     0
  0
APPID
  2
GENIUS_GENOBJ-N-REC_13
 70
     0
  0
APPID
  2
GENIUS_GENDIMSH_14
 70
     0
  0
APPID
  2
GENIUS_GENOBJ-N-DIM_13
 70
     0
  0
APPID
  2
GENIUS_GENDIM_13
 70
     0
  0
APPID
  2
GENIUS_GENDTOL_13
 70
     0
  0
APPID
  2
GENIUS_GENOLIS_13
 70
     0
  0
APPID
  2
GENIUS_GENOENT_13
 70
     0
  0
APPID
  2
GENIUS_GENOBJ-F-FEM_13
 70
     0
  0
APPID
  2
GENIUS_GENOREF_13
 70
     0
  0
APPID
  2
GENIUS_GEFFEM_13
 70
     0
  0
APPID
  2
GENIUS_GEFFEMP_13
 70
     0
  0
APPID
  2
AD_DRAW
 70
     0
  0
APPID
  2
DESIGNERASSEMBLIES
 70
     0
  0
APPID
  2
ACADM_DIM_EDIT
 70
     0
  0
APPID
  2
AMDT_DM_ADJ
 70
     0
  0
APPID
  2
ACAD_DSTYLE_DIMJAG
 70
     0
  0
APPID
  2
ACAD_DSTYLE_DIMBREAK
 70
     0
  0
APPID
  2
ACAD_NAV_VCDISPLAY
 70
     0
  0
APPID
  2
ACAD_EXEMPT_FROM_CAD_STANDARDS
 70
     0
  0
APPID
  2
ITEMNAME
 70
     0
  0
APPID
  2
GENIUS_GENOBJ-N-FIL_13
 70
     0
  0
APPID
  2
GENIUS_GENFIL_13
 70
     0
  0
APPID
  2
GENIUS_GENOBJ-N-CHA_13
 70
     0
  0
APPID
  2
ACAD_MLEADERVER
 70
     0
  0
ENDTAB
  0
TABLE
  2
DIMSTYLE
 70
    32
  0
DIMSTYLE
  2
STANDARD
 70
     0
  3

  4

  5

  6

  7

 40
1.0
 41
0.18
 42
0.0625
 43
0.38
 44
0.18
 45
0.0
 46
0.0
 47
0.0
 48
0.0
140
0.18
141
0.09
142
0.0
143
25.399999999999999
144
1.0
145
0.0
146
1.0
147
0.09
 71
     0
 72
     0
 73
     1
 74
     1
 75
     0
 76
     0
 77
     0
 78
     0
170
     0
171
     2
172
     0
173
     0
174
     0
175
     0
176
     0
177
     0
178
     0
  0
DIMSTYLE
  2
BIGT
 70
     0
  3

  4

  5

  6

  7

 40
1.0
 41
2.2299999999999991
 42
0.5
 43
7.0
 44
1.0
 45
0.0
 46
0.0
 47
0.0
 48
0.01
140
2.799999999999998
141
0.0
142
0.0
143
25.399999999999999
144
1.0
145
0.0
146
1.0
147
1.0
 71
     0
 72
     0
 73
     0
 74
     0
 75
     0
 76
     0
 77
     3
 78
     9
170
     0
171
     2
172
     1
173
     0
174
     1
175
     0
176
   256
177
   256
178
    40
  0
DIMSTYLE
  2
AM_ANSI
 70
     0
  3

  4
mm
  5

  6

  7

 40
1.0
 41
0.12
 42
0.05
 43
0.5
 44
0.1
 45
0.0
 46
0.0
 47
0.1
 48
0.1
140
0.12
141
0.0
142
0.0
143
25.399999999999999
144
1.0
145
0.0
146
0.71
147
0.06
 71
     0
 72
     0
 73
     1
 74
     1
 75
     0
 76
     0
 77
     0
 78
     7
170
     0
171
     2
172
     0
173
     0
174
     0
175
     0
176
   256
177
   256
178
     2
  0
DIMSTYLE
  2
AM_ANSI$3
 70
     0
  3

  4
mm
  5

  6

  7

 40
1.0
 41
0.12
 42
0.05
 43
0.5
 44
0.1
 45
0.0
 46
0.0
 47
0.1
 48
0.1
140
0.12
141
0.0
142
0.0
143
25.399999999999999
144
1.0
145
0.0
146
0.71
147
0.06
 71
     0
 72
     0
 73
     1
 74
     1
 75
     0
 76
     0
 77
     0
 78
     7
170
     0
171
     2
172
     0
173
     0
174
     0
175
     0
176
   256
177
   256
178
     2
  0
DIMSTYLE
  2
AM_ANSI$4
 70
     0
  3

  4
mm
  5

  6

  7

 40
1.0
 41
0.12
 42
0.05
 43
0.5
 44
0.1
 45
0.0
 46
0.0
 47
0.1
 48
0.1
140
0.12
141
0.0
142
0.0
143
25.399999999999999
144
1.0
145
0.0
146
0.71
147
0.06
 71
     0
 72
     0
 73
     1
 74
     1
 75
     0
 76
     0
 77
     0
 78
     7
170
     0
171
     2
172
     0
173
     0
174
     0
175
     0
176
   256
177
   256
178
     2
  0
DIMSTYLE
  2
AM_ANSI$7
 70
     0
  3

  4
mm
  5

  6

  7

 40
1.0
 41
0.12
 42
0.05
 43
0.5
 44
0.1
 45
0.0
 46
0.0
 47
0.1
 48
0.1
140
0.12
141
0.0
142
0.0
143
25.399999999999999
144
1.0
145
0.0
146
0.71
147
0.06
 71
     0
 72
     0
 73
     1
 74
     1
 75
     0
 76
     0
 77
     0
 78
     7
170
     0
171
     2
172
     0
173
     0
174
     0
175
     0
176
   256
177
   256
178
     2
  0
DIMSTYLE
  2
AM_ANSI$SF
 70
     0
  3

  4
mm
  5

  6

  7

 40
1.0
 41
0.12
 42
0.05
 43
0.5
 44
0.1
 45
0.0
 46
0.0
 47
0.1
 48
0.1
140
0.12
141
0.0
142
0.0
143
25.399999999999999
144
1.0
145
0.0
146
0.71
147
0.06
 71
     0
 72
     0
 73
     1
 74
     1
 75
     1
 76
     1
 77
     0
 78
     7
170
     0
171
     2
172
     0
173
     0
174
     0
175
     0
176
   256
177
   256
178
     2
  0
DIMSTYLE
  2
AM_ANSI$SH
 70
     0
  3

  4
mm
  5

  6
GENAXEH
  7

 40
1.0
 41
0.12
 42
0.05
 43
0.5
 44
0.1
 45
0.0
 46
0.0
 47
0.1
 48
0.1
140
0.12
141
0.0
142
0.0
143
25.399999999999999
144
1.0
145
0.0
146
0.71
147
0.06
 71
     0
 72
     0
 73
     1
 74
     1
 75
     1
 76
     1
 77
     0
 78
     7
170
     0
171
     2
172
     0
173
     1
174
     0
175
     0
176
   256
177
   256
178
     2
  0
ENDTAB
  0
ENDSEC
  0
SECTION
  2
BLOCKS
  0
BLOCK
  8
0
  2
$MODEL_SPACE
 70
     0
 10
0.0
 20
0.0
 30
0.0
  3
$MODEL_SPACE
  1

  0
ENDBLK
  5
1C4C
  8
0
  0
BLOCK
 67
     1
  8
0
  2
$PAPER_SPACE
 70
     0
 10
0.0
 20
0.0
 30
0.0
  3
$PAPER_SPACE
  1

  0
ENDBLK
  5
1C48
 67
     1
  8
0
  0
BLOCK
  8
0
  2
_OPEN
 70
     0
 10
0.0
 20
0.0
 30
0.0
  3
_OPEN
  1

  0
LINE
  5
1B72
  8
0
  6
BYBLOCK
 62
     0
 10
-1.0
 20
0.1666666666666666
 30
0.0
 11
0.0
 21
0.0
 31
0.0
  0
LINE
  5
1B73
  8
0
  6
BYBLOCK
 62
     0
 10
-1.0
 20
-0.1666666666666666
 30
0.0
 11
0.0
 21
0.0
 31
0.0
  0
LINE
  5
1B74
  8
0
  6
BYBLOCK
 62
     0
 10
0.0
 20
0.0
 30
0.0
 11
-1.0
 21
0.0
 31
0.0
  0
ENDBLK
  5
1B75
  8
0
  0
BLOCK
  8
0
  2
GENAXEH
 70
     0
 10
0.0
 20
0.0
 30
0.0
  3
GENAXEH
  1

  0
LINE
  5
1B9D
  8
0
 10
-1.0
 20
0.0
 30
0.0
 11
1.0
 21
0.0
 31
0.0
  0
ENDBLK
  5
1B9E
  8
0
  0
BLOCK
  8
0
  2
_ACMFILLEDHALF
 70
     0
 10
0.0
 20
0.0
 30
0.0
  3
_ACMFILLEDHALF
  1

  0
TRACE
  5
1D04
  8
240
 62
     0
 10
-0.8
 20
0.0
 30
0.0
 11
-1.0
 21
0.166666666
 31
0.0
 12
0.0
 22
0.0
 32
0.0
 13
0.0
 23
0.0
 33
0.0
  0
LINE
  5
1D05
  8
240
 62
     0
 10
-1.0
 20
0.0
 30
0.0
 11
-0.8
 21
0.0
 31
0.0
  0
ENDBLK
  5
1D03
  8
0
  0
ENDSEC
  0
SECTION
  2
ENTITIES
  0
LINE
  5
1672
  8
243
  6
HIDDEN2
 10
2.6721440585907881
 20
-5.8168775358980991
 30
0.0
 11
-1.2090388465132751
 21
-4.8491899534994491
 31
0.0
  0
LINE
  5
16BE
  8
240
  6
CONTINUOUS
 10
-1.874486630238382
 20
-7.5181552367278064
 30
0.0
 11
2.0128546857025751
 21
8.0731191953943817
 31
0.0
  0
LINE
  5
16BF
  8
243
  6
HIDDEN2
 10
5.0429786354674757
 20
3.6920205816066969
 30
0.0
 11
2.576752427243707
 21
-6.199472472123829
 31
0.0
  0
LINE
  5
16C1
  8
243
  6
HIDDEN2
 10
10.37960512998546
 20
2.361450155808539
 30
0.0
 11
8.2451273886681715
 21
-6.199472472123829
 31
0.0
  0
LINE
  5
16C3
  8
243
  6
HIDDEN2
 10
4.6075192233880671
 20
1.9454882743098649
 30
0.0
 11
0.7263363182840595
 21
2.9131758567085142
 31
0.0
  0
LINE
  5
16C4
  8
243
  6
HIDDEN2
 10
10.37960512998546
 20
2.361450155808539
 30
0.0
 11
5.0429786354674757
 21
3.6920205816066969
 31
0.0
  0
LINE
  5
16C5
  8
243
  6
HIDDEN2
 10
19.067571142271841
 20
-1.7604307183241861
 30
0.0
 11
9.9205258696362648
 21
0.5201838114181783
 31
0.0
  0
LINE
  5
16E4
  8
240
  6
CONTINUOUS
 10
2.24796788716128
 20
-7.5181552367278064
 30
0.0
 11
-1.874486630238382
 21
-7.5181552367278064
 31
0.0
  0
LINE
  5
16E5
  8
241
  6
CONTINUOUS
 10
10.291813462984461
 20
4.1818447632722382
 30
0.0
 11
1.042651003026833
 21
4.1818447632722382
 31
0.0
  0
LINE
  5
16EA
  8
241
  6
CONTINUOUS
 10
3.9945307809499
 20
4.1818447632722382
 30
0.0
 11
15.93225691315882
 21
-3.5706052324966602
 31
0.0
  0
LINE
  5
16EC
  8
241
  6
CONTINUOUS
 10
-1.042651003026833
 20
-4.181844763272208
 30
0.0
 11
14.87355899026101
 21
-4.181844763272208
 31
0.0
  0
LINE
  5
16ED
  8
240
  6
CONTINUOUS
 10
2.5767526294727641
 20
-6.1994723277159647
 30
0.0
 11
2.24796804447368
 21
-7.5181553559370951
 31
0.0
  0
LINE
  5
16EE
  8
240
  6
CONTINUOUS
 10
11.37892528777099
 20
-6.199472472123829
 30
0.0
 11
2.5767524272437181
 21
-6.199472472123829
 31
0.0
  0
LINE
  5
16F8
  8
240
  6
CONTINUOUS
 10
18.540752414519432
 20
8.0731191953943817
 30
0.0
 11
18.615656910188559
 21
7.92611084528464
 31
0.0
  0
LINE
  5
16F9
  8
240
  6
CONTINUOUS
 10
18.540752414519432
 20
8.0731191953943817
 30
0.0
 11
2.0128546857025782
 21
8.0731191953943817
 31
0.0
  0
LINE
  5
16FB
  8
241
  6
CONTINUOUS
 10
10.291813462984461
 20
4.1818447632722382
 30
0.0
 11
19.26584320236077
 21
-1.6459582910590591
 31
0.0
  0
LINE
  5
1702
  8
240
  6
CONTINUOUS
 10
19.369995540394608
 20
-1.585825910658605
 30
0.0
 11
11.37892528777099
 21
-6.199472472123829
 31
0.0
  0
TEXT
  5
1720
  8
241
  6
CONTINUOUS
 10
3.5232596716117541
 20
31.345137897773611
 30
0.0
 40
3.0
  1
EB17AJ
  7
YOKO
  0
LINE
  5
18C3
  8
245
  6
CENTER2
 10
3.6398316409894211
 20
-1.9356946307941261
 30
0.0
 11
-1.947293999269277
 21
-0.5426677532745377
 31
0.0
  0
LINE
  5
18CA
  8
245
  6
CENTER2
 10
-0.2413512641146104
 20
-0.9680070483954775
 30
0.0
 11
22.71915215676961
 21
-0.968007048395478
 31
0.0
  0
LINE
  5
19C5
  8
250
  6
CONTINUOUS
 10
2.0128546857025782
 20
8.5731191953943817
 30
0.0
 11
2.0128546857025791
 21
21.852402876227082
 31
0.0
  0
LINE
  5
19C6
  8
250
  6
CONTINUOUS
 10
20.594899744745231
 20
8.7818447653692626
 30
0.0
 11
20.594899744745231
 21
21.852402876227082
 31
0.0
  0
LINE
  5
19C7
  8
250
  6
CONTINUOUS
 10
4.2428546857025768
 20
20.852402876227082
 30
0.0
 11
18.36489974474522
 21
20.852402876227082
 31
0.0
  0
TEXT
  5
19CB
  8
250
  6
CONTINUOUS
 10
4.7705438818905694
 20
23.05240287622707
 30
0.0
 40
2.799999999999998
  1
(18.6)
  0
LINE
  5
19CC
  8
250
  6
CONTINUOUS
 10
18.36489974474522
 20
21.224069542893741
 30
0.0
 11
20.594899744745231
 21
20.852402876227082
 31
0.0
  0
LINE
  5
19CD
  8
250
  6
CONTINUOUS
 10
18.36489974474522
 20
20.480736209560401
 30
0.0
 11
20.594899744745231
 21
20.852402876227082
 31
0.0
  0
LINE
  5
19CE
  8
250
  6
CONTINUOUS
 10
20.594899744745231
 20
20.852402876227082
 30
0.0
 11
18.36489974474522
 21
20.852402876227082
 31
0.0
  0
LINE
  5
19CF
  8
250
  6
CONTINUOUS
 10
4.2428546857025768
 20
20.480736209560401
 30
0.0
 11
2.0128546857025791
 21
20.852402876227082
 31
0.0
  0
LINE
  5
19D0
  8
250
  6
CONTINUOUS
 10
4.2428546857025768
 20
21.224069542893741
 30
0.0
 11
2.0128546857025791
 21
20.852402876227082
 31
0.0
  0
LINE
  5
19D1
  8
250
  6
CONTINUOUS
 10
2.0128546857025791
 20
20.852402876227082
 30
0.0
 11
4.2428546857025768
 21
20.852402876227082
 31
0.0
  0
LINE
  5
1D29
  8
240
  6
CONTINUOUS
 10
20.013303544849428
 20
8.6382473750445943
 30
0.0
 11
18.615656910188559
 21
7.9261108452846409
 31
0.0
  0
ARC
  5
1D2A
  8
241
  6
CONTINUOUS
 10
11.62975918252396
 20
3.9176876704204942
 30
0.0
 40
0.3999999999999994
 50
116.9999999999999
 51
237.00000000000031
  0
LINE
  5
1D2B
  8
240
  6
CONTINUOUS
 10
19.369995540394601
 20
-1.585825910658605
 30
0.0
 11
19.473944759960251
 21
-1.6533313231514859
 31
0.0
  0
ARC
  5
1D2C
  8
240
  6
CONTINUOUS
 10
19.691800373966231
 20
-1.317863095973328
 30
0.0
 40
0.399999999999976
 50
237.00000000000239
 51
357.00000000000199
  0
LINE
  5
1D2D
  8
240
  6
CONTINUOUS
 10
20.09125218786804
 20
-1.338797478470491
 30
0.0
 11
20.594351558647059
 21
8.2609103828720851
 31
0.0
  0
ARC
  5
1D2E
  8
240
  6
CONTINUOUS
 10
20.194899744745239
 20
8.2818447653692626
 30
0.0
 40
0.3999999999999831
 50
356.99999999999989
 51
117.0000000000004
  0
LINE
  5
1D38
  8
241
  6
CONTINUOUS
 10
18.615656910188559
 20
7.92611084528464
 30
0.0
 11
11.448162982628141
 21
4.27409028009584
 31
0.0
  0
LINE
  5
1D39
  8
241
  6
CONTINUOUS
 10
19.369995540394601
 20
-1.585825910658605
 30
0.0
 11
11.411903568517941
 21
3.5822194432423262
 31
0.0
  0
LINE
  5
1D58
  8
247
  6
CONTINUOUS
 10
4.2628546857025782
 20
4.5731191953944377
 30
0.0
 11
8.8974700700325542
 21
4.5731191953943808
 31
0.0
  0
LINE
  5
1D59
  8
247
  6
CONTINUOUS
 10
5.0579611857146372
 20
7.0731191953943808
 30
0.0
 11
4.4557958756452223
 21
4.9731191954783727
 31
0.0
  0
LINE
  5
1D5A
  8
247
  6
CONTINUOUS
 10
5.6877032821835467
 20
6.0769653492803819
 30
0.0
 11
4.7723186668355453
 21
6.0769653492803819
 31
0.0
  0
ARC
  5
1D5B
  8
247
  6
CONTINUOUS
 10
5.9255912837557778
 20
6.6884001281002803
 30
0.0
 40
0.3876715809326743
 50
342.99788967529201
 51
82.92416621851234
  0
ARC
  5
1D5C
  8
247
  6
CONTINUOUS
 10
5.6303771288984734
 20
6.767896064366365
 30
0.0
 40
0.6933047965358768
 50
274.74293685220141
 51
343.84922627326631
1001
GENIUS_GENOBJ-N-FIL_13
1002
{
1000
OWNER
1000
GEN
1002
}
1001
GENIUS_GENODEF_13
1002
{
1000
HIER
1070
     0
1002
}
1002
{
1000
MANEDIT
1070
     0
1002
}
1002
{
1000
NOSEL
1070
     0
1002
}
1002
{
1000
BEHIND
1070
     0
1002
}
1002
{
1000
OTHER
1070
     0
1002
}
1002
{
1000
REACTOR
1002
}
  0
LINE
  5
1D5D
  8
247
  6
CONTINUOUS
 10
5.3711804909932228
 20
4.9731191954783727
 30
0.0
 11
4.4557958756452223
 21
4.9731191954783727
 31
0.0
  0
LINE
  5
1D5E
  8
247
  6
CONTINUOUS
 10
5.05796118571463
 20
7.0731191953943808
 30
0.0
 11
5.9733458010626332
 21
7.0731191953943808
 31
0.0
  0
ARC
  5
1D5F
  8
247
  6
CONTINUOUS
 10
5.6345482094357493
 20
5.6857022326265074
 30
0.0
 40
0.394857301075386
 50
335.99094165252887
 51
82.263443459069535
  0
ARC
  5
1D60
  8
247
  6
CONTINUOUS
 10
5.3004080752756693
 20
5.6819188680618122
 30
0.0
 40
0.7123241612361686
 50
275.70198516425802
 51
347.27733843682228
1001
GENIUS_GENOBJ-N-FIL_13
1002
{
1000
OWNER
1000
GEN
1002
}
1001
GENIUS_GENODEF_13
1002
{
1000
HIER
1070
     0
1002
}
1002
{
1000
MANEDIT
1070
     0
1002
}
1002
{
1000
NOSEL
1070
     0
1002
}
1002
{
1000
BEHIND
1070
     0
1002
}
1002
{
1000
OTHER
1070
     0
1002
}
1002
{
1000
REACTOR
1002
}
  0
LINE
  5
1D61
  8
247
  6
CONTINUOUS
 10
6.3288727986392104
 20
4.9731191954783727
 30
0.0
 11
6.9310381087086181
 21
7.0731191953943808
 31
0.0
  0
LINE
  5
1D62
  8
247
  6
CONTINUOUS
 10
8.4271919547946226
 20
7.0731191953943808
 30
0.0
 11
8.0311763213990002
 21
7.0731191953943808
 31
0.0
  0
LINE
  5
1D63
  8
247
  6
CONTINUOUS
 10
7.4041150317586206
 20
4.9731191954783727
 30
0.0
 11
7.8348842625106112
 21
4.9731191954783727
 31
0.0
  0
ARC
  5
1D64
  8
247
  6
CONTINUOUS
 10
8.6310381086326231
 20
5.6148196003110193
 30
0.0
 40
1.576855057639547
 50
112.35948814152729
 51
164.993248542846
  0
ARC
  5
1D65
  8
247
  6
CONTINUOUS
 10
8.1653433195693594
 20
6.5073003368562432
 30
0.0
 40
0.6234706797009447
 50
4.994589319075371
 51
65.166328957303591
1001
GENIUS_GENOBJ-N-FIL_13
1002
{
1000
OWNER
1000
GEN
1002
}
1001
GENIUS_GENODEF_13
1002
{
1000
HIER
1070
     0
1002
}
1002
{
1000
MANEDIT
1070
     0
1002
}
1002
{
1000
NOSEL
1070
     0
1002
}
1002
{
1000
BEHIND
1070
     0
1002
}
1002
{
1000
OTHER
1070
     0
1002
}
1002
{
1000
REACTOR
1002
}
  0
ARC
  5
1D66
  8
247
  6
CONTINUOUS
 10
7.5686707346698077
 20
5.9110170734249401
 30
0.0
 40
0.9749472149106983
 50
285.84609655577998
 51
352.32513700416922
  0
ARC
  5
1D67
  8
247
  6
CONTINUOUS
 10
7.977643046930365
 20
5.7016487934233133
 30
0.0
 40
0.9271945638692009
 50
159.7136016704971
 51
231.78874565640959
1001
GENIUS_GENOBJ-N-FIL_13
1002
{
1000
OWNER
1000
GEN
1002
}
1001
GENIUS_GENODEF_13
1002
{
1000
HIER
1070
     0
1002
}
1002
{
1000
MANEDIT
1070
     0
1002
}
1002
{
1000
NOSEL
1070
     0
1002
}
1002
{
1000
BEHIND
1070
     0
1002
}
1002
{
1000
OTHER
1070
     0
1002
}
1002
{
1000
REACTOR
1002
}
  0
LINE
  5
1D68
  8
247
  6
CONTINUOUS
 10
8.0502688778866212
 20
5.7808115031384046
 30
0.0
 11
8.5348842624826204
 21
5.7808115031384046
 31
0.0
  0
ARC
  5
1D69
  8
247
  6
CONTINUOUS
 10
4.2628546857025782
 20
5.8231191953943808
 30
0.0
 40
1.25
 50
90.0
 51
270.0
  0
LINE
  5
1D6A
  8
247
  6
CONTINUOUS
 10
4.2628546857025782
 20
7.0731191953943808
 30
0.0
 11
4.7090085317885828
 21
7.0731191953943808
 31
0.0
  0
ARC
  5
1D6B
  8
247
  6
CONTINUOUS
 10
8.8974700700325684
 20
5.8231191953943808
 30
0.0
 40
1.25
 50
270.0
 51
90.0
  0
VIEWPORT
  5
22
 67
     1
  8
0
 10
261.51769911504419
 20
148.5
 30
0.0
 40
523.0353982300885
 41
297.0
 68
     1
 69
     1
1001
ACAD
1000
MVIEW
1002
{
1070
    16
1010
0.0
1020
0.0
1030
0.0
1010
0.0
1020
0.0
1030
1.0
1040
0.0
1040
297.0
1040
261.51769911504419
1040
148.5
1040
50.0
1040
0.0
1040
0.0
1070
     0
1070
   100
1070
     1
1070
     1
1070
     0
1070
     0
1070
     0
1070
     0
1040
0.0
1040
0.0
1040
0.0
1040
1.0
1040
1.0
1040
10.0
1040
10.0
1070
     0
1002
{
1002
}
1002
}
1001
GENIUS_GENODEF_13
1002
{
1000
HIER
1070
     0
1002
}
1002
{
1000
MANEDIT
1070
     0
1002
}
1002
{
1000
NOSEL
1070
     0
1002
}
1002
{
1000
BEHIND
1070
     0
1002
}
1002
{
1000
OTHER
1070
     0
1002
}
1002
{
1000
REACTOR
1002
}
1001
GENIUS_GENOBJ-N-SDF_13
1002
{
1000
OWNER
1000
GEN
1002
}
1001
GENIUS_GENSCREG_15
1000
PF
1040
1.0
1000
DF
1040
1.0
1000
MIN
1011
0.0
1021
0.0
1031
0.0
1021
0.0
1031
0.0
1000
MAX
1011
523.0353982300885
1021
0.0
1031
0.0
1021
297.0
1031
0.0
1000
FLAGS
1070
     4
  0
ENDSEC
  0
EOF
