  0
SECTION
  2
HEADER
  9
$ACADVER
  1
AC1009
  9
$INSBASE
 10
0.0
 20
0.0
 30
0.0
  9
$EXTMIN
 10
-106.24051026947831
 20
-58.4867713853331
 30
0.0
  9
$EXTMAX
 10
120.0
 20
82.000000000000014
 30
0.0
  9
$LIMMIN
 10
0.0
 20
0.0
  9
$LIMMAX
 10
297.0
 20
210.0
  9
$ORTHOMODE
 70
     0
  9
$REGENMODE
 70
     1
  9
$FILLMODE
 70
     1
  9
$QTEXTMODE
 70
     0
  9
$MIRRTEXT
 70
     1
  9
$DRAGMODE
 70
     2
  9
$LTSCALE
 40
10.0
  9
$OSMODE
 70
    39
  9
$ATTMODE
 70
     1
  9
$TEXTSIZE
 40
3.0
  9
$TRACEWID
 40
1.0
  9
$TEXTSTYLE
  7
YOKO
  9
$CLAYER
  8
240
  9
$CELTYPE
  6
BYLAYER
  9
$CECOLOR
 62
   256
  9
$DIMSCALE
 40
1.0
  9
$DIMASZ
 40
2.2299999999999991
  9
$DIMEXO
 40
0.5
  9
$DIMDLI
 40
7.0
  9
$DIMRND
 40
0.0
  9
$DIMDLE
 40
0.0
  9
$DIMEXE
 40
1.0
  9
$DIMTP
 40
0.0
  9
$DIMTM
 40
0.01
  9
$DIMTXT
 40
2.799999999999998
  9
$DIMCEN
 40
0.0
  9
$DIMTSZ
 40
0.0
  9
$DIMTOL
 70
     0
  9
$DIMLIM
 70
     0
  9
$DIMTIH
 70
     0
  9
$DIMTOH
 70
     0
  9
$DIMSE1
 70
     0
  9
$DIMSE2
 70
     0
  9
$DIMTAD
 70
     3
  9
$DIMZIN
 70
     9
  9
$DIMBLK
  1
OPEN
  9
$DIMASO
 70
     1
  9
$DIMSHO
 70
     1
  9
$DIMPOST
  1

  9
$DIMAPOST
  1

  9
$DIMALT
 70
     0
  9
$DIMALTD
 70
     2
  9
$DIMALTF
 40
25.399999999999999
  9
$DIMLFAC
 40
1.0
  9
$DIMTOFL
 70
     1
  9
$DIMTVP
 40
0.0
  9
$DIMTIX
 70
     1
  9
$DIMSOXD
 70
     0
  9
$DIMSAH
 70
     0
  9
$DIMBLK1
  1

  9
$DIMBLK2
  1

  9
$DIMSTYLE
  2
BIGT
  9
$DIMCLRD
 70
   256
  9
$DIMCLRE
 70
   256
  9
$DIMCLRT
 70
    40
  9
$DIMTFAC
 40
1.0
  9
$DIMGAP
 40
1.0
  9
$LUNITS
 70
     2
  9
$LUPREC
 70
     6
  9
$SKETCHINC
 40
1.0
  9
$FILLETRAD
 40
0.0
  9
$AUNITS
 70
     0
  9
$AUPREC
 70
     6
  9
$MENU
  1
.
  9
$ELEVATION
 40
0.0
  9
$PELEVATION
 40
0.0
  9
$THICKNESS
 40
0.0
  9
$LIMCHECK
 70
     0
  9
$BLIPMODE
 70
     0
  9
$CHAMFERA
 40
0.2
  9
$CHAMFERB
 40
0.2
  9
$SKPOLY
 70
     0
  9
$TDCREATE
 40
2459654.466566551
  9
$TDUPDATE
 40
2460209.5104206251
  9
$TDINDWG
 40
0.0093992014
  9
$TDUSRTIMER
 40
0.0093990972
  9
$USRTIMER
 70
     1
  9
$ANGBASE
 50
0.0
  9
$ANGDIR
 70
     0
  9
$PDMODE
 70
     1
  9
$PDSIZE
 40
0.0
  9
$PLINEWID
 40
0.0
  9
$COORDS
 70
     1
  9
$SPLFRAME
 70
     0
  9
$SPLINETYPE
 70
     6
  9
$SPLINESEGS
 70
     4
  9
$ATTDIA
 70
     1
  9
$ATTREQ
 70
     1
  9
$HANDLING
 70
     1
  9
$HANDSEED
  5
4A9C
  9
$SURFTAB1
 70
     6
  9
$SURFTAB2
 70
     6
  9
$SURFTYPE
 70
     6
  9
$SURFU
 70
     6
  9
$SURFV
 70
     6
  9
$UCSNAME
  2

  9
$UCSORG
 10
0.0
 20
0.0
 30
0.0
  9
$UCSXDIR
 10
1.0
 20
0.0
 30
0.0
  9
$UCSYDIR
 10
0.0
 20
1.0
 30
0.0
  9
$PUCSNAME
  2

  9
$PUCSORG
 10
0.0
 20
0.0
 30
0.0
  9
$PUCSXDIR
 10
1.0
 20
0.0
 30
0.0
  9
$PUCSYDIR
 10
0.0
 20
1.0
 30
0.0
  9
$USERI1
 70
     1
  9
$USERI2
 70
     0
  9
$USERI3
 70
     0
  9
$USERI4
 70
     0
  9
$USERI5
 70
     0
  9
$USERR1
 40
0.0
  9
$USERR2
 40
0.0
  9
$USERR3
 40
0.0
  9
$USERR4
 40
0.0
  9
$USERR5
 40
0.0
  9
$WORLDVIEW
 70
     1
  9
$SHADEDGE
 70
     3
  9
$SHADEDIF
 70
    70
  9
$TILEMODE
 70
     1
  9
$MAXACTVP
 70
    16
  9
$PLIMCHECK
 70
     0
  9
$PEXTMIN
 10
1.0000000000000000E+020
 20
1.0000000000000000E+020
 30
1.0000000000000000E+020
  9
$PEXTMAX
 10
-1.0000000000000000E+020
 20
-1.0000000000000000E+020
 30
-1.0000000000000000E+020
  9
$PLIMMIN
 10
0.0
 20
0.0
  9
$PLIMMAX
 10
420.0
 20
297.0
  9
$UNITMODE
 70
     0
  9
$VISRETAIN
 70
     1
  9
$PLINEGEN
 70
     0
  9
$PSLTSCALE
 70
     1
  0
ENDSEC
  0
SECTION
  2
TABLES
  0
TABLE
  2
VPORT
 70
     1
  0
VPORT
  2
*ACTIVE
 70
     0
 10
0.0
 20
0.0
 11
1.0
 21
1.0
 12
-7.3720405865423677
 22
5.3888188429978916
 13
0.0
 23
0.0
 14
7.0
 24
7.0
 15
7.0
 25
7.0
 16
0.0
 26
0.0
 36
1.0
 17
0.0
 27
0.0
 37
0.0
 40
238.56954385202459
 41
1.842364532019704
 42
50.0
 43
0.0
 44
0.0
 50
0.0
 51
0.0
 71
     0
 72
  2000
 73
     1
 74
     0
 75
     1
 76
     1
 77
     0
 78
     0
  0
ENDTAB
  0
TABLE
  2
LTYPE
 70
    22
  0
LTYPE
  2
CONTINUOUS
 70
     0
  3
Solid line
 72
    65
 73
     0
 40
0.0
  0
LTYPE
  2
CENTER2
 70
     0
  3
___ _ ___ _ ___ _ ___ _ ___ _ ___ _ ___ _ ___ _
 72
    65
 73
     4
 40
1.125
 49
0.75
 49
-0.125
 49
0.125
 49
-0.125
  0
LTYPE
  2
HIDDEN2
 70
     0
  3
_ _ _ _ _ _ _ _ _ _ _ _ _ _ _ _ _ _ _ _ _ _ _ _
 72
    65
 73
     2
 40
0.1875
 49
0.125
 49
-0.0625
  0
LTYPE
  2
PHANTOM2
 70
     0
  3
___ _ _ ___ _ _ ___ _ _ ___ _ _ ___ _ _ ___ _ _
 72
    65
 73
     6
 40
1.25
 49
0.625
 49
-0.125
 49
0.125
 49
-0.125
 49
0.125
 49
-0.125
  0
LTYPE
  2
AMCONSTR
 70
     0
  3
_______________________
 72
    65
 73
     2
 40
9999.0
 49
9999.0
 49
0.0
  0
LTYPE
  2
HIDDEN
 70
     0
  3
Hidden __ __ __ __ __ __ __ __ __ __ __ __ __ _
 72
    65
 73
     2
 40
0.375
 49
0.25
 49
-0.125
  0
LTYPE
  2
CENTER
 70
     0
  3
Center ____ _ ____ _ ____ _ ____ _ ____ _ ____
 72
    65
 73
     4
 40
2.0
 49
1.25
 49
-0.25
 49
0.25
 49
-0.25
  0
LTYPE
  2
AMZIGZAG2
 70
     0
  3
/\/-/\/-/\/-/\/-/\/-/\/
 72
    65
 73
     2
 40
0.4401
 49
0.0001
 49
-0.4400000000000001
  0
LTYPE
  2
ACANSTGB
 70
     0
  3
__ . . __ . .
 72
    65
 73
     6
 40
0.35433070866
 49
0.15748031496
 49
-0.03937007874
 49
0.03937007874
 49
-0.03937007874
 49
0.03937007874
 49
-0.03937007874
  0
LTYPE
  2
ACANSTGL
 70
     0
  3
_ _ _ _ _
 72
    65
 73
     2
 40
0.11811023622
 49
0.07874015748
 49
-0.03937007874
  0
ENDTAB
  0
TABLE
  2
LAYER
 70
     9
  0
LAYER
  2
0
 70
     0
 62
     7
  6
CONTINUOUS
  0
LAYER
  2
240
 70
     0
 62
     4
  6
CONTINUOUS
  0
LAYER
  2
DEFPOINTS
 70
     0
 62
     7
  6
CONTINUOUS
  0
LAYER
  2
245
 70
     0
 62
     2
  6
CENTER2
  0
LAYER
  2
241
 70
     0
 62
   211
  6
CONTINUOUS
  0
LAYER
  2
242
 70
     0
 62
     3
  6
CONTINUOUS
  0
LAYER
  2
243
 70
     0
 62
   211
  6
HIDDEN2
  0
LAYER
  2
247
 70
     0
 62
    60
  6
CONTINUOUS
  0
LAYER
  2
250
 70
     0
 62
     3
  6
CONTINUOUS
  0
ENDTAB
  0
TABLE
  2
STYLE
 70
    10
  0
STYLE
  2
STANDARD
 70
     0
 40
0.0
 41
1.0
 50
0.0
 71
     0
 42
3.0
  3
romans.shx
  4
extfont.shx
  0
STYLE
  2
YOKO
 70
     0
 40
0.0
 41
1.0
 50
0.0
 71
     0
 42
3.0
  3
romans.shx
  4
extfont.shx
  0
STYLE
  2

 70
     1
 40
0.0
 41
1.0
 50
0.0
 71
     0
 42
3.0
  3
genltshp.shx
  4

  0
STYLE
  2
ACANSGDT
 70
     0
 40
0.0
 41
1.0
 50
0.0
 71
     0
 42
3.0
  3
amgdt.shx
  4

  0
ENDTAB
  0
TABLE
  2
VIEW
 70
     0
  0
ENDTAB
  0
TABLE
  2
UCS
 70
     0
  0
ENDTAB
  0
TABLE
  2
APPID
 70
    37
  0
APPID
  2
ACAD
 70
     0
  0
APPID
  2
ACADANNOTATIVE
 70
     0
  0
APPID
  2
GLOBAL
 70
     0
  0
APPID
  2
DETAIL
 70
     0
  0
APPID
  2
GRPNAME
 70
     0
  0
APPID
  2
GPARA
 70
     0
  0
APPID
  2
MCAD_NO_VIS
 70
     0
  0
APPID
  2
ACAD_TEMP_GRAPHIC
 70
     0
  0
APPID
  2
ACATTRIBSERVICES
 70
     0
  0
APPID
  2
GENIUS_GENSCREG_15
 70
     0
  0
APPID
  2
GENIUS_GENODEF_13
 70
     0
  0
APPID
  2
GENIUS_GENOBJ-N-SDF_13
 70
     0
  0
APPID
  2
GENIUS_GENREC_14
 70
     0
  0
APPID
  2
GENIUS_GENOBJ-N-REC_13
 70
     0
  0
APPID
  2
GENIUS_GENDIMSH_14
 70
     0
  0
APPID
  2
GENIUS_GENOBJ-N-DIM_13
 70
     0
  0
APPID
  2
GENIUS_GENDIM_13
 70
     0
  0
APPID
  2
GENIUS_GENDTOL_13
 70
     0
  0
APPID
  2
GENIUS_GENOLIS_13
 70
     0
  0
APPID
  2
GENIUS_GENOENT_13
 70
     0
  0
APPID
  2
GENIUS_GENOBJ-F-FEM_13
 70
     0
  0
APPID
  2
GENIUS_GENOREF_13
 70
     0
  0
APPID
  2
GENIUS_GEFFEM_13
 70
     0
  0
APPID
  2
GENIUS_GEFFEMP_13
 70
     0
  0
APPID
  2
AD_DRAW
 70
     0
  0
APPID
  2
DESIGNERASSEMBLIES
 70
     0
  0
APPID
  2
ACADM_DIM_EDIT
 70
     0
  0
APPID
  2
AMDT_DM_ADJ
 70
     0
  0
APPID
  2
ITEMNAME
 70
     0
  0
APPID
  2
GENIUS_GENOBJ-N-FIL_13
 70
     0
  0
APPID
  2
GENIUS_GENFIL_13
 70
     0
  0
APPID
  2
GENIUS_GENOBJ-N-CHA_13
 70
     0
  0
APPID
  2
ACAD_NAV_VCDISPLAY
 70
     0
  0
APPID
  2
ACAD_DSTYLE_DIMJAG
 70
     0
  0
APPID
  2
ACAD_DSTYLE_DIMBREAK
 70
     0
  0
APPID
  2
ACAD_EXEMPT_FROM_CAD_STANDARDS
 70
     0
  0
APPID
  2
ACAD_MLEADERVER
 70
     0
  0
ENDTAB
  0
TABLE
  2
DIMSTYLE
 70
    31
  0
DIMSTYLE
  2
STANDARD
 70
     0
  3

  4

  5

  6

  7

 40
1.0
 41
0.18
 42
0.0625
 43
0.38
 44
0.18
 45
0.0
 46
0.0
 47
0.0
 48
0.0
140
0.18
141
0.09
142
0.0
143
25.399999999999999
144
1.0
145
0.0
146
1.0
147
0.09
 71
     0
 72
     0
 73
     1
 74
     1
 75
     0
 76
     0
 77
     0
 78
     0
170
     0
171
     2
172
     0
173
     0
174
     0
175
     0
176
     0
177
     0
178
     0
  0
DIMSTYLE
  2
BIGT
 70
     0
  3

  4

  5

  6

  7

 40
1.0
 41
2.2299999999999991
 42
0.5
 43
7.0
 44
1.0
 45
0.0
 46
0.0
 47
0.0
 48
0.01
140
2.799999999999998
141
0.0
142
0.0
143
25.399999999999999
144
1.0
145
0.0
146
1.0
147
1.0
 71
     0
 72
     0
 73
     0
 74
     0
 75
     0
 76
     0
 77
     3
 78
     9
170
     0
171
     2
172
     1
173
     0
174
     1
175
     0
176
   256
177
   256
178
    40
  0
DIMSTYLE
  2
AM_ANSI
 70
     0
  3

  4
mm
  5

  6

  7

 40
1.0
 41
0.12
 42
0.05
 43
0.5
 44
0.1
 45
0.0
 46
0.0
 47
0.1
 48
0.1
140
0.12
141
0.0
142
0.0
143
25.399999999999999
144
1.0
145
0.0
146
0.71
147
0.06
 71
     0
 72
     0
 73
     1
 74
     1
 75
     0
 76
     0
 77
     0
 78
     7
170
     0
171
     2
172
     0
173
     0
174
     0
175
     0
176
   256
177
   256
178
     2
  0
DIMSTYLE
  2
AM_ANSI$3
 70
     0
  3

  4
mm
  5

  6

  7

 40
1.0
 41
0.12
 42
0.05
 43
0.5
 44
0.1
 45
0.0
 46
0.0
 47
0.1
 48
0.1
140
0.12
141
0.0
142
0.0
143
25.399999999999999
144
1.0
145
0.0
146
0.71
147
0.06
 71
     0
 72
     0
 73
     1
 74
     1
 75
     0
 76
     0
 77
     0
 78
     7
170
     0
171
     2
172
     0
173
     0
174
     0
175
     0
176
   256
177
   256
178
     2
  0
DIMSTYLE
  2
AM_ANSI$4
 70
     0
  3

  4
mm
  5

  6

  7

 40
1.0
 41
0.12
 42
0.05
 43
0.5
 44
0.1
 45
0.0
 46
0.0
 47
0.1
 48
0.1
140
0.12
141
0.0
142
0.0
143
25.399999999999999
144
1.0
145
0.0
146
0.71
147
0.06
 71
     0
 72
     0
 73
     1
 74
     1
 75
     0
 76
     0
 77
     0
 78
     7
170
     0
171
     2
172
     0
173
     0
174
     0
175
     0
176
   256
177
   256
178
     2
  0
DIMSTYLE
  2
AM_ANSI$7
 70
     0
  3

  4
mm
  5

  6

  7

 40
1.0
 41
0.12
 42
0.05
 43
0.5
 44
0.1
 45
0.0
 46
0.0
 47
0.1
 48
0.1
140
0.12
141
0.0
142
0.0
143
25.399999999999999
144
1.0
145
0.0
146
0.71
147
0.06
 71
     0
 72
     0
 73
     1
 74
     1
 75
     0
 76
     0
 77
     0
 78
     7
170
     0
171
     2
172
     0
173
     0
174
     0
175
     0
176
   256
177
   256
178
     2
  0
DIMSTYLE
  2
AM_ANSI$SF
 70
     0
  3

  4
mm
  5

  6

  7

 40
1.0
 41
0.12
 42
0.05
 43
0.5
 44
0.1
 45
0.0
 46
0.0
 47
0.1
 48
0.1
140
0.12
141
0.0
142
0.0
143
25.399999999999999
144
1.0
145
0.0
146
0.71
147
0.06
 71
     0
 72
     0
 73
     1
 74
     1
 75
     1
 76
     1
 77
     0
 78
     7
170
     0
171
     2
172
     0
173
     0
174
     0
175
     0
176
   256
177
   256
178
     2
  0
DIMSTYLE
  2
AM_ANSI$SH
 70
     0
  3

  4
mm
  5

  6
GENAXEH
  7

 40
1.0
 41
0.12
 42
0.05
 43
0.5
 44
0.1
 45
0.0
 46
0.0
 47
0.1
 48
0.1
140
0.12
141
0.0
142
0.0
143
25.399999999999999
144
1.0
145
0.0
146
0.71
147
0.06
 71
     0
 72
     0
 73
     1
 74
     1
 75
     1
 76
     1
 77
     0
 78
     7
170
     0
171
     2
172
     0
173
     1
174
     0
175
     0
176
   256
177
   256
178
     2
  0
ENDTAB
  0
ENDSEC
  0
SECTION
  2
BLOCKS
  0
BLOCK
  8
0
  2
$MODEL_SPACE
 70
     0
 10
0.0
 20
0.0
 30
0.0
  3
$MODEL_SPACE
  1

  0
ENDBLK
  5
45DD
  8
0
  0
BLOCK
 67
     1
  8
0
  2
$PAPER_SPACE
 70
     0
 10
0.0
 20
0.0
 30
0.0
  3
$PAPER_SPACE
  1

  0
ENDBLK
  5
45D9
 67
     1
  8
0
  0
BLOCK
  8
0
  2
_OPEN
 70
     0
 10
0.0
 20
0.0
 30
0.0
  3
_OPEN
  1

  0
LINE
  5
4474
  8
0
  6
BYBLOCK
 62
     0
 10
-1.0
 20
0.1666666666666666
 30
0.0
 11
0.0
 21
0.0
 31
0.0
  0
LINE
  5
4475
  8
0
  6
BYBLOCK
 62
     0
 10
-1.0
 20
-0.1666666666666666
 30
0.0
 11
0.0
 21
0.0
 31
0.0
  0
LINE
  5
4476
  8
0
  6
BYBLOCK
 62
     0
 10
0.0
 20
0.0
 30
0.0
 11
-1.0
 21
0.0
 31
0.0
  0
ENDBLK
  5
4477
  8
0
  0
BLOCK
  8
0
  2
GENAXEH
 70
     0
 10
0.0
 20
0.0
 30
0.0
  3
GENAXEH
  1

  0
LINE
  5
44AF
  8
0
 10
-1.0
 20
0.0
 30
0.0
 11
1.0
 21
0.0
 31
0.0
  0
ENDBLK
  5
44B0
  8
0
  0
BLOCK
  8
0
  2
_ACMFILLEDHALF
 70
     0
 10
0.0
 20
0.0
 30
0.0
  3
_ACMFILLEDHALF
  1

  0
TRACE
  5
469D
  8
240
 62
     0
 10
-0.8
 20
0.0
 30
0.0
 11
-1.0
 21
0.166666666
 31
0.0
 12
0.0
 22
0.0
 32
0.0
 13
0.0
 23
0.0
 33
0.0
  0
LINE
  5
469E
  8
240
 62
     0
 10
-1.0
 20
0.0
 30
0.0
 11
-0.8
 21
0.0
 31
0.0
  0
ENDBLK
  5
469C
  8
0
  0
ENDSEC
  0
SECTION
  2
ENTITIES
  0
TEXT
  5
4235
  8
241
  6
CONTINUOUS
 10
-101.75
 20
77.0
 30
0.0
 40
5.0
  1
DV50-CKB1-105
  7
YOKO
 11
-101.75
 21
77.0
 31
0.0
 73
     1
  0
LINE
  5
4237
  8
250
  6
CONTINUOUS
 10
-66.994140639999983
 20
-35.33101018
 30
0.0
 11
-80.460807310000007
 21
-35.33101018
 31
0.0
1001
ITEMNAME
1000
LNSP2
  0
LINE
  5
4268
  8
240
  6
CONTINUOUS
 10
0.0
 20
-34.924999999999997
 30
0.0
 11
-99.781905850000001
 21
-20.373472060000001
 31
0.0
  0
LINE
  5
4269
  8
240
  6
CONTINUOUS
 10
0.0
 20
34.924999999999997
 30
0.0
 11
-99.781905850000001
 21
20.373472060000001
 31
0.0
  0
LINE
  5
426A
  8
245
  6
CENTER2
 10
-102.75
 20
0.0
 30
0.0
 11
106.0
 21
0.0
 31
0.0
  0
LINE
  5
426C
  8
240
  6
CONTINUOUS
 10
-101.75
 20
-18.097546210000001
 30
0.0
 11
-101.75
 21
18.097546210000001
 31
0.0
  0
ARC
  5
426D
  8
240
  6
CONTINUOUS
 10
-99.450000000000003
 20
-18.097546210000001
 30
0.0
 40
2.299999999999998
 50
180.0
 51
261.70285503000008
  0
ARC
  5
426E
  8
240
  6
CONTINUOUS
 10
-99.450000000000003
 20
18.097546210000001
 30
0.0
 40
2.299999999999998
 50
98.297144969999835
 51
180.0
  0
ARC
  5
4276
  8
240
  6
CONTINUOUS
 10
30.0
 20
20.5
 30
0.0
 40
5.0
 50
180.0
 51
270.0
  0
LINE
  5
4277
  8
241
  6
CONTINUOUS
 10
0.0
 20
-34.924999999999997
 30
0.0
 11
0.0
 21
34.924999999999997
 31
0.0
  0
LINE
  5
4278
  8
245
  6
CENTER2
 10
11.099999999999991
 20
-48.75
 30
0.0
 11
11.099999999999991
 21
48.75
 31
0.0
  0
LINE
  5
427A
  8
240
  6
CONTINUOUS
 10
105.0
 20
9.5
 30
0.0
 11
64.914213559999993
 21
9.5
 31
0.0
  0
LINE
  5
427B
  8
240
  6
CONTINUOUS
 10
105.0
 20
-9.5
 30
0.0
 11
64.914213559999993
 21
-9.5
 31
0.0
  0
LINE
  5
427C
  8
240
  6
CONTINUOUS
 10
19.099999999999991
 20
-48.75
 30
0.0
 11
19.099999999999991
 21
-35.049999999999997
 31
0.0
  0
LINE
  5
427D
  8
241
  6
CONTINUOUS
 10
14.34759525999999
 20
-48.75
 30
0.0
 11
14.347595259999959
 21
30.000000000000099
 31
0.0
  0
LINE
  5
427E
  8
241
  6
CONTINUOUS
 10
12.974999999999991
 20
-45.625
 30
0.0
 11
12.974999999999991
 21
30.000000000000099
 31
0.0
  0
LINE
  5
427F
  8
241
  6
CONTINUOUS
 10
7.8524047399999972
 20
-48.75
 30
0.0
 11
7.8524047399999972
 21
30.000000000000099
 31
0.0
  0
LINE
  5
4280
  8
241
  6
CONTINUOUS
 10
9.2249999999999943
 20
-45.625
 30
0.0
 11
9.2249999999999943
 21
30.000000000000099
 31
0.0
  0
LINE
  5
4281
  8
240
  6
CONTINUOUS
 10
3.1999999999999882
 20
-48.75
 30
0.0
 11
3.1999999999999882
 21
-34.924999999999997
 31
0.0
  0
LINE
  5
4282
  8
240
  6
CONTINUOUS
 10
14.34759525999999
 20
-48.75
 30
0.0
 11
19.099999999999991
 21
-48.75
 31
0.0
  0
LINE
  5
4283
  8
240
  6
CONTINUOUS
 10
3.1999999999999882
 20
-48.75
 30
0.0
 11
7.8524047399999972
 21
-48.75
 31
0.0
  0
LINE
  5
4284
  8
240
  6
CONTINUOUS
 10
9.2249999999999943
 20
-45.625
 30
0.0
 11
12.974999999999991
 21
-45.625
 31
0.0
  0
LINE
  5
4285
  8
240
  6
CONTINUOUS
 10
9.2249999999999943
 20
-46.372595259999997
 30
0.0
 11
9.2249999999999943
 21
-45.625
 31
0.0
  0
LINE
  5
4286
  8
240
  6
CONTINUOUS
 10
7.8524047399999972
 20
-48.75
 30
0.0
 11
9.2249999999999943
 21
-46.372595259999997
 31
0.0
  0
LINE
  5
4287
  8
240
  6
CONTINUOUS
 10
14.34759525999999
 20
-48.75
 30
0.0
 11
12.974999999999991
 21
-46.372595259999997
 31
0.0
  0
LINE
  5
4288
  8
240
  6
CONTINUOUS
 10
12.974999999999991
 20
-46.372595259999997
 30
0.0
 11
12.974999999999991
 21
-45.625
 31
0.0
  0
LINE
  5
4289
  8
240
  6
CONTINUOUS
 10
30.0
 20
-15.5
 30
0.0
 11
58.085786439999993
 21
-15.5
 31
0.0
  0
LINE
  5
428A
  8
240
  6
CONTINUOUS
 10
30.0
 20
15.5
 30
0.0
 11
58.085786439999993
 21
15.5
 31
0.0
  0
LINE
  5
428B
  8
241
  6
CONTINUOUS
 10
25.0
 20
-20.5
 30
0.0
 11
25.0
 21
20.5
 31
0.0
  0
LINE
  5
428C
  8
241
  6
CONTINUOUS
 10
19.099999999999991
 20
-35.049999999999997
 30
0.0
 11
19.099999999999991
 21
35.049999999999997
 31
0.0
  0
LINE
  5
428D
  8
241
  6
CONTINUOUS
 10
3.1999999999999882
 20
-34.924999999999997
 30
0.0
 11
3.1999999999999882
 21
34.924999999999997
 31
0.0
  0
LINE
  5
428E
  8
240
  6
CONTINUOUS
 10
0.0
 20
-34.924999999999997
 30
0.0
 11
3.1999999999999882
 21
-34.924999999999997
 31
0.0
  0
LINE
  5
428F
  8
240
  6
CONTINUOUS
 10
25.0
 20
-20.5
 30
0.0
 11
25.0
 21
-34.049999999999997
 31
0.0
  0
LINE
  5
4290
  8
240
  6
CONTINUOUS
 10
19.099999999999991
 20
-35.049999999999997
 30
0.0
 11
24.0
 21
-35.049999999999997
 31
0.0
  0
ARC
  5
4291
  8
240
  6
CONTINUOUS
 10
24.0
 20
-34.049999999999997
 30
0.0
 40
1.0
 50
270.0
 51
0.0
  0
ARC
  5
4292
  8
240
  6
CONTINUOUS
 10
30.0
 20
-20.5
 30
0.0
 40
5.0
 50
90.0
 51
180.0
  0
LINE
  5
4293
  8
241
  6
CONTINUOUS
 10
58.5
 20
-15.41017972
 30
0.0
 11
58.5
 21
15.41017972
 31
0.0
  0
LINE
  5
4294
  8
240
  6
CONTINUOUS
 10
64.207106780000004
 20
-9.7928932199999998
 30
0.0
 11
58.792893219999989
 21
-15.20710678
 31
0.0
  0
ARC
  5
4295
  8
240
  6
CONTINUOUS
 10
58.085786439999993
 20
-14.5
 30
0.0
 40
1.0
 50
270.0
 51
315.00000000000051
  0
LINE
  5
4298
  8
241
  6
CONTINUOUS
 10
64.5
 20
-9.5898202799999996
 30
0.0
 11
64.5
 21
9.5898202799999961
 31
0.0
  0
ARC
  5
4299
  8
240
  6
CONTINUOUS
 10
64.914213559999993
 20
-10.5
 30
0.0
 40
1.0
 50
90.0
 51
135.0000000000004
  0
LINE
  5
429A
  8
240
  6
CONTINUOUS
 10
64.207106780000004
 20
9.7928932199999998
 30
0.0
 11
58.792893219999989
 21
15.20710678
 31
0.0
  0
ARC
  5
429B
  8
240
  6
CONTINUOUS
 10
58.085786439999993
 20
14.5
 30
0.0
 40
1.0
 50
44.999999999999517
 51
90.0
  0
ARC
  5
429C
  8
240
  6
CONTINUOUS
 10
64.914213559999993
 20
10.5
 30
0.0
 40
1.0
 50
224.9999999999996
 51
270.0
  0
LINE
  5
42A3
  8
240
  6
CONTINUOUS
 10
105.0
 20
-9.5
 30
0.0
 11
105.0
 21
9.5
 31
0.0
  0
LINE
  5
42A7
  8
240
  6
CONTINUOUS
 10
19.099999999999991
 20
48.75
 30
0.0
 11
19.099999999999991
 21
35.049999999999997
 31
0.0
  0
LINE
  5
42A8
  8
241
  6
CONTINUOUS
 10
7.8524047399999972
 20
48.75
 30
0.0
 11
7.8524047399999386
 21
38.825999989419422
 31
0.0
  0
LINE
  5
42A9
  8
241
  6
CONTINUOUS
 10
9.2249999999999943
 20
45.625
 30
0.0
 11
9.2250000000001364
 21
34.375
 31
0.0
  0
LINE
  5
42AA
  8
241
  6
CONTINUOUS
 10
12.974999999999991
 20
45.625
 30
0.0
 11
12.975000000000019
 21
34.375000000000163
 31
0.0
  0
LINE
  5
42AB
  8
241
  6
CONTINUOUS
 10
14.34759525999999
 20
48.75
 30
0.0
 11
14.347595259999959
 21
38.825999989419962
 31
0.0
  0
LINE
  5
42AC
  8
240
  6
CONTINUOUS
 10
3.1999999999999882
 20
48.75
 30
0.0
 11
3.1999999999999882
 21
34.924999999999997
 31
0.0
  0
LINE
  5
42AD
  8
241
  6
CONTINUOUS
 10
14.34759525999999
 20
38.826000000000001
 30
0.0
 11
19.099999999999991
 21
38.826000000000001
 31
0.0
  0
LINE
  5
42AE
  8
240
  6
CONTINUOUS
 10
0.0
 20
34.924999999999997
 30
0.0
 11
3.1999999999999882
 21
34.924999999999997
 31
0.0
  0
LINE
  5
42AF
  8
240
  6
CONTINUOUS
 10
25.0
 20
20.5
 30
0.0
 11
25.0
 21
34.049999999999997
 31
0.0
  0
LINE
  5
42B0
  8
240
  6
CONTINUOUS
 10
19.099999999999991
 20
35.049999999999997
 30
0.0
 11
24.0
 21
35.049999999999997
 31
0.0
  0
ARC
  5
42B1
  8
240
  6
CONTINUOUS
 10
24.0
 20
34.049999999999997
 30
0.0
 40
1.0
 50
0.0
 51
90.0
  0
LINE
  5
42B2
  8
240
  6
CONTINUOUS
 10
14.34759525999999
 20
48.75
 30
0.0
 11
19.099999999999991
 21
48.75
 31
0.0
  0
LINE
  5
42B3
  8
240
  6
CONTINUOUS
 10
3.1999999999999882
 20
48.75
 30
0.0
 11
7.8524047399999972
 21
48.75
 31
0.0
  0
LINE
  5
42B4
  8
240
  6
CONTINUOUS
 10
9.2249999999999943
 20
45.625
 30
0.0
 11
12.974999999999991
 21
45.625
 31
0.0
  0
LINE
  5
42B5
  8
240
  6
CONTINUOUS
 10
9.2249999999999943
 20
46.372595259999997
 30
0.0
 11
9.2249999999999943
 21
45.625
 31
0.0
  0
LINE
  5
42B6
  8
240
  6
CONTINUOUS
 10
7.8524047399999972
 20
48.75
 30
0.0
 11
9.2249999999999943
 21
46.372595259999997
 31
0.0
  0
LINE
  5
42B7
  8
240
  6
CONTINUOUS
 10
12.974999999999991
 20
46.372595259999997
 30
0.0
 11
12.974999999999991
 21
45.625
 31
0.0
  0
LINE
  5
42B8
  8
240
  6
CONTINUOUS
 10
14.34759525999999
 20
48.75
 30
0.0
 11
12.974999999999991
 21
46.372595259999997
 31
0.0
  0
LINE
  5
42B9
  8
243
  6
HIDDEN2
 10
3.1999999999999882
 20
-35.5
 30
0.0
 11
19.099999999999991
 21
-35.5
 31
0.0
  0
LINE
  5
42BA
  8
243
  6
HIDDEN2
 10
3.1999999999999882
 20
37.699999999999989
 30
0.0
 11
19.099999999999991
 21
37.699999999999989
 31
0.0
  0
LINE
  5
42BB
  8
243
  6
HIDDEN2
 10
6.099999999999965
 20
37.699999999999989
 30
0.0
 11
6.1000000000001906
 21
33.099999999999682
 31
0.0
  0
LINE
  5
42BC
  8
243
  6
HIDDEN2
 10
16.099999999999959
 20
37.699999999999989
 30
0.0
 11
16.100000000000119
 21
33.100000000000023
 31
0.0
  0
LINE
  5
42BD
  8
243
  6
HIDDEN2
 10
16.099999999999788
 20
33.099999999999682
 30
0.0
 11
6.1000000000001906
 21
33.100000000000378
 31
0.0
  0
LINE
  5
42BE
  8
241
  6
CONTINUOUS
 10
14.34759526419165
 20
38.826000000000001
 30
0.0
 11
12.974999999999991
 21
35.361244202326141
 31
0.0
  0
LINE
  5
42BF
  8
241
  6
CONTINUOUS
 10
14.34759526419165
 20
38.826000000000001
 30
0.0
 11
19.099999999999991
 21
38.826000000000001
 31
0.0
  0
LINE
  5
42C0
  8
241
  6
CONTINUOUS
 10
7.8524047358083342
 20
38.826000000000001
 30
0.0
 11
9.2249999999999943
 21
35.361244202326141
 31
0.0
  0
LINE
  5
42C1
  8
241
  6
CONTINUOUS
 10
3.1999999999999602
 20
38.826000000000001
 30
0.0
 11
7.8524047358083342
 21
38.826000000000001
 31
0.0
  0
LINE
  5
42C2
  8
241
  6
CONTINUOUS
 10
9.2250000000001364
 20
34.375
 30
0.0
 11
12.975000000000019
 21
34.375000000000163
 31
0.0
  0
LINE
  5
42C3
  8
241
  6
CONTINUOUS
 10
3.1999999999999602
 20
30.0
 30
0.0
 11
19.099999999999991
 21
30.0
 31
0.0
  0
LINE
  5
4355
  8
247
  6
CONTINUOUS
 10
6.69999999999993
 20
-24.25
 30
0.0
 11
6.6999999999999869
 21
-19.61538461567002
 31
0.0
  0
LINE
  5
4356
  8
247
  6
CONTINUOUS
 10
4.1999999999999869
 20
-23.454893499987929
 30
0.0
 11
6.299999999915995
 21
-24.057058810057359
 31
0.0
  0
LINE
  5
4357
  8
247
  6
CONTINUOUS
 10
5.1961538461139849
 20
-22.825151403519019
 30
0.0
 11
5.1961538461139849
 21
-23.74053601886704
 31
0.0
  0
ARC
  5
4358
  8
247
  6
CONTINUOUS
 10
4.5847190672940883
 20
-22.587263401946782
 30
0.0
 40
0.3876715809326743
 50
72.997889675291987
 51
172.92416621851359
  0
ARC
  5
4359
  8
247
  6
CONTINUOUS
 10
4.505223131028
 20
-22.882477556804101
 30
0.0
 40
0.6933047965358768
 50
4.7429368522022131
 51
73.849226273266538
1001
GENIUS_GENOBJ-N-FIL_13
1002
{
1000
OWNER
1000
GEN
1002
}
1001
GENIUS_GENODEF_13
1002
{
1000
HIER
1070
     0
1002
}
1002
{
1000
MANEDIT
1070
     0
1002
}
1002
{
1000
NOSEL
1070
     0
1002
}
1002
{
1000
BEHIND
1070
     0
1002
}
1002
{
1000
OTHER
1070
     0
1002
}
1002
{
1000
REACTOR
1002
}
  0
LINE
  5
435A
  8
247
  6
CONTINUOUS
 10
6.299999999915995
 20
-23.141674194709331
 30
0.0
 11
6.299999999915995
 21
-24.057058810057359
 31
0.0
  0
LINE
  5
435B
  8
247
  6
CONTINUOUS
 10
4.1999999999999869
 20
-23.454893499987929
 30
0.0
 11
4.1999999999999869
 21
-22.539508884639961
 31
0.0
  0
ARC
  5
435C
  8
247
  6
CONTINUOUS
 10
5.5874169627678594
 20
-22.878306476266829
 30
0.0
 40
0.394857301075386
 50
65.990941652528889
 51
172.26344345906909
  0
ARC
  5
435D
  8
247
  6
CONTINUOUS
 10
5.5912003273325563
 20
-23.212446610426898
 30
0.0
 40
0.7123241612361686
 50
5.7019851642580814
 51
77.277338436822205
1001
GENIUS_GENOBJ-N-FIL_13
1002
{
1000
OWNER
1000
GEN
1002
}
1001
GENIUS_GENODEF_13
1002
{
1000
HIER
1070
     0
1002
}
1002
{
1000
MANEDIT
1070
     0
1002
}
1002
{
1000
NOSEL
1070
     0
1002
}
1002
{
1000
BEHIND
1070
     0
1002
}
1002
{
1000
OTHER
1070
     0
1002
}
1002
{
1000
REACTOR
1002
}
  0
LINE
  5
435E
  8
247
  6
CONTINUOUS
 10
6.299999999915995
 20
-22.183981887063361
 30
0.0
 11
4.1999999999999869
 21
-21.581816576993958
 31
0.0
  0
LINE
  5
435F
  8
247
  6
CONTINUOUS
 10
4.1999999999999869
 20
-20.085662730907959
 30
0.0
 11
4.1999999999999869
 21
-20.48167836430358
 31
0.0
  0
LINE
  5
4360
  8
247
  6
CONTINUOUS
 10
6.299999999915995
 20
-21.10873965394396
 30
0.0
 11
6.299999999915995
 21
-20.677970423191969
 31
0.0
  0
ARC
  5
4361
  8
247
  6
CONTINUOUS
 10
5.6582995950833457
 20
-19.881816577069941
 30
0.0
 40
1.576855057639547
 50
202.35948814152911
 51
254.99324854284609
  0
ARC
  5
4362
  8
247
  6
CONTINUOUS
 10
4.7658188585381218
 20
-20.347511366133212
 30
0.0
 40
0.6234706797009447
 50
94.994589319075374
 51
155.1663289573039
1001
GENIUS_GENOBJ-N-FIL_13
1002
{
1000
OWNER
1000
GEN
1002
}
1001
GENIUS_GENODEF_13
1002
{
1000
HIER
1070
     0
1002
}
1002
{
1000
MANEDIT
1070
     0
1002
}
1002
{
1000
NOSEL
1070
     0
1002
}
1002
{
1000
BEHIND
1070
     0
1002
}
1002
{
1000
OTHER
1070
     0
1002
}
1002
{
1000
REACTOR
1002
}
  0
ARC
  5
4363
  8
247
  6
CONTINUOUS
 10
5.3621021219694249
 20
-20.944183951032791
 30
0.0
 40
0.9749472149106983
 50
15.8460965557808
 51
82.325137004169065
  0
ARC
  5
4364
  8
247
  6
CONTINUOUS
 10
5.5714704019710517
 20
-20.535211638772211
 30
0.0
 40
0.9271945638692009
 50
249.7136016704969
 51
321.78874565640928
1001
GENIUS_GENOBJ-N-FIL_13
1002
{
1000
OWNER
1000
GEN
1002
}
1001
GENIUS_GENODEF_13
1002
{
1000
HIER
1070
     0
1002
}
1002
{
1000
MANEDIT
1070
     0
1002
}
1002
{
1000
NOSEL
1070
     0
1002
}
1002
{
1000
BEHIND
1070
     0
1002
}
1002
{
1000
OTHER
1070
     0
1002
}
1002
{
1000
REACTOR
1002
}
  0
LINE
  5
4365
  8
247
  6
CONTINUOUS
 10
5.492307692255963
 20
-20.462585807815941
 30
0.0
 11
5.492307692255963
 21
-19.97797042321994
 31
0.0
  0
ARC
  5
4366
  8
247
  6
CONTINUOUS
 10
5.4499999999999869
 20
-24.25
 30
0.0
 40
1.25
 50
180.0
 51
0.0
  0
LINE
  5
4367
  8
247
  6
CONTINUOUS
 10
4.1999999999999869
 20
-24.25
 30
0.0
 11
4.1999999999999869
 21
-23.803846153914009
 31
0.0
  0
ARC
  5
4368
  8
247
  6
CONTINUOUS
 10
5.4499999999999869
 20
-19.61538461567002
 30
0.0
 40
1.25
 50
0.0
 51
180.0
  0
LINE
  5
4384
  8
243
  6
HIDDEN2
 10
105.0
 20
5.5
 30
0.0
 11
90.950000000000045
 21
5.5
 31
0.0
1001
GRPNAME
1000
PASTMD01
  0
LINE
  5
4385
  8
243
  6
HIDDEN2
 10
105.0
 20
-5.5
 30
0.0
 11
90.950000000000045
 21
-5.5
 31
0.0
1001
GRPNAME
1000
PASTMD01
  0
LINE
  5
4386
  8
250
  6
CONTINUOUS
 10
102.11334293528699
 20
11.06538414033237
 30
0.0
 11
100.8246678
 21
9.5
 31
0.0
  0
LINE
  5
4387
  8
250
  6
CONTINUOUS
 10
101.53599266624479
 20
11.398717473921
 30
0.0
 11
100.8246678
 21
9.5
 31
0.0
  0
LINE
  5
4388
  8
250
  6
CONTINUOUS
 10
100.8246678
 20
9.5
 30
0.0
 11
101.82466780076589
 21
11.23205080712669
 31
0.0
  0
TEXT
  5
438D
  8
250
  6
CONTINUOUS
 10
110.11585501
 20
22.435886360000001
 30
0.0
 40
2.799999999999998
  1
CK1
  7
YOKO
1001
ITEMNAME
1000
LNSP3
1001
ACAD
1000
MTEXTBEGIN
1070
    73
1070
     1
1070
    44
1040
1.0
1070
    74
1070
     0
1000
MTEXTEND
1000
MTEXTBEGIN
1070
    73
1070
     1
1070
    44
1040
1.0
1070
    74
1070
     0
1000
MTEXTEND
  0
LINE
  5
438E
  8
250
  6
CONTINUOUS
 10
107.71585501
 20
21.435886360000001
 30
0.0
 11
119.98252167
 21
21.435886360000001
 31
0.0
1001
ITEMNAME
1000
LNSP2
  0
CIRCLE
  5
438F
  8
241
  6
CONTINUOUS
 10
100.0
 20
0.0
 30
0.0
 40
2.1000000000000001
  0
CIRCLE
  5
4390
  8
242
  6
CONTINUOUS
 10
100.0
 20
0.0
 30
0.0
 40
1.75
  0
LINE
  5
4399
  8
245
  6
CENTER2
 10
100.0
 20
3.1000000000000001
 30
0.0
 11
100.0
 21
-3.1000000000000001
 31
0.0
  0
LINE
  5
43A3
  8
241
  6
CONTINUOUS
 10
99.0
 20
-0.5773502700000001
 30
0.0
 11
100.0
 21
-1.1547005400000001
 31
0.0
  0
LINE
  5
43A4
  8
241
  6
CONTINUOUS
 10
100.0
 20
-1.1547005400000001
 30
0.0
 11
101.0
 21
-0.5773502700000001
 31
0.0
  0
LINE
  5
43A5
  8
241
  6
CONTINUOUS
 10
101.0
 20
-0.5773502700000001
 30
0.0
 11
101.0
 21
0.5773502700000001
 31
0.0
  0
LINE
  5
43A6
  8
241
  6
CONTINUOUS
 10
101.0
 20
0.5773502700000001
 30
0.0
 11
100.0
 21
1.1547005400000001
 31
0.0
  0
LINE
  5
43A7
  8
241
  6
CONTINUOUS
 10
100.0
 20
1.1547005400000001
 30
0.0
 11
99.0
 21
0.5773502700000001
 31
0.0
  0
LINE
  5
43A8
  8
241
  6
CONTINUOUS
 10
99.0
 20
0.5773502700000001
 30
0.0
 11
99.0
 21
-0.5773502700000001
 31
0.0
  0
LINE
  5
43A9
  8
250
  6
CONTINUOUS
 10
101.82466780076589
 20
11.23205080712669
 30
0.0
 11
107.71585501
 21
21.435886360000001
 31
0.0
1001
ACAD
1000
DSTYLE
1002
{
1070
     6
1000
OPEN
1070
    41
1040
2.0
1070
    42
1040
2.0
1070
    44
1040
2.0
1070
    79
1070
     2
1070
   140
1040
4.0
1070
   179
1070
     3
1070
   343
1005
0
1070
   371
1070
    -1
1070
   372
1070
    -1
1002
}
  0
LINE
  5
43AA
  8
250
  6
CONTINUOUS
 10
105.5
 20
-9.5
 30
0.0
 11
120.0
 21
-9.5000000000000036
 31
0.0
  0
LINE
  5
43AB
  8
250
  6
CONTINUOUS
 10
105.5
 20
9.5
 30
0.0
 11
120.0
 21
9.4999999999999911
 31
0.0
  0
LINE
  5
43AC
  8
250
  6
CONTINUOUS
 10
119.0
 20
-7.2700000000000031
 30
0.0
 11
119.0
 21
7.269999999999996
 31
0.0
  0
TEXT
  5
43B2
  8
250
  6
CONTINUOUS
 10
-78.194140643333313
 20
-34.33101018
 30
0.0
 40
2.799999999999998
  1
DV50
  7
YOKO
1001
ITEMNAME
1000
LNSP3
  0
LINE
  5
43B3
  8
250
  6
CONTINUOUS
 10
0.0
 20
35.424999999999997
 30
0.0
 11
0.0000000000000018
 21
64.0
 31
0.0
  0
LINE
  5
43B4
  8
250
  6
CONTINUOUS
 10
105.0
 20
10.0
 30
0.0
 11
105.0
 21
64.0
 31
0.0
  0
LINE
  5
43B5
  8
250
  6
CONTINUOUS
 10
2.23
 20
63.0
 30
0.0
 11
102.77
 21
63.0
 31
0.0
  0
TEXT
  5
43B9
  8
250
  6
CONTINUOUS
 10
118.0
 20
-3.8666666666666489
 30
0.0
 40
2.799999999999998
  1
\U+220519
 50
90.0
  0
LINE
  5
43BA
  8
250
  6
CONTINUOUS
 10
118.6283333333333
 20
7.269999999999996
 30
0.0
 11
119.0
 21
9.4999999999999964
 31
0.0
  0
LINE
  5
43BB
  8
250
  6
CONTINUOUS
 10
119.3716666666666
 20
7.269999999999996
 30
0.0
 11
119.0
 21
9.4999999999999964
 31
0.0
  0
LINE
  5
43BC
  8
250
  6
CONTINUOUS
 10
119.0
 20
9.4999999999999964
 30
0.0
 11
119.0
 21
7.269999999999996
 31
0.0
  0
LINE
  5
43BD
  8
250
  6
CONTINUOUS
 10
119.3716666666666
 20
-7.2700000000000031
 30
0.0
 11
119.0
 21
-9.5000000000000036
 31
0.0
  0
LINE
  5
43BE
  8
250
  6
CONTINUOUS
 10
118.6283333333333
 20
-7.2700000000000031
 30
0.0
 11
119.0
 21
-9.5000000000000036
 31
0.0
  0
LINE
  5
43BF
  8
250
  6
CONTINUOUS
 10
119.0
 20
-9.5000000000000036
 30
0.0
 11
119.0
 21
-7.2700000000000031
 31
0.0
  0
LINE
  5
43C0
  8
250
  6
CONTINUOUS
 10
-62.690281829818439
 20
-27.876508050544128
 30
0.0
 11
-66.994140639999983
 21
-35.33101018
 31
0.0
1001
ACAD
1000
DSTYLE
1002
{
1070
     6
1000
OPEN
1070
   343
1005
594
1002
}
  0
LINE
  5
43C1
  8
250
  6
CONTINUOUS
 10
-63.012154604909121
 20
-27.690674717241048
 30
0.0
 11
-61.575281830000002
 21
-25.945271399999999
 31
0.0
  0
LINE
  5
43C2
  8
250
  6
CONTINUOUS
 10
-62.368409054727742
 20
-28.062341383847201
 30
0.0
 11
-61.575281830000002
 21
-25.945271399999999
 31
0.0
  0
LINE
  5
43C3
  8
250
  6
CONTINUOUS
 10
-61.575281830000002
 20
-25.945271399999999
 30
0.0
 11
-62.690281829818439
 21
-27.876508050544128
 31
0.0
  0
TEXT
  5
43C4
  8
250
  6
CONTINUOUS
 10
48.299999999999997
 20
64.000000000000014
 30
0.0
 40
2.799999999999998
  1
105
  0
LINE
  5
43C5
  8
250
  6
CONTINUOUS
 10
102.77
 20
63.37166666666667
 30
0.0
 11
105.0
 21
63.0
 31
0.0
  0
LINE
  5
43C6
  8
250
  6
CONTINUOUS
 10
102.77
 20
62.62833333333333
 30
0.0
 11
105.0
 21
63.0
 31
0.0
  0
LINE
  5
43C7
  8
250
  6
CONTINUOUS
 10
105.0
 20
63.0
 30
0.0
 11
102.77
 21
63.0
 31
0.0
  0
LINE
  5
43C8
  8
250
  6
CONTINUOUS
 10
2.23
 20
62.62833333333333
 30
0.0
 11
0.0000000000000017
 21
63.0
 31
0.0
  0
LINE
  5
43C9
  8
250
  6
CONTINUOUS
 10
2.23
 20
63.37166666666667
 30
0.0
 11
0.0000000000000017
 21
63.0
 31
0.0
  0
LINE
  5
43CA
  8
250
  6
CONTINUOUS
 10
0.0000000000000017
 20
63.0
 30
0.0
 11
2.23
 21
63.0
 31
0.0
  0
VIEWPORT
  5
22
 67
     1
  8
0
 10
261.51769911504419
 20
148.5
 30
0.0
 40
523.0353982300885
 41
297.0
 68
     1
 69
     1
1001
ACAD
1000
MVIEW
1002
{
1070
    16
1010
0.0
1020
0.0
1030
0.0
1010
0.0
1020
0.0
1030
1.0
1040
0.0
1040
297.0
1040
261.51769911504419
1040
148.5
1040
50.0
1040
0.0
1040
0.0
1070
     0
1070
   100
1070
     1
1070
     1
1070
     0
1070
     0
1070
     0
1070
     0
1040
0.0
1040
0.0
1040
0.0
1040
1.0
1040
1.0
1040
10.0
1040
10.0
1070
     0
1002
{
1002
}
1002
}
1001
GENIUS_GENODEF_13
1002
{
1000
HIER
1070
     0
1002
}
1002
{
1000
MANEDIT
1070
     0
1002
}
1002
{
1000
NOSEL
1070
     0
1002
}
1002
{
1000
BEHIND
1070
     0
1002
}
1002
{
1000
OTHER
1070
     0
1002
}
1002
{
1000
REACTOR
1002
}
1001
GENIUS_GENOBJ-N-SDF_13
1002
{
1000
OWNER
1000
GEN
1002
}
1001
GENIUS_GENSCREG_15
1000
PF
1040
1.0
1000
DF
1040
1.0
1000
MIN
1011
0.0
1021
0.0
1031
0.0
1021
0.0
1031
0.0
1000
MAX
1011
523.0353982300885
1021
0.0
1031
0.0
1021
297.0
1031
0.0
1000
FLAGS
1070
     4
  0
ENDSEC
  0
EOF
