  0
SECTION
  2
HEADER
  9
$ACADVER
  1
AC1009
  9
$INSBASE
 10
0.0
 20
0.0
 30
0.0
  9
$EXTMIN
 10
-72.914822840052466
 20
-32.538424710015882
 30
0.0
  9
$EXTMAX
 10
85.000000000000014
 20
68.0
 30
0.0
  9
$LIMMIN
 10
0.0
 20
0.0
  9
$LIMMAX
 10
420.0
 20
297.0
  9
$ORTHOMODE
 70
     0
  9
$REGENMODE
 70
     1
  9
$FILLMODE
 70
     1
  9
$QTEXTMODE
 70
     0
  9
$MIRRTEXT
 70
     1
  9
$DRAGMODE
 70
     2
  9
$LTSCALE
 40
10.0
  9
$OSMODE
 70
    39
  9
$ATTMODE
 70
     1
  9
$TEXTSIZE
 40
3.0
  9
$TRACEWID
 40
1.0
  9
$TEXTSTYLE
  7
YOKO
  9
$CLAYER
  8
240
  9
$CELTYPE
  6
BYLAYER
  9
$CECOLOR
 62
   256
  9
$DIMSCALE
 40
1.0
  9
$DIMASZ
 40
2.0
  9
$DIMEXO
 40
0.5
  9
$DIMDLI
 40
2.5
  9
$DIMRND
 40
0.0
  9
$DIMDLE
 40
0.0
  9
$DIMEXE
 40
1.0
  9
$DIMTP
 40
0.0
  9
$DIMTM
 40
0.0
  9
$DIMTXT
 40
2.799999999999998
  9
$DIMCEN
 40
0.0
  9
$DIMTSZ
 40
0.0
  9
$DIMTOL
 70
     0
  9
$DIMLIM
 70
     0
  9
$DIMTIH
 70
     0
  9
$DIMTOH
 70
     0
  9
$DIMSE1
 70
     0
  9
$DIMSE2
 70
     0
  9
$DIMTAD
 70
     3
  9
$DIMZIN
 70
     8
  9
$DIMBLK
  1

  9
$DIMASO
 70
     1
  9
$DIMSHO
 70
     1
  9
$DIMPOST
  1

  9
$DIMAPOST
  1

  9
$DIMALT
 70
     0
  9
$DIMALTD
 70
     2
  9
$DIMALTF
 40
25.399999999999999
  9
$DIMLFAC
 40
1.0
  9
$DIMTOFL
 70
     1
  9
$DIMTVP
 40
0.0
  9
$DIMTIX
 70
     1
  9
$DIMSOXD
 70
     0
  9
$DIMSAH
 70
     1
  9
$DIMBLK1
  1
OPEN
  9
$DIMBLK2
  1
OPEN
  9
$DIMSTYLE
  2
BIGT
  9
$DIMCLRD
 70
   256
  9
$DIMCLRE
 70
   256
  9
$DIMCLRT
 70
    40
  9
$DIMTFAC
 40
1.0
  9
$DIMGAP
 40
1.0
  9
$LUNITS
 70
     2
  9
$LUPREC
 70
     3
  9
$SKETCHINC
 40
1.0
  9
$FILLETRAD
 40
0.0
  9
$AUNITS
 70
     0
  9
$AUPREC
 70
     3
  9
$MENU
  1
.
  9
$ELEVATION
 40
0.0
  9
$PELEVATION
 40
0.0
  9
$THICKNESS
 40
0.0
  9
$LIMCHECK
 70
     0
  9
$BLIPMODE
 70
     0
  9
$CHAMFERA
 40
10.0
  9
$CHAMFERB
 40
10.0
  9
$SKPOLY
 70
     0
  9
$TDCREATE
 40
2455061.5665784152
  9
$TDUPDATE
 40
2460208.635301644
  9
$TDINDWG
 40
0.0622049653
  9
$TDUSRTIMER
 40
0.062193206
  9
$USRTIMER
 70
     1
  9
$ANGBASE
 50
0.0
  9
$ANGDIR
 70
     0
  9
$PDMODE
 70
     0
  9
$PDSIZE
 40
-5.0
  9
$PLINEWID
 40
0.0
  9
$COORDS
 70
     1
  9
$SPLFRAME
 70
     0
  9
$SPLINETYPE
 70
     6
  9
$SPLINESEGS
 70
     8
  9
$ATTDIA
 70
     1
  9
$ATTREQ
 70
     1
  9
$HANDLING
 70
     1
  9
$HANDSEED
  5
1C95
  9
$SURFTAB1
 70
     6
  9
$SURFTAB2
 70
     6
  9
$SURFTYPE
 70
     6
  9
$SURFU
 70
     6
  9
$SURFV
 70
     6
  9
$UCSNAME
  2

  9
$UCSORG
 10
0.0
 20
0.0
 30
0.0
  9
$UCSXDIR
 10
1.0
 20
0.0
 30
0.0
  9
$UCSYDIR
 10
0.0
 20
1.0
 30
0.0
  9
$PUCSNAME
  2

  9
$PUCSORG
 10
0.0
 20
0.0
 30
0.0
  9
$PUCSXDIR
 10
1.0
 20
0.0
 30
0.0
  9
$PUCSYDIR
 10
0.0
 20
1.0
 30
0.0
  9
$USERI1
 70
     1
  9
$USERI2
 70
     0
  9
$USERI3
 70
     0
  9
$USERI4
 70
     0
  9
$USERI5
 70
     0
  9
$USERR1
 40
0.0
  9
$USERR2
 40
0.0
  9
$USERR3
 40
0.0
  9
$USERR4
 40
0.0
  9
$USERR5
 40
0.0
  9
$WORLDVIEW
 70
     1
  9
$SHADEDGE
 70
     3
  9
$SHADEDIF
 70
    70
  9
$TILEMODE
 70
     1
  9
$MAXACTVP
 70
    16
  9
$PLIMCHECK
 70
     0
  9
$PEXTMIN
 10
1.0000000000000000E+020
 20
1.0000000000000000E+020
 30
1.0000000000000000E+020
  9
$PEXTMAX
 10
-1.0000000000000000E+020
 20
-1.0000000000000000E+020
 30
-1.0000000000000000E+020
  9
$PLIMMIN
 10
0.0
 20
0.0
  9
$PLIMMAX
 10
420.0
 20
297.0
  9
$UNITMODE
 70
     0
  9
$VISRETAIN
 70
     0
  9
$PLINEGEN
 70
     0
  9
$PSLTSCALE
 70
     1
  0
ENDSEC
  0
SECTION
  2
TABLES
  0
TABLE
  2
VPORT
 70
     1
  0
VPORT
  2
*ACTIVE
 70
     0
 10
0.0
 20
0.0
 11
1.0
 21
1.0
 12
39.387979395540128
 22
11.333801899092389
 13
0.0
 23
0.0
 14
7.0
 24
7.0
 15
7.0
 25
7.0
 16
0.0
 26
0.0
 36
1.0
 17
0.0
 27
0.0
 37
0.0
 40
204.91810665992671
 41
1.5756457564575641
 42
50.0
 43
0.0
 44
0.0
 50
0.0
 51
0.0
 71
     0
 72
  2000
 73
     1
 74
     0
 75
     0
 76
     1
 77
     0
 78
     0
  0
ENDTAB
  0
TABLE
  2
LTYPE
 70
    22
  0
LTYPE
  2
CONTINUOUS
 70
     0
  3
Solid line
 72
    65
 73
     0
 40
0.0
  0
LTYPE
  2
CENTER2
 70
     0
  3
___ _ ___ _ ___ _ ___ _ ___ _ ___ _ ___ _ ___ _
 72
    65
 73
     4
 40
1.125
 49
0.75
 49
-0.125
 49
0.125
 49
-0.125
  0
LTYPE
  2
HIDDEN2
 70
     0
  3
_ _ _ _ _ _ _ _ _ _ _ _ _ _ _ _ _ _ _ _ _ _ _ _
 72
    65
 73
     2
 40
0.1875
 49
0.125
 49
-0.0625
  0
LTYPE
  2
PHANTOM2
 70
     0
  3
___ _ _ ___ _ _ ___ _ _ ___ _ _ ___ _ _ ___ _ _
 72
    65
 73
     6
 40
1.25
 49
0.625
 49
-0.125
 49
0.125
 49
-0.125
 49
0.125
 49
-0.125
  0
LTYPE
  2
AMCONSTR
 70
     0
  3
_______________________
 72
    65
 73
     2
 40
9999.0
 49
9999.0
 49
0.0
  0
LTYPE
  2
HIDDEN
 70
     0
  3
Hidden __ __ __ __ __ __ __ __ __ __ __ __ __ _
 72
    65
 73
     2
 40
0.375
 49
0.25
 49
-0.125
  0
LTYPE
  2
CENTER
 70
     0
  3
Center ____ _ ____ _ ____ _ ____ _ ____ _ ____
 72
    65
 73
     4
 40
2.0
 49
1.25
 49
-0.25
 49
0.25
 49
-0.25
  0
LTYPE
  2
AMZIGZAG2
 70
     0
  3
/\/-/\/-/\/-/\/-/\/-/\/
 72
    65
 73
     2
 40
0.4401
 49
0.0001
 49
-0.4400000000000001
  0
LTYPE
  2
ACANSTGB
 70
     0
  3
__ . . __ . .
 72
    65
 73
     6
 40
0.35433070866
 49
0.15748031496
 49
-0.03937007874
 49
0.03937007874
 49
-0.03937007874
 49
0.03937007874
 49
-0.03937007874
  0
LTYPE
  2
ACANSTGL
 70
     0
  3
_ _ _ _ _
 72
    65
 73
     2
 40
0.11811023622
 49
0.07874015748
 49
-0.03937007874
  0
ENDTAB
  0
TABLE
  2
LAYER
 70
    10
  0
LAYER
  2
0
 70
     0
 62
     7
  6
CONTINUOUS
  0
LAYER
  2
240
 70
     0
 62
     4
  6
CONTINUOUS
  0
LAYER
  2
241
 70
     0
 62
   211
  6
CONTINUOUS
  0
LAYER
  2
242
 70
     0
 62
     3
  6
CONTINUOUS
  0
LAYER
  2
245
 70
     0
 62
     2
  6
CENTER2
  0
LAYER
  2
250
 70
     0
 62
     3
  6
CONTINUOUS
  0
LAYER
  2
DEFPOINTS
 70
     0
 62
     7
  6
CONTINUOUS
  0
LAYER
  2
243
 70
     0
 62
   211
  6
HIDDEN2
  0
LAYER
  2
247
 70
     0
 62
    60
  6
CONTINUOUS
  0
ENDTAB
  0
TABLE
  2
STYLE
 70
    10
  0
STYLE
  2
STANDARD
 70
     0
 40
0.0
 41
1.0
 50
0.0
 71
     0
 42
3.0
  3
romans.shx
  4
BIGFONT.SHX
  0
STYLE
  2
YOKO
 70
     0
 40
0.0
 41
1.0
 50
0.0
 71
     0
 42
3.0
  3
romans.shx
  4
extfont.shx
  0
STYLE
  2

 70
     1
 40
0.0
 41
1.0
 50
0.0
 71
     0
 42
3.0
  3
genltshp.shx
  4

  0
STYLE
  2
ACANSGDT
 70
     0
 40
0.0
 41
1.0
 50
0.0
 71
     0
 42
3.0
  3
amgdt.shx
  4

  0
ENDTAB
  0
TABLE
  2
VIEW
 70
     0
  0
ENDTAB
  0
TABLE
  2
UCS
 70
     0
  0
ENDTAB
  0
TABLE
  2
APPID
 70
    42
  0
APPID
  2
ACAD
 70
     0
  0
APPID
  2
ACADANNOTATIVE
 70
     0
  0
APPID
  2
GLOBAL
 70
     0
  0
APPID
  2
DETAIL
 70
     0
  0
APPID
  2
GRPNAME
 70
     0
  0
APPID
  2
GPARA
 70
     0
  0
APPID
  2
DCO15
 70
     0
  0
APPID
  2
ITEMNAME
 70
     0
  0
APPID
  2
GRADE_0
 70
     0
  0
APPID
  2
CONTENTBLOCKICON
 70
     0
  0
APPID
  2
ACAD_PSEXT
 70
     0
  0
APPID
  2
MCAD_NO_VIS
 70
     0
  0
APPID
  2
ACAD_TEMP_GRAPHIC
 70
     0
  0
APPID
  2
ACATTRIBSERVICES
 70
     0
  0
APPID
  2
GENIUS_GENSCREG_15
 70
     0
  0
APPID
  2
GENIUS_GENODEF_13
 70
     0
  0
APPID
  2
GENIUS_GENOBJ-N-SDF_13
 70
     0
  0
APPID
  2
GENIUS_GENREC_14
 70
     0
  0
APPID
  2
GENIUS_GENOBJ-N-REC_13
 70
     0
  0
APPID
  2
GENIUS_GENDIMSH_14
 70
     0
  0
APPID
  2
GENIUS_GENOBJ-N-DIM_13
 70
     0
  0
APPID
  2
GENIUS_GENDIM_13
 70
     0
  0
APPID
  2
GENIUS_GENDTOL_13
 70
     0
  0
APPID
  2
GENIUS_GENOLIS_13
 70
     0
  0
APPID
  2
GENIUS_GENOENT_13
 70
     0
  0
APPID
  2
GENIUS_GENOBJ-F-FEM_13
 70
     0
  0
APPID
  2
GENIUS_GENOREF_13
 70
     0
  0
APPID
  2
GENIUS_GEFFEM_13
 70
     0
  0
APPID
  2
GENIUS_GEFFEMP_13
 70
     0
  0
APPID
  2
AD_DRAW
 70
     0
  0
APPID
  2
DESIGNERASSEMBLIES
 70
     0
  0
APPID
  2
ACADM_DIM_EDIT
 70
     0
  0
APPID
  2
AMDT_DM_ADJ
 70
     0
  0
APPID
  2
GENIUS_GENOBJ-N-FIL_13
 70
     0
  0
APPID
  2
GENIUS_GENFIL_13
 70
     0
  0
APPID
  2
GENIUS_GENOBJ-N-CHA_13
 70
     0
  0
APPID
  2
ACAD_NAV_VCDISPLAY
 70
     0
  0
APPID
  2
ACAD_EXEMPT_FROM_CAD_STANDARDS
 70
     0
  0
APPID
  2
ACAECLAYERSTANDARD
 70
     0
  0
APPID
  2
ACAD_MLEADERVER
 70
     0
  0
APPID
  2
ACAD_DSTYLE_DIMJAG
 70
     0
  0
APPID
  2
ACAD_DSTYLE_DIMBREAK
 70
     0
  0
ENDTAB
  0
TABLE
  2
DIMSTYLE
 70
    32
  0
DIMSTYLE
  2
STANDARD
 70
     0
  3

  4

  5

  6

  7

 40
1.0
 41
0.18
 42
0.0625
 43
0.38
 44
0.18
 45
0.0
 46
0.0
 47
0.0
 48
0.0
140
0.18
141
0.09
142
0.0
143
25.399999999999999
144
1.0
145
0.0
146
1.0
147
0.09
 71
     0
 72
     0
 73
     1
 74
     1
 75
     0
 76
     0
 77
     0
 78
     0
170
     0
171
     2
172
     0
173
     0
174
     0
175
     0
176
     0
177
     0
178
     0
  0
DIMSTYLE
  2
BIGT
 70
     0
  3

  4

  5

  6

  7

 40
1.0
 41
2.2299999999999991
 42
0.5
 43
7.0
 44
1.0
 45
0.0
 46
0.0
 47
0.0
 48
0.01
140
2.799999999999998
141
0.0
142
0.0
143
25.399999999999999
144
1.0
145
0.0
146
1.0
147
1.0
 71
     0
 72
     0
 73
     0
 74
     0
 75
     0
 76
     0
 77
     3
 78
     9
170
     0
171
     2
172
     1
173
     0
174
     1
175
     0
176
   256
177
   256
178
    40
  0
DIMSTYLE
  2
AM_ANSI
 70
     0
  3

  4
mm
  5

  6

  7

 40
1.0
 41
0.12
 42
0.05
 43
0.5
 44
0.1
 45
0.0
 46
0.0
 47
0.1
 48
0.1
140
0.12
141
0.0
142
0.0
143
25.399999999999999
144
1.0
145
0.0
146
0.71
147
0.06
 71
     0
 72
     0
 73
     1
 74
     1
 75
     0
 76
     0
 77
     0
 78
     7
170
     0
171
     2
172
     0
173
     0
174
     0
175
     0
176
   256
177
   256
178
     2
  0
DIMSTYLE
  2
AM_ANSI$3
 70
     0
  3

  4
mm
  5

  6

  7

 40
1.0
 41
0.12
 42
0.05
 43
0.5
 44
0.1
 45
0.0
 46
0.0
 47
0.1
 48
0.1
140
0.12
141
0.0
142
0.0
143
25.399999999999999
144
1.0
145
0.0
146
0.71
147
0.06
 71
     0
 72
     0
 73
     1
 74
     1
 75
     0
 76
     0
 77
     0
 78
     7
170
     0
171
     2
172
     0
173
     0
174
     0
175
     0
176
   256
177
   256
178
     2
  0
DIMSTYLE
  2
AM_ANSI$4
 70
     0
  3

  4
mm
  5

  6

  7

 40
1.0
 41
0.12
 42
0.05
 43
0.5
 44
0.1
 45
0.0
 46
0.0
 47
0.1
 48
0.1
140
0.12
141
0.0
142
0.0
143
25.399999999999999
144
1.0
145
0.0
146
0.71
147
0.06
 71
     0
 72
     0
 73
     1
 74
     1
 75
     0
 76
     0
 77
     0
 78
     7
170
     0
171
     2
172
     0
173
     0
174
     0
175
     0
176
   256
177
   256
178
     2
  0
DIMSTYLE
  2
AM_ANSI$7
 70
     0
  3

  4
mm
  5

  6

  7

 40
1.0
 41
0.12
 42
0.05
 43
0.5
 44
0.1
 45
0.0
 46
0.0
 47
0.1
 48
0.1
140
0.12
141
0.0
142
0.0
143
25.399999999999999
144
1.0
145
0.0
146
0.71
147
0.06
 71
     0
 72
     0
 73
     1
 74
     1
 75
     0
 76
     0
 77
     0
 78
     7
170
     0
171
     2
172
     0
173
     0
174
     0
175
     0
176
   256
177
   256
178
     2
  0
DIMSTYLE
  2
AM_ANSI$SF
 70
     0
  3

  4
mm
  5

  6

  7

 40
1.0
 41
0.12
 42
0.05
 43
0.5
 44
0.1
 45
0.0
 46
0.0
 47
0.1
 48
0.1
140
0.12
141
0.0
142
0.0
143
25.399999999999999
144
1.0
145
0.0
146
0.71
147
0.06
 71
     0
 72
     0
 73
     1
 74
     1
 75
     1
 76
     1
 77
     0
 78
     7
170
     0
171
     2
172
     0
173
     0
174
     0
175
     0
176
   256
177
   256
178
     2
  0
DIMSTYLE
  2
AM_ANSI$SH
 70
     0
  3

  4
mm
  5

  6
GENAXEH
  7

 40
1.0
 41
0.12
 42
0.05
 43
0.5
 44
0.1
 45
0.0
 46
0.0
 47
0.1
 48
0.1
140
0.12
141
0.0
142
0.0
143
25.399999999999999
144
1.0
145
0.0
146
0.71
147
0.06
 71
     0
 72
     0
 73
     1
 74
     1
 75
     1
 76
     1
 77
     0
 78
     7
170
     0
171
     2
172
     0
173
     1
174
     0
175
     0
176
   256
177
   256
178
     2
  0
ENDTAB
  0
ENDSEC
  0
SECTION
  2
BLOCKS
  0
BLOCK
  8
0
  2
$MODEL_SPACE
 70
     0
 10
0.0
 20
0.0
 30
0.0
  3
$MODEL_SPACE
  1

  0
ENDBLK
  5
1551
  8
0
  0
BLOCK
 67
     1
  8
0
  2
$PAPER_SPACE
 70
     0
 10
0.0
 20
0.0
 30
0.0
  3
$PAPER_SPACE
  1

  0
ENDBLK
  5
154D
 67
     1
  8
0
  0
BLOCK
  8
0
  2
_OPEN
 70
     0
 10
0.0
 20
0.0
 30
0.0
  3
_OPEN
  1

  0
LINE
  5
13D4
  8
0
  6
BYBLOCK
 62
     0
 10
-1.0
 20
0.1666666666666666
 30
0.0
 11
0.0
 21
0.0
 31
0.0
  0
LINE
  5
13D5
  8
0
  6
BYBLOCK
 62
     0
 10
-1.0
 20
-0.1666666666666666
 30
0.0
 11
0.0
 21
0.0
 31
0.0
  0
LINE
  5
13D6
  8
0
  6
BYBLOCK
 62
     0
 10
0.0
 20
0.0
 30
0.0
 11
-1.0
 21
0.0
 31
0.0
  0
ENDBLK
  5
13D7
  8
0
  0
BLOCK
  8
0
  2
矢印なし
 70
     0
 10
0.0
 20
0.0
 30
0.0
  3
矢印なし
  1

  0
ENDBLK
  5
6E5
  8
0
  0
BLOCK
  8
0
  2
GENAXEH
 70
     0
 10
0.0
 20
0.0
 30
0.0
  3
GENAXEH
  1

  0
LINE
  5
140F
  8
0
 10
-1.0
 20
0.0
 30
0.0
 11
1.0
 21
0.0
 31
0.0
  0
ENDBLK
  5
1410
  8
0
  0
BLOCK
  8
0
  2
_ACMFILLEDHALF
 70
     0
 10
0.0
 20
0.0
 30
0.0
  3
_ACMFILLEDHALF
  1

  0
TRACE
  5
1619
  8
240
 62
     0
 10
-0.8
 20
0.0
 30
0.0
 11
-1.0
 21
0.166666666
 31
0.0
 12
0.0
 22
0.0
 32
0.0
 13
0.0
 23
0.0
 33
0.0
  0
LINE
  5
161A
  8
240
 62
     0
 10
-1.0
 20
0.0
 30
0.0
 11
-0.8
 21
0.0
 31
0.0
  0
ENDBLK
  5
1618
  8
0
  0
ENDSEC
  0
SECTION
  2
ENTITIES
  0
INSERT
  5
6E6
  8
245
  2
矢印なし
 10
175.62382697000001
 20
90.551235719999994
 30
0.0
  0
TEXT
  5
7ED
  8
241
  6
CONTINUOUS
 10
-63.0
 20
63.0
 30
0.0
 40
5.0
  1
DV40-CKB6-65
  7
YOKO
 11
-63.0
 21
63.0
 31
0.0
 73
     1
  0
LINE
  5
D0D
  8
250
  6
CONTINUOUS
 10
-38.226344200000007
 20
-28.055813749999999
 30
0.0
 11
-53.426344200000003
 21
-28.055813749999999
 31
0.0
1001
ITEMNAME
1000
LNSP2
  0
LINE
  5
118D
  8
240
  6
CONTINUOUS
 10
19.100000000000001
 20
24.75
 30
0.0
 11
35.0
 21
24.75
 31
0.0
  0
LINE
  5
118E
  8
240
  6
CONTINUOUS
 10
19.100000000000001
 20
-24.75
 30
0.0
 11
35.0
 21
-24.75
 31
0.0
  0
LINE
  5
118F
  8
245
  6
CENTER2
 10
-69.400000000000006
 20
0.0
 30
0.0
 11
66.0
 21
0.0
 31
0.0
  0
LINE
  5
1190
  8
241
  6
CONTINUOUS
 10
14.636270400000001
 20
31.774999999999999
 30
0.0
 11
14.636270400000001
 21
25.834098109999999
 31
0.0
  0
LINE
  5
1191
  8
241
  6
CONTINUOUS
 10
7.5637296000000003
 20
31.774999999999999
 30
0.0
 11
7.5637296000000003
 21
25.834098109999999
 31
0.0
  0
LINE
  5
1192
  8
245
  6
CENTER2
 10
11.1
 20
-31.774999999999999
 30
0.0
 11
11.1
 21
31.774999999999999
 31
0.0
  0
LINE
  5
1193
  8
240
  6
CONTINUOUS
 10
9.1875
 20
28.962547170000001
 30
0.0
 11
7.5637296000000003
 21
31.774999999999999
 31
0.0
  0
LINE
  5
1194
  8
240
  6
CONTINUOUS
 10
13.012499999999999
 20
28.962547170000001
 30
0.0
 11
14.636270400000001
 21
31.774999999999999
 31
0.0
  0
LINE
  5
1195
  8
240
  6
CONTINUOUS
 10
3.2000000000000002
 20
31.774999999999999
 30
0.0
 11
3.2000000000000002
 21
22.225000000000001
 31
0.0
  0
LINE
  5
1196
  8
240
  6
CONTINUOUS
 10
19.100000000000001
 20
31.774999999999999
 30
0.0
 11
19.100000000000001
 21
24.75
 31
0.0
  0
LINE
  5
1197
  8
240
  6
CONTINUOUS
 10
0.0
 20
-22.225000000000001
 30
0.0
 11
-67.544306890000001
 21
-12.374788580000001
 31
0.0
  0
LINE
  5
1198
  8
240
  6
CONTINUOUS
 10
0.0
 20
22.225000000000001
 30
0.0
 11
-67.544306890000001
 21
12.374788580000001
 31
0.0
  0
LINE
  5
119A
  8
240
  6
CONTINUOUS
 10
-68.400000000000006
 20
-11.385255600000001
 30
0.0
 11
-68.400000000000006
 21
11.385255600000001
 31
0.0
  0
ARC
  5
119B
  8
240
  6
CONTINUOUS
 10
-67.400000000000006
 20
-11.385255600000001
 30
0.0
 40
1.0
 50
180.0
 51
261.70285503000002
  0
ARC
  5
119C
  8
240
  6
CONTINUOUS
 10
-67.400000000000006
 20
11.385255600000001
 30
0.0
 40
1.0
 50
98.297144969999977
 51
180.0
  0
LINE
  5
119D
  8
241
  6
CONTINUOUS
 10
7.5637296000000003
 20
-31.774999999999999
 30
0.0
 11
7.5637296000000003
 21
18.5
 31
0.0
  0
LINE
  5
119E
  8
241
  6
CONTINUOUS
 10
9.1875
 20
-28.125
 30
0.0
 11
9.1875
 21
18.5
 31
0.0
  0
LINE
  5
119F
  8
241
  6
CONTINUOUS
 10
13.012499999999999
 20
-28.125
 30
0.0
 11
13.012499999999999
 21
18.5
 31
0.0
  0
LINE
  5
11A0
  8
241
  6
CONTINUOUS
 10
14.636270400000001
 20
-31.774999999999999
 30
0.0
 11
14.636270400000001
 21
18.5
 31
0.0
  0
LINE
  5
11A1
  8
241
  6
CONTINUOUS
 10
19.100000000000001
 20
-24.75
 30
0.0
 11
19.100000000000001
 21
24.75
 31
0.0
  0
LINE
  5
11A2
  8
241
  6
CONTINUOUS
 10
0.0
 20
-22.225000000000001
 30
0.0
 11
0.0
 21
22.225000000000001
 31
0.0
  0
LINE
  5
11A3
  8
241
  6
CONTINUOUS
 10
3.2000000000000002
 20
-22.225000000000001
 30
0.0
 11
3.2000000000000002
 21
22.225000000000001
 31
0.0
  0
LINE
  5
11A4
  8
243
  6
HIDDEN2
 10
3.2000000000000002
 20
-22.800000000000001
 30
0.0
 11
27.199999999999989
 21
-22.800000000000001
 31
0.0
  0
LINE
  5
11A5
  8
240
  6
CONTINUOUS
 10
3.2000000000000002
 20
-31.774999999999999
 30
0.0
 11
7.5637296000000003
 21
-31.774999999999999
 31
0.0
  0
LINE
  5
11A6
  8
240
  6
CONTINUOUS
 10
3.2000000000000002
 20
-31.774999999999999
 30
0.0
 11
3.2000000000000002
 21
-22.225000000000001
 31
0.0
  0
LINE
  5
11A7
  8
240
  6
CONTINUOUS
 10
0.0
 20
-22.225000000000001
 30
0.0
 11
3.2000000000000002
 21
-22.225000000000001
 31
0.0
  0
LINE
  5
11A8
  8
240
  6
CONTINUOUS
 10
9.1875
 20
-28.125
 30
0.0
 11
13.012499999999999
 21
-28.125
 31
0.0
  0
LINE
  5
11A9
  8
240
  6
CONTINUOUS
 10
9.1875
 20
-28.962547170000001
 30
0.0
 11
9.1875
 21
-28.125
 31
0.0
  0
LINE
  5
11AA
  8
240
  6
CONTINUOUS
 10
9.1875
 20
-28.962547170000001
 30
0.0
 11
7.5637296000000003
 21
-31.774999999999999
 31
0.0
  0
LINE
  5
11AB
  8
240
  6
CONTINUOUS
 10
13.012499999999999
 20
-28.962547170000001
 30
0.0
 11
13.012499999999999
 21
-28.125
 31
0.0
  0
LINE
  5
11AC
  8
240
  6
CONTINUOUS
 10
19.100000000000001
 20
-31.774999999999999
 30
0.0
 11
19.100000000000001
 21
-24.75
 31
0.0
  0
LINE
  5
11AD
  8
240
  6
CONTINUOUS
 10
14.636270400000001
 20
-31.774999999999999
 30
0.0
 11
19.100000000000001
 21
-31.774999999999999
 31
0.0
  0
LINE
  5
11AE
  8
240
  6
CONTINUOUS
 10
13.012499999999999
 20
-28.962547170000001
 30
0.0
 11
14.636270400000001
 21
-31.774999999999999
 31
0.0
  0
LINE
  5
11B5
  8
243
  6
HIDDEN2
 10
3.2000000000000002
 20
25.0
 30
0.0
 11
19.100000000000001
 21
25.0
 31
0.0
  0
LINE
  5
11B6
  8
241
  6
CONTINUOUS
 10
3.2000000000000002
 20
18.5
 30
0.0
 11
19.100000000000001
 21
18.5
 31
0.0
  0
LINE
  5
11B7
  8
241
  6
CONTINUOUS
 10
3.2000000000000002
 20
25.834098109999999
 30
0.0
 11
7.5637296000000003
 21
25.834098109999999
 31
0.0
  0
LINE
  5
11B8
  8
240
  6
CONTINUOUS
 10
0.0
 20
22.225000000000001
 30
0.0
 11
3.2000000000000002
 21
22.225000000000001
 31
0.0
  0
LINE
  5
11B9
  8
241
  6
CONTINUOUS
 10
9.1875
 20
21.18408896
 30
0.0
 11
13.012499999999999
 21
21.18408896
 31
0.0
  0
LINE
  5
11BA
  8
240
  6
CONTINUOUS
 10
9.1875
 20
28.125
 30
0.0
 11
13.012499999999999
 21
28.125
 31
0.0
  0
LINE
  5
11BB
  8
241
  6
CONTINUOUS
 10
9.1875
 20
21.18408896
 30
0.0
 11
9.1875
 21
28.125
 31
0.0
  0
LINE
  5
11BC
  8
241
  6
CONTINUOUS
 10
7.5637296000000003
 20
25.834098109999999
 30
0.0
 11
9.1875
 21
22.284644239999999
 31
0.0
  0
LINE
  5
11BD
  8
240
  6
CONTINUOUS
 10
9.1875
 20
28.962547170000001
 30
0.0
 11
9.1875
 21
28.125
 31
0.0
  0
LINE
  5
11BE
  8
241
  6
CONTINUOUS
 10
13.012499999999999
 20
21.18408896
 30
0.0
 11
13.012499999999999
 21
28.125
 31
0.0
  0
LINE
  5
11BF
  8
241
  6
CONTINUOUS
 10
14.636270400000001
 20
25.834098109999999
 30
0.0
 11
13.012499999999999
 21
22.284644239999999
 31
0.0
  0
LINE
  5
11C0
  8
241
  6
CONTINUOUS
 10
14.636270400000001
 20
25.834098109999999
 30
0.0
 11
19.100000000000001
 21
25.834098109999999
 31
0.0
  0
LINE
  5
11C1
  8
240
  6
CONTINUOUS
 10
13.012499999999999
 20
28.962547170000001
 30
0.0
 11
13.012499999999999
 21
28.125
 31
0.0
  0
LINE
  5
11C2
  8
240
  6
CONTINUOUS
 10
3.2000000000000002
 20
31.774999999999999
 30
0.0
 11
7.5637296000000003
 21
31.774999999999999
 31
0.0
  0
LINE
  5
11C3
  8
240
  6
CONTINUOUS
 10
14.636270400000001
 20
31.774999999999999
 30
0.0
 11
19.100000000000001
 21
31.774999999999999
 31
0.0
  0
LINE
  5
11C5
  8
240
  6
CONTINUOUS
 10
35.0
 20
31.0
 30
0.0
 11
35.0
 21
24.75
 31
0.0
  0
LINE
  5
11C6
  8
240
  6
CONTINUOUS
 10
65.0
 20
-32.0
 30
0.0
 11
65.0
 21
32.0
 31
0.0
  0
LINE
  5
11C7
  8
241
  6
CONTINUOUS
 10
35.0
 20
-24.75
 30
0.0
 11
35.0
 21
24.75
 31
0.0
  0
LINE
  5
11C8
  8
240
  6
CONTINUOUS
 10
65.0
 20
-32.0
 30
0.0
 11
36.0
 21
-32.0
 31
0.0
  0
LINE
  5
11C9
  8
240
  6
CONTINUOUS
 10
35.0
 20
-24.75
 30
0.0
 11
35.0
 21
-31.0
 31
0.0
  0
ARC
  5
11CA
  8
240
  6
CONTINUOUS
 10
36.0
 20
-31.0
 30
0.0
 40
1.0
 50
180.0
 51
270.0
  0
LINE
  5
11D1
  8
240
  6
CONTINUOUS
 10
65.0
 20
32.0
 30
0.0
 11
36.0
 21
32.0
 31
0.0
  0
ARC
  5
11D2
  8
240
  6
CONTINUOUS
 10
36.0
 20
31.0
 30
0.0
 40
1.0
 50
90.0
 51
180.0
1001
GRPNAME
1000
PASTMD0S
  0
LINE
  5
11D3
  8
243
  6
HIDDEN2
 10
27.199999999999989
 20
-22.800000000000001
 30
0.0
 11
27.200000000000021
 21
-24.800000000000001
 31
0.0
  0
LINE
  5
11D8
  8
243
  6
HIDDEN2
 10
6.099999999999997
 20
25.0
 30
0.0
 11
6.0999999999998549
 21
20.400000000000151
 31
0.0
  0
LINE
  5
11D9
  8
243
  6
HIDDEN2
 10
6.0999999999998549
 20
20.400000000000151
 30
0.0
 11
16.100000000000009
 21
20.39999999999964
 31
0.0
  0
LINE
  5
11DA
  8
243
  6
HIDDEN2
 10
16.100000000000009
 20
20.39999999999964
 30
0.0
 11
16.100000000000001
 21
25.0
 31
0.0
  0
LINE
  5
1250
  8
243
  6
HIDDEN2
 10
65.053781513055725
 20
18.000000000000021
 30
0.0
 11
23.003781513055689
 21
18.000000000000021
 31
0.0
1001
GRPNAME
1000
PASTMD01
  0
LINE
  5
1251
  8
243
  6
HIDDEN2
 10
65.053781513055625
 20
-18.000000000000021
 30
0.0
 11
23.00378151305566
 21
-17.999999999999961
 31
0.0
1001
GRPNAME
1000
PASTMD01
  0
LINE
  5
1252
  8
250
  6
CONTINUOUS
 10
62.78582765407841
 20
33.565384141327399
 30
0.0
 11
61.49715252
 21
32.00000000000005
 31
0.0
  0
LINE
  5
1253
  8
250
  6
CONTINUOUS
 10
62.208477384778817
 20
33.898717474470267
 30
0.0
 11
61.49715252
 21
32.00000000000005
 31
0.0
  0
LINE
  5
1254
  8
250
  6
CONTINUOUS
 10
61.49715252
 20
32.00000000000005
 30
0.0
 11
62.497152519428603
 21
33.73205080789883
 31
0.0
  0
TEXT
  5
125A
  8
250
  6
CONTINUOUS
 10
69.857163399470025
 20
46.330209260000061
 30
0.0
 40
2.799999999999998
  1
CK6
  7
YOKO
1001
ITEMNAME
1000
LNSP3
1001
ACAD
1000
MTEXTBEGIN
1070
    73
1070
     1
1070
    44
1040
1.0
1070
    74
1070
     0
1000
MTEXTEND
1000
MTEXTBEGIN
1070
    73
1070
     1
1070
    44
1040
1.0
1070
    74
1070
     0
1000
MTEXTEND
  0
CIRCLE
  5
125B
  8
241
  6
CONTINUOUS
 10
49.0
 20
0.000000000000015
 30
0.0
 40
6.0
  0
CIRCLE
  5
125C
  8
242
  6
CONTINUOUS
 10
49.0
 20
0.000000000000015
 30
0.0
 40
5.5
  0
LINE
  5
125D
  8
245
  6
CENTER2
 10
49.0
 20
7.0000000000000124
 30
0.0
 11
49.0
 21
-6.9999999999999831
 31
0.0
1001
GRPNAME
1000
PASTMD01
  0
LINE
  5
12C7
  8
241
  6
CONTINUOUS
 10
46.0
 20
-1.7320508099999821
 30
0.0
 11
49.0
 21
-3.4641016199999819
 31
0.0
  0
LINE
  5
12C8
  8
241
  6
CONTINUOUS
 10
49.0
 20
-3.4641016199999819
 30
0.0
 11
52.0
 21
-1.7320508099999821
 31
0.0
  0
LINE
  5
12C9
  8
241
  6
CONTINUOUS
 10
52.0
 20
-1.7320508099999821
 30
0.0
 11
52.0
 21
1.732050810000014
 31
0.0
  0
LINE
  5
12CA
  8
241
  6
CONTINUOUS
 10
52.0
 20
1.732050810000014
 30
0.0
 11
49.0
 21
3.4641016200000121
 31
0.0
  0
LINE
  5
12CB
  8
241
  6
CONTINUOUS
 10
49.0
 20
3.4641016200000121
 30
0.0
 11
46.0
 21
1.732050810000014
 31
0.0
  0
LINE
  5
12CC
  8
241
  6
CONTINUOUS
 10
46.0
 20
1.732050810000014
 30
0.0
 11
46.0
 21
-1.7320508099999821
 31
0.0
  0
LINE
  5
12CD
  8
250
  6
CONTINUOUS
 10
62.497152519428603
 20
33.73205080789883
 30
0.0
 11
69.193352418751644
 21
45.330209260000061
 31
0.0
1001
ACAD
1000
DSTYLE
1002
{
1070
     6
1000
OPEN
1070
    41
1040
2.0
1070
    42
1040
2.0
1070
    44
1040
2.0
1070
   140
1040
4.0
1070
   343
1005
0
1002
}
  0
LINE
  5
12CE
  8
250
  6
CONTINUOUS
 10
69.193352418751644
 20
45.330209260000061
 30
0.0
 11
78.884250508440672
 21
45.330209260000061
 31
0.0
1001
ACAD
1000
DSTYLE
1002
{
1070
     6
1000
OPEN
1070
    41
1040
2.0
1070
    42
1040
2.0
1070
    44
1040
2.0
1070
   140
1040
4.0
1070
   343
1005
0
1002
}
  0
TEXT
  5
12CF
  8
250
  6
CONTINUOUS
 10
-51.15967753333333
 20
-27.055813749999999
 30
0.0
 40
2.799999999999998
  1
DV40
  7
YOKO
1001
ITEMNAME
1000
LNSP3
1001
ACAD
1000
MTEXTBEGIN
1070
    73
1070
     1
1070
    44
1040
1.0
1070
    74
1070
     0
1000
MTEXTEND
  0
LINE
  5
12D2
  8
250
  6
CONTINUOUS
 10
65.5
 20
-32.0
 30
0.0
 11
85.0
 21
-32.000000000000007
 31
0.0
  0
LINE
  5
12D3
  8
250
  6
CONTINUOUS
 10
65.500000000000014
 20
32.0
 30
0.0
 11
85.000000000000014
 21
32.0
 31
0.0
  0
LINE
  5
12D4
  8
250
  6
CONTINUOUS
 10
84.0
 20
-29.77
 30
0.0
 11
84.0
 21
29.77
 31
0.0
  0
LINE
  5
12D8
  8
250
  6
CONTINUOUS
 10
0.0
 20
22.725000000000001
 30
0.0
 11
0.0000000000000017
 21
50.0
 31
0.0
  0
LINE
  5
12D9
  8
250
  6
CONTINUOUS
 10
65.0
 20
32.5
 30
0.0
 11
65.0
 21
50.0
 31
0.0
  0
LINE
  5
12DA
  8
250
  6
CONTINUOUS
 10
2.23
 20
49.0
 30
0.0
 11
62.77000000000001
 21
49.0
 31
0.0
  0
LINE
  5
12DE
  8
250
  6
CONTINUOUS
 10
-33.15275920029147
 20
-19.268106757400599
 30
0.0
 11
-38.226344200000007
 21
-28.055813749999999
 31
0.0
1001
ACAD
1000
DSTYLE
1002
{
1070
     6
1000
OPEN
1070
    41
1040
2.0
1070
    42
1040
2.0
1070
    44
1040
2.0
1070
   140
1040
4.0
1070
   343
1005
594
1002
}
  0
LINE
  5
12DF
  8
250
  6
CONTINUOUS
 10
-33.441434334858243
 20
-19.101440090685351
 30
0.0
 11
-32.152759199999998
 21
-17.536055950000002
 31
0.0
  0
LINE
  5
12E0
  8
250
  6
CONTINUOUS
 10
-32.864084065724711
 20
-19.434773424115839
 30
0.0
 11
-32.152759199999998
 21
-17.536055950000002
 31
0.0
  0
LINE
  5
12E1
  8
250
  6
CONTINUOUS
 10
-32.152759199999998
 20
-17.536055950000002
 30
0.0
 11
-33.15275920029147
 21
-19.268106757400599
 31
0.0
  0
TEXT
  5
12E2
  8
250
  6
CONTINUOUS
 10
82.999999999999986
 20
-0.9999999999999992
 30
0.0
 40
2.799999999999998
  1
\U+220564
 50
90.0
  0
LINE
  5
12E3
  8
250
  6
CONTINUOUS
 10
83.628333333333345
 20
29.77
 30
0.0
 11
84.000000000000014
 21
32.0
 31
0.0
  0
LINE
  5
12E4
  8
250
  6
CONTINUOUS
 10
84.371666666666684
 20
29.77
 30
0.0
 11
84.000000000000014
 21
32.0
 31
0.0
  0
LINE
  5
12E5
  8
250
  6
CONTINUOUS
 10
84.000000000000014
 20
32.0
 30
0.0
 11
84.000000000000014
 21
29.77
 31
0.0
  0
LINE
  5
12E6
  8
250
  6
CONTINUOUS
 10
84.371666666666684
 20
-29.77000000000001
 30
0.0
 11
84.0
 21
-32.000000000000007
 31
0.0
  0
LINE
  5
12E7
  8
250
  6
CONTINUOUS
 10
83.628333333333316
 20
-29.77000000000001
 30
0.0
 11
84.0
 21
-32.000000000000007
 31
0.0
  0
LINE
  5
12E8
  8
250
  6
CONTINUOUS
 10
84.0
 20
-32.000000000000007
 30
0.0
 11
84.0
 21
-29.77000000000001
 31
0.0
  0
TEXT
  5
12E9
  8
250
  6
CONTINUOUS
 10
29.766666666666659
 20
50.0
 30
0.0
 40
2.799999999999998
  1
65
  0
LINE
  5
12EA
  8
250
  6
CONTINUOUS
 10
62.77000000000001
 20
49.37166666666667
 30
0.0
 11
65.0
 21
49.0
 31
0.0
  0
LINE
  5
12EB
  8
250
  6
CONTINUOUS
 10
62.77000000000001
 20
48.62833333333333
 30
0.0
 11
65.0
 21
49.0
 31
0.0
  0
LINE
  5
12EC
  8
250
  6
CONTINUOUS
 10
65.0
 20
49.0
 30
0.0
 11
62.77000000000001
 21
49.0
 31
0.0
  0
LINE
  5
12ED
  8
250
  6
CONTINUOUS
 10
2.23
 20
48.62833333333333
 30
0.0
 11
0.0000000000000016
 21
49.0
 31
0.0
  0
LINE
  5
12EE
  8
250
  6
CONTINUOUS
 10
2.23
 20
49.37166666666667
 30
0.0
 11
0.0000000000000016
 21
49.0
 31
0.0
  0
LINE
  5
12EF
  8
250
  6
CONTINUOUS
 10
0.0000000000000016
 20
49.0
 30
0.0
 11
2.23
 21
49.0
 31
0.0
  0
LINE
  5
130A
  8
247
  6
CONTINUOUS
 10
6.499999999999968
 20
-15.75
 30
0.0
 11
6.5000000000000284
 21
-11.11538461567002
 31
0.0
  0
LINE
  5
130B
  8
247
  6
CONTINUOUS
 10
4.0000000000000284
 20
-14.954893499987939
 30
0.0
 11
6.0999999999160321
 21
-15.557058810057351
 31
0.0
  0
LINE
  5
130C
  8
247
  6
CONTINUOUS
 10
4.9961538461140247
 20
-14.32515140351901
 30
0.0
 11
4.9961538461140247
 21
-15.240536018867029
 31
0.0
  0
ARC
  5
130D
  8
247
  6
CONTINUOUS
 10
4.3847190672941281
 20
-14.08726340194678
 30
0.0
 40
0.3876715809326743
 50
72.997889675291773
 51
172.92416621851359
  0
ARC
  5
130E
  8
247
  6
CONTINUOUS
 10
4.3052231310280389
 20
-14.382477556804099
 30
0.0
 40
0.6933047965358772
 50
4.7429368522022131
 51
73.849226273266297
1001
GENIUS_GENOBJ-N-FIL_13
1002
{
1000
OWNER
1000
GEN
1002
}
1001
GENIUS_GENODEF_13
1002
{
1000
HIER
1070
     0
1002
}
1002
{
1000
MANEDIT
1070
     0
1002
}
1002
{
1000
NOSEL
1070
     0
1002
}
1002
{
1000
BEHIND
1070
     0
1002
}
1002
{
1000
OTHER
1070
     0
1002
}
1002
{
1000
REACTOR
1002
}
  0
LINE
  5
130F
  8
247
  6
CONTINUOUS
 10
6.0999999999160321
 20
-14.64167419470934
 30
0.0
 11
6.0999999999160321
 21
-15.557058810057351
 31
0.0
  0
LINE
  5
1310
  8
247
  6
CONTINUOUS
 10
4.0000000000000284
 20
-14.954893499987939
 30
0.0
 11
4.0000000000000284
 21
-14.03950888463995
 31
0.0
  0
ARC
  5
1311
  8
247
  6
CONTINUOUS
 10
5.3874169627679001
 20
-14.378306476266831
 30
0.0
 40
0.394857301075386
 50
65.990941652528889
 51
172.26344345906909
  0
ARC
  5
1312
  8
247
  6
CONTINUOUS
 10
5.391200327332597
 20
-14.712446610426881
 30
0.0
 40
0.7123241612361686
 50
5.7019851642580841
 51
77.277338436822376
1001
GENIUS_GENOBJ-N-FIL_13
1002
{
1000
OWNER
1000
GEN
1002
}
1001
GENIUS_GENODEF_13
1002
{
1000
HIER
1070
     0
1002
}
1002
{
1000
MANEDIT
1070
     0
1002
}
1002
{
1000
NOSEL
1070
     0
1002
}
1002
{
1000
BEHIND
1070
     0
1002
}
1002
{
1000
OTHER
1070
     0
1002
}
1002
{
1000
REACTOR
1002
}
  0
LINE
  5
1313
  8
247
  6
CONTINUOUS
 10
6.0999999999160321
 20
-13.68398188706337
 30
0.0
 11
4.0000000000000284
 21
-13.08181657699396
 31
0.0
  0
LINE
  5
1314
  8
247
  6
CONTINUOUS
 10
4.0000000000000284
 20
-11.58566273090795
 30
0.0
 11
4.0000000000000284
 21
-11.98167836430356
 31
0.0
  0
LINE
  5
1315
  8
247
  6
CONTINUOUS
 10
6.0999999999160321
 20
-12.60873965394395
 30
0.0
 11
6.0999999999160321
 21
-12.17797042319196
 31
0.0
  0
ARC
  5
1316
  8
247
  6
CONTINUOUS
 10
5.4582995950833881
 20
-11.381816577069941
 30
0.0
 40
1.576855057639547
 50
202.35948814152911
 51
254.99324854284609
  0
ARC
  5
1317
  8
247
  6
CONTINUOUS
 10
4.5658188585381634
 20
-11.847511366133199
 30
0.0
 40
0.6234706797009447
 50
94.994589319075317
 51
155.1663289573039
1001
GENIUS_GENOBJ-N-FIL_13
1002
{
1000
OWNER
1000
GEN
1002
}
1001
GENIUS_GENODEF_13
1002
{
1000
HIER
1070
     0
1002
}
1002
{
1000
MANEDIT
1070
     0
1002
}
1002
{
1000
NOSEL
1070
     0
1002
}
1002
{
1000
BEHIND
1070
     0
1002
}
1002
{
1000
OTHER
1070
     0
1002
}
1002
{
1000
REACTOR
1002
}
  0
ARC
  5
1318
  8
247
  6
CONTINUOUS
 10
5.1621021219694683
 20
-12.44418395103278
 30
0.0
 40
0.9749472149106983
 50
15.8460965557808
 51
82.325137004169065
  0
ARC
  5
1319
  8
247
  6
CONTINUOUS
 10
5.371470401971095
 20
-12.035211638772211
 30
0.0
 40
0.9271945638692009
 50
249.7136016704969
 51
321.78874565640928
1001
GENIUS_GENOBJ-N-FIL_13
1002
{
1000
OWNER
1000
GEN
1002
}
1001
GENIUS_GENODEF_13
1002
{
1000
HIER
1070
     0
1002
}
1002
{
1000
MANEDIT
1070
     0
1002
}
1002
{
1000
NOSEL
1070
     0
1002
}
1002
{
1000
BEHIND
1070
     0
1002
}
1002
{
1000
OTHER
1070
     0
1002
}
1002
{
1000
REACTOR
1002
}
  0
LINE
  5
131A
  8
247
  6
CONTINUOUS
 10
5.2923076922560011
 20
-11.962585807815939
 30
0.0
 11
5.2923076922560011
 21
-11.47797042321994
 31
0.0
  0
ARC
  5
131B
  8
247
  6
CONTINUOUS
 10
5.2500000000000284
 20
-15.75
 30
0.0
 40
1.25
 50
180.0
 51
0.0
  0
LINE
  5
131C
  8
247
  6
CONTINUOUS
 10
4.0000000000000284
 20
-15.75
 30
0.0
 11
4.0000000000000284
 21
-15.30384615391401
 31
0.0
  0
ARC
  5
131D
  8
247
  6
CONTINUOUS
 10
5.2500000000000284
 20
-11.11538461567002
 30
0.0
 40
1.25
 50
0.0
 51
180.0
  0
VIEWPORT
  5
22
 67
     1
  8
0
 10
261.51769911999997
 20
148.5
 30
0.0
 40
523.03539823000006
 41
297.0
 68
     1
 69
     1
1001
ACAD
1000
MVIEW
1002
{
1070
    16
1010
0.0
1020
0.0
1030
0.0
1010
0.0
1020
0.0
1030
1.0
1040
0.0
1040
297.0
1040
261.51769911999997
1040
148.5
1040
50.0
1040
0.0
1040
0.0
1070
     0
1070
   100
1070
     1
1070
     1
1070
     0
1070
     0
1070
     0
1070
     0
1040
0.0
1040
0.0
1040
0.0
1040
1.0
1040
1.0
1040
10.0
1040
10.0
1070
     0
1002
{
1002
}
1002
}
1001
GENIUS_GENOBJ-N-SDF_13
1002
{
1000
OWNER
1000
GEN
1002
}
1001
GENIUS_GENODEF_13
1002
{
1000
HIER
1070
     0
1002
}
1002
{
1000
MANEDIT
1070
     0
1002
}
1002
{
1000
NOSEL
1070
     0
1002
}
1002
{
1000
BEHIND
1070
     0
1002
}
1002
{
1000
OTHER
1070
     0
1002
}
1002
{
1000
REACTOR
1002
}
1001
GENIUS_GENSCREG_15
1000
PF
1040
1.0
1000
DF
1040
1.0
1000
MIN
1011
0.0000000049999471
1021
0.0
1031
0.0
1021
0.0
1031
0.0
1000
MAX
1011
523.035398235
1021
0.0
1031
0.0
1021
297.0
1031
0.0
1000
FLAGS
1070
     4
  0
ENDSEC
  0
EOF
