  0
SECTION
  2
HEADER
  9
$ACADVER
  1
AC1009
  9
$INSBASE
 10
0.0
 20
0.0
 30
0.0
  9
$EXTMIN
 10
-72.914822840052466
 20
-32.538424710015882
 30
0.0
  9
$EXTMAX
 10
102.0866965100011
 20
61.0
 30
0.0
  9
$LIMMIN
 10
0.0
 20
0.0
  9
$LIMMAX
 10
297.0
 20
210.0
  9
$ORTHOMODE
 70
     0
  9
$REGENMODE
 70
     1
  9
$FILLMODE
 70
     1
  9
$QTEXTMODE
 70
     0
  9
$MIRRTEXT
 70
     1
  9
$DRAGMODE
 70
     2
  9
$LTSCALE
 40
10.0
  9
$OSMODE
 70
    39
  9
$ATTMODE
 70
     1
  9
$TEXTSIZE
 40
3.0
  9
$TRACEWID
 40
1.0
  9
$TEXTSTYLE
  7
YOKO
  9
$CLAYER
  8
240
  9
$CELTYPE
  6
BYLAYER
  9
$CECOLOR
 62
   256
  9
$DIMSCALE
 40
1.0
  9
$DIMASZ
 40
2.2299999999999991
  9
$DIMEXO
 40
0.5
  9
$DIMDLI
 40
7.0
  9
$DIMRND
 40
0.0
  9
$DIMDLE
 40
0.0
  9
$DIMEXE
 40
1.0
  9
$DIMTP
 40
0.0
  9
$DIMTM
 40
0.01
  9
$DIMTXT
 40
2.799999999999998
  9
$DIMCEN
 40
0.0
  9
$DIMTSZ
 40
0.0
  9
$DIMTOL
 70
     0
  9
$DIMLIM
 70
     0
  9
$DIMTIH
 70
     0
  9
$DIMTOH
 70
     0
  9
$DIMSE1
 70
     0
  9
$DIMSE2
 70
     0
  9
$DIMTAD
 70
     3
  9
$DIMZIN
 70
     9
  9
$DIMBLK
  1
OPEN
  9
$DIMASO
 70
     1
  9
$DIMSHO
 70
     1
  9
$DIMPOST
  1

  9
$DIMAPOST
  1

  9
$DIMALT
 70
     0
  9
$DIMALTD
 70
     2
  9
$DIMALTF
 40
25.399999999999999
  9
$DIMLFAC
 40
1.0
  9
$DIMTOFL
 70
     1
  9
$DIMTVP
 40
0.0
  9
$DIMTIX
 70
     1
  9
$DIMSOXD
 70
     0
  9
$DIMSAH
 70
     0
  9
$DIMBLK1
  1

  9
$DIMBLK2
  1

  9
$DIMSTYLE
  2
BIGT
  9
$DIMCLRD
 70
   256
  9
$DIMCLRE
 70
   256
  9
$DIMCLRT
 70
    40
  9
$DIMTFAC
 40
1.0
  9
$DIMGAP
 40
1.0
  9
$LUNITS
 70
     2
  9
$LUPREC
 70
     6
  9
$SKETCHINC
 40
1.0
  9
$FILLETRAD
 40
0.0
  9
$AUNITS
 70
     0
  9
$AUPREC
 70
     6
  9
$MENU
  1
.
  9
$ELEVATION
 40
0.0
  9
$PELEVATION
 40
0.0
  9
$THICKNESS
 40
0.0
  9
$LIMCHECK
 70
     0
  9
$BLIPMODE
 70
     0
  9
$CHAMFERA
 40
0.2
  9
$CHAMFERB
 40
0.2
  9
$SKPOLY
 70
     0
  9
$TDCREATE
 40
2459654.449598148
  9
$TDUPDATE
 40
2460208.5842052321
  9
$TDINDWG
 40
0.006802419
  9
$TDUSRTIMER
 40
0.0068023611
  9
$USRTIMER
 70
     1
  9
$ANGBASE
 50
0.0
  9
$ANGDIR
 70
     0
  9
$PDMODE
 70
     1
  9
$PDSIZE
 40
0.0
  9
$PLINEWID
 40
0.0
  9
$COORDS
 70
     1
  9
$SPLFRAME
 70
     0
  9
$SPLINETYPE
 70
     6
  9
$SPLINESEGS
 70
     4
  9
$ATTDIA
 70
     1
  9
$ATTREQ
 70
     1
  9
$HANDLING
 70
     1
  9
$HANDSEED
  5
4A70
  9
$SURFTAB1
 70
     6
  9
$SURFTAB2
 70
     6
  9
$SURFTYPE
 70
     6
  9
$SURFU
 70
     6
  9
$SURFV
 70
     6
  9
$UCSNAME
  2

  9
$UCSORG
 10
0.0
 20
0.0
 30
0.0
  9
$UCSXDIR
 10
1.0
 20
0.0
 30
0.0
  9
$UCSYDIR
 10
0.0
 20
1.0
 30
0.0
  9
$PUCSNAME
  2

  9
$PUCSORG
 10
0.0
 20
0.0
 30
0.0
  9
$PUCSXDIR
 10
1.0
 20
0.0
 30
0.0
  9
$PUCSYDIR
 10
0.0
 20
1.0
 30
0.0
  9
$USERI1
 70
     1
  9
$USERI2
 70
     0
  9
$USERI3
 70
     0
  9
$USERI4
 70
     0
  9
$USERI5
 70
     0
  9
$USERR1
 40
0.0
  9
$USERR2
 40
0.0
  9
$USERR3
 40
0.0
  9
$USERR4
 40
0.0
  9
$USERR5
 40
0.0
  9
$WORLDVIEW
 70
     1
  9
$SHADEDGE
 70
     3
  9
$SHADEDIF
 70
    70
  9
$TILEMODE
 70
     1
  9
$MAXACTVP
 70
    16
  9
$PLIMCHECK
 70
     0
  9
$PEXTMIN
 10
1.0000000000000000E+020
 20
1.0000000000000000E+020
 30
1.0000000000000000E+020
  9
$PEXTMAX
 10
-1.0000000000000000E+020
 20
-1.0000000000000000E+020
 30
-1.0000000000000000E+020
  9
$PLIMMIN
 10
0.0
 20
0.0
  9
$PLIMMAX
 10
420.0
 20
297.0
  9
$UNITMODE
 70
     0
  9
$VISRETAIN
 70
     1
  9
$PLINEGEN
 70
     0
  9
$PSLTSCALE
 70
     1
  0
ENDSEC
  0
SECTION
  2
TABLES
  0
TABLE
  2
VPORT
 70
     1
  0
VPORT
  2
*ACTIVE
 70
     0
 10
0.0
 20
0.0
 11
1.0
 21
1.0
 12
28.08981373363844
 22
14.59657999518708
 13
0.0
 23
0.0
 14
7.0
 24
7.0
 15
7.0
 25
7.0
 16
0.0
 26
0.0
 36
1.0
 17
0.0
 27
0.0
 37
0.0
 40
174.86075533387381
 41
1.5756457564575641
 42
50.0
 43
0.0
 44
0.0
 50
0.0
 51
0.0
 71
     0
 72
  2000
 73
     1
 74
     0
 75
     0
 76
     1
 77
     0
 78
     0
  0
ENDTAB
  0
TABLE
  2
LTYPE
 70
    22
  0
LTYPE
  2
CONTINUOUS
 70
     0
  3
Solid line
 72
    65
 73
     0
 40
0.0
  0
LTYPE
  2
CENTER2
 70
     0
  3
___ _ ___ _ ___ _ ___ _ ___ _ ___ _ ___ _ ___ _
 72
    65
 73
     4
 40
1.125
 49
0.75
 49
-0.125
 49
0.125
 49
-0.125
  0
LTYPE
  2
HIDDEN2
 70
     0
  3
_ _ _ _ _ _ _ _ _ _ _ _ _ _ _ _ _ _ _ _ _ _ _ _
 72
    65
 73
     2
 40
0.1875
 49
0.125
 49
-0.0625
  0
LTYPE
  2
PHANTOM2
 70
     0
  3
___ _ _ ___ _ _ ___ _ _ ___ _ _ ___ _ _ ___ _ _
 72
    65
 73
     6
 40
1.25
 49
0.625
 49
-0.125
 49
0.125
 49
-0.125
 49
0.125
 49
-0.125
  0
LTYPE
  2
AMCONSTR
 70
     0
  3
_______________________
 72
    65
 73
     2
 40
9999.0
 49
9999.0
 49
0.0
  0
LTYPE
  2
HIDDEN
 70
     0
  3
Hidden __ __ __ __ __ __ __ __ __ __ __ __ __ _
 72
    65
 73
     2
 40
0.375
 49
0.25
 49
-0.125
  0
LTYPE
  2
CENTER
 70
     0
  3
Center ____ _ ____ _ ____ _ ____ _ ____ _ ____
 72
    65
 73
     4
 40
2.0
 49
1.25
 49
-0.25
 49
0.25
 49
-0.25
  0
LTYPE
  2
AMZIGZAG2
 70
     0
  3
/\/-/\/-/\/-/\/-/\/-/\/
 72
    65
 73
     2
 40
0.4401
 49
0.0001
 49
-0.4400000000000001
  0
LTYPE
  2
ACANSTGB
 70
     0
  3
__ . . __ . .
 72
    65
 73
     6
 40
0.35433070866
 49
0.15748031496
 49
-0.03937007874
 49
0.03937007874
 49
-0.03937007874
 49
0.03937007874
 49
-0.03937007874
  0
LTYPE
  2
ACANSTGL
 70
     0
  3
_ _ _ _ _
 72
    65
 73
     2
 40
0.11811023622
 49
0.07874015748
 49
-0.03937007874
  0
ENDTAB
  0
TABLE
  2
LAYER
 70
     9
  0
LAYER
  2
0
 70
     0
 62
     7
  6
CONTINUOUS
  0
LAYER
  2
240
 70
     0
 62
     4
  6
CONTINUOUS
  0
LAYER
  2
DEFPOINTS
 70
     0
 62
     7
  6
CONTINUOUS
  0
LAYER
  2
245
 70
     0
 62
     2
  6
CENTER2
  0
LAYER
  2
241
 70
     0
 62
   211
  6
CONTINUOUS
  0
LAYER
  2
242
 70
     0
 62
     3
  6
CONTINUOUS
  0
LAYER
  2
243
 70
     0
 62
   211
  6
HIDDEN2
  0
LAYER
  2
247
 70
     0
 62
    60
  6
CONTINUOUS
  0
LAYER
  2
250
 70
     0
 62
     3
  6
CONTINUOUS
  0
ENDTAB
  0
TABLE
  2
STYLE
 70
    10
  0
STYLE
  2
STANDARD
 70
     0
 40
0.0
 41
1.0
 50
0.0
 71
     0
 42
3.0
  3
romans.shx
  4
extfont.shx
  0
STYLE
  2
YOKO
 70
     0
 40
0.0
 41
1.0
 50
0.0
 71
     0
 42
3.0
  3
romans.shx
  4
extfont.shx
  0
STYLE
  2

 70
     1
 40
0.0
 41
1.0
 50
0.0
 71
     0
 42
3.0
  3
genltshp.shx
  4

  0
STYLE
  2
ACANSGDT
 70
     0
 40
0.0
 41
1.0
 50
0.0
 71
     0
 42
3.0
  3
amgdt.shx
  4

  0
ENDTAB
  0
TABLE
  2
VIEW
 70
     0
  0
ENDTAB
  0
TABLE
  2
UCS
 70
     0
  0
ENDTAB
  0
TABLE
  2
APPID
 70
    37
  0
APPID
  2
ACAD
 70
     0
  0
APPID
  2
ACADANNOTATIVE
 70
     0
  0
APPID
  2
GLOBAL
 70
     0
  0
APPID
  2
DETAIL
 70
     0
  0
APPID
  2
GRPNAME
 70
     0
  0
APPID
  2
GPARA
 70
     0
  0
APPID
  2
MCAD_NO_VIS
 70
     0
  0
APPID
  2
ACAD_TEMP_GRAPHIC
 70
     0
  0
APPID
  2
ACATTRIBSERVICES
 70
     0
  0
APPID
  2
GENIUS_GENSCREG_15
 70
     0
  0
APPID
  2
GENIUS_GENODEF_13
 70
     0
  0
APPID
  2
GENIUS_GENOBJ-N-SDF_13
 70
     0
  0
APPID
  2
GENIUS_GENREC_14
 70
     0
  0
APPID
  2
GENIUS_GENOBJ-N-REC_13
 70
     0
  0
APPID
  2
GENIUS_GENDIMSH_14
 70
     0
  0
APPID
  2
GENIUS_GENOBJ-N-DIM_13
 70
     0
  0
APPID
  2
GENIUS_GENDIM_13
 70
     0
  0
APPID
  2
GENIUS_GENDTOL_13
 70
     0
  0
APPID
  2
GENIUS_GENOLIS_13
 70
     0
  0
APPID
  2
GENIUS_GENOENT_13
 70
     0
  0
APPID
  2
GENIUS_GENOBJ-F-FEM_13
 70
     0
  0
APPID
  2
GENIUS_GENOREF_13
 70
     0
  0
APPID
  2
GENIUS_GEFFEM_13
 70
     0
  0
APPID
  2
GENIUS_GEFFEMP_13
 70
     0
  0
APPID
  2
AD_DRAW
 70
     0
  0
APPID
  2
DESIGNERASSEMBLIES
 70
     0
  0
APPID
  2
ACADM_DIM_EDIT
 70
     0
  0
APPID
  2
AMDT_DM_ADJ
 70
     0
  0
APPID
  2
ITEMNAME
 70
     0
  0
APPID
  2
GENIUS_GENOBJ-N-FIL_13
 70
     0
  0
APPID
  2
GENIUS_GENFIL_13
 70
     0
  0
APPID
  2
GENIUS_GENOBJ-N-CHA_13
 70
     0
  0
APPID
  2
ACAD_NAV_VCDISPLAY
 70
     0
  0
APPID
  2
ACAD_EXEMPT_FROM_CAD_STANDARDS
 70
     0
  0
APPID
  2
ACAD_MLEADERVER
 70
     0
  0
APPID
  2
ACAD_DSTYLE_DIMJAG
 70
     0
  0
APPID
  2
ACAD_DSTYLE_DIMBREAK
 70
     0
  0
ENDTAB
  0
TABLE
  2
DIMSTYLE
 70
    31
  0
DIMSTYLE
  2
STANDARD
 70
     0
  3

  4

  5

  6

  7

 40
1.0
 41
0.18
 42
0.0625
 43
0.38
 44
0.18
 45
0.0
 46
0.0
 47
0.0
 48
0.0
140
0.18
141
0.09
142
0.0
143
25.399999999999999
144
1.0
145
0.0
146
1.0
147
0.09
 71
     0
 72
     0
 73
     1
 74
     1
 75
     0
 76
     0
 77
     0
 78
     0
170
     0
171
     2
172
     0
173
     0
174
     0
175
     0
176
     0
177
     0
178
     0
  0
DIMSTYLE
  2
BIGT
 70
     0
  3

  4

  5

  6

  7

 40
1.0
 41
2.2299999999999991
 42
0.5
 43
7.0
 44
1.0
 45
0.0
 46
0.0
 47
0.0
 48
0.01
140
2.799999999999998
141
0.0
142
0.0
143
25.399999999999999
144
1.0
145
0.0
146
1.0
147
1.0
 71
     0
 72
     0
 73
     0
 74
     0
 75
     0
 76
     0
 77
     3
 78
     9
170
     0
171
     2
172
     1
173
     0
174
     1
175
     0
176
   256
177
   256
178
    40
  0
DIMSTYLE
  2
AM_ANSI
 70
     0
  3

  4
mm
  5

  6

  7

 40
1.0
 41
0.12
 42
0.05
 43
0.5
 44
0.1
 45
0.0
 46
0.0
 47
0.1
 48
0.1
140
0.12
141
0.0
142
0.0
143
25.399999999999999
144
1.0
145
0.0
146
0.71
147
0.06
 71
     0
 72
     0
 73
     1
 74
     1
 75
     0
 76
     0
 77
     0
 78
     7
170
     0
171
     2
172
     0
173
     0
174
     0
175
     0
176
   256
177
   256
178
     2
  0
DIMSTYLE
  2
AM_ANSI$3
 70
     0
  3

  4
mm
  5

  6

  7

 40
1.0
 41
0.12
 42
0.05
 43
0.5
 44
0.1
 45
0.0
 46
0.0
 47
0.1
 48
0.1
140
0.12
141
0.0
142
0.0
143
25.399999999999999
144
1.0
145
0.0
146
0.71
147
0.06
 71
     0
 72
     0
 73
     1
 74
     1
 75
     0
 76
     0
 77
     0
 78
     7
170
     0
171
     2
172
     0
173
     0
174
     0
175
     0
176
   256
177
   256
178
     2
  0
DIMSTYLE
  2
AM_ANSI$4
 70
     0
  3

  4
mm
  5

  6

  7

 40
1.0
 41
0.12
 42
0.05
 43
0.5
 44
0.1
 45
0.0
 46
0.0
 47
0.1
 48
0.1
140
0.12
141
0.0
142
0.0
143
25.399999999999999
144
1.0
145
0.0
146
0.71
147
0.06
 71
     0
 72
     0
 73
     1
 74
     1
 75
     0
 76
     0
 77
     0
 78
     7
170
     0
171
     2
172
     0
173
     0
174
     0
175
     0
176
   256
177
   256
178
     2
  0
DIMSTYLE
  2
AM_ANSI$7
 70
     0
  3

  4
mm
  5

  6

  7

 40
1.0
 41
0.12
 42
0.05
 43
0.5
 44
0.1
 45
0.0
 46
0.0
 47
0.1
 48
0.1
140
0.12
141
0.0
142
0.0
143
25.399999999999999
144
1.0
145
0.0
146
0.71
147
0.06
 71
     0
 72
     0
 73
     1
 74
     1
 75
     0
 76
     0
 77
     0
 78
     7
170
     0
171
     2
172
     0
173
     0
174
     0
175
     0
176
   256
177
   256
178
     2
  0
DIMSTYLE
  2
AM_ANSI$SF
 70
     0
  3

  4
mm
  5

  6

  7

 40
1.0
 41
0.12
 42
0.05
 43
0.5
 44
0.1
 45
0.0
 46
0.0
 47
0.1
 48
0.1
140
0.12
141
0.0
142
0.0
143
25.399999999999999
144
1.0
145
0.0
146
0.71
147
0.06
 71
     0
 72
     0
 73
     1
 74
     1
 75
     1
 76
     1
 77
     0
 78
     7
170
     0
171
     2
172
     0
173
     0
174
     0
175
     0
176
   256
177
   256
178
     2
  0
DIMSTYLE
  2
AM_ANSI$SH
 70
     0
  3

  4
mm
  5

  6
GENAXEH
  7

 40
1.0
 41
0.12
 42
0.05
 43
0.5
 44
0.1
 45
0.0
 46
0.0
 47
0.1
 48
0.1
140
0.12
141
0.0
142
0.0
143
25.399999999999999
144
1.0
145
0.0
146
0.71
147
0.06
 71
     0
 72
     0
 73
     1
 74
     1
 75
     1
 76
     1
 77
     0
 78
     7
170
     0
171
     2
172
     0
173
     1
174
     0
175
     0
176
   256
177
   256
178
     2
  0
ENDTAB
  0
ENDSEC
  0
SECTION
  2
BLOCKS
  0
BLOCK
  8
0
  2
$MODEL_SPACE
 70
     0
 10
0.0
 20
0.0
 30
0.0
  3
$MODEL_SPACE
  1

  0
ENDBLK
  5
4651
  8
0
  0
BLOCK
 67
     1
  8
0
  2
$PAPER_SPACE
 70
     0
 10
0.0
 20
0.0
 30
0.0
  3
$PAPER_SPACE
  1

  0
ENDBLK
  5
464D
 67
     1
  8
0
  0
BLOCK
  8
0
  2
_OPEN
 70
     0
 10
0.0
 20
0.0
 30
0.0
  3
_OPEN
  1

  0
LINE
  5
44E8
  8
0
  6
BYBLOCK
 62
     0
 10
-1.0
 20
0.1666666666666666
 30
0.0
 11
0.0
 21
0.0
 31
0.0
  0
LINE
  5
44E9
  8
0
  6
BYBLOCK
 62
     0
 10
-1.0
 20
-0.1666666666666666
 30
0.0
 11
0.0
 21
0.0
 31
0.0
  0
LINE
  5
44EA
  8
0
  6
BYBLOCK
 62
     0
 10
0.0
 20
0.0
 30
0.0
 11
-1.0
 21
0.0
 31
0.0
  0
ENDBLK
  5
44EB
  8
0
  0
BLOCK
  8
0
  2
GENAXEH
 70
     0
 10
0.0
 20
0.0
 30
0.0
  3
GENAXEH
  1

  0
LINE
  5
4523
  8
0
 10
-1.0
 20
0.0
 30
0.0
 11
1.0
 21
0.0
 31
0.0
  0
ENDBLK
  5
4524
  8
0
  0
BLOCK
  8
0
  2
_ACMFILLEDHALF
 70
     0
 10
0.0
 20
0.0
 30
0.0
  3
_ACMFILLEDHALF
  1

  0
TRACE
  5
4711
  8
240
 62
     0
 10
-0.8
 20
0.0
 30
0.0
 11
-1.0
 21
0.166666666
 31
0.0
 12
0.0
 22
0.0
 32
0.0
 13
0.0
 23
0.0
 33
0.0
  0
LINE
  5
4712
  8
240
 62
     0
 10
-1.0
 20
0.0
 30
0.0
 11
-0.8
 21
0.0
 31
0.0
  0
ENDBLK
  5
4710
  8
0
  0
ENDSEC
  0
SECTION
  2
ENTITIES
  0
TEXT
  5
4225
  8
241
  6
CONTINUOUS
 10
-68.400000000000006
 20
56.0
 30
0.0
 40
5.0
  1
DV40-CKB2-85
  7
YOKO
 11
-68.400000000000006
 21
56.0
 31
0.0
 73
     1
  0
LINE
  5
422C
  8
250
  6
CONTINUOUS
 10
-43.674350680000003
 20
-28.07297784
 30
0.0
 11
-57.141017349999991
 21
-28.07297784
 31
0.0
1001
ITEMNAME
1000
LNSP2
  0
LINE
  5
42B0
  8
245
  6
CENTER2
 10
-69.400000000000006
 20
0.0
 30
0.0
 11
86.0
 21
0.0
 31
0.0
  0
LINE
  5
42B1
  8
240
  6
CONTINUOUS
 10
19.100000000000001
 20
22.350000000000001
 30
0.0
 11
34.0
 21
22.350000000000001
 31
0.0
  0
LINE
  5
42B2
  8
240
  6
CONTINUOUS
 10
19.100000000000001
 20
-22.350000000000001
 30
0.0
 11
34.0
 21
-22.350000000000001
 31
0.0
  0
LINE
  5
42B3
  8
241
  6
CONTINUOUS
 10
7.5637296000000003
 20
25.834098109999999
 30
0.0
 11
7.5637296000000003
 21
31.774999999999999
 31
0.0
  0
LINE
  5
42B4
  8
241
  6
CONTINUOUS
 10
14.636270400000001
 20
25.834098109999999
 30
0.0
 11
14.636270400000001
 21
31.774999999999999
 31
0.0
  0
LINE
  5
42B5
  8
240
  6
CONTINUOUS
 10
19.100000000000001
 20
31.774999999999999
 30
0.0
 11
19.100000000000001
 21
22.350000000000001
 31
0.0
  0
LINE
  5
42B6
  8
240
  6
CONTINUOUS
 10
3.2000000000000002
 20
31.774999999999999
 30
0.0
 11
3.2000000000000002
 21
22.225000000000001
 31
0.0
  0
LINE
  5
42B7
  8
240
  6
CONTINUOUS
 10
13.012499999999999
 20
28.962547170000001
 30
0.0
 11
14.636270400000001
 21
31.774999999999999
 31
0.0
  0
LINE
  5
42B8
  8
240
  6
CONTINUOUS
 10
9.1875
 20
28.962547170000001
 30
0.0
 11
7.5637296000000003
 21
31.774999999999999
 31
0.0
  0
LINE
  5
42B9
  8
245
  6
CENTER2
 10
11.1
 20
-31.774999999999999
 30
0.0
 11
11.1
 21
31.774999999999999
 31
0.0
  0
LINE
  5
42BA
  8
240
  6
CONTINUOUS
 10
0.0
 20
22.225000000000001
 30
0.0
 11
-67.544306890000001
 21
12.374788580000001
 31
0.0
  0
LINE
  5
42BB
  8
240
  6
CONTINUOUS
 10
0.0
 20
-22.225000000000001
 30
0.0
 11
-67.544306890000001
 21
-12.374788580000001
 31
0.0
  0
LINE
  5
42BD
  8
240
  6
CONTINUOUS
 10
-68.400000000000006
 20
-11.385255600000001
 30
0.0
 11
-68.400000000000006
 21
11.385255600000001
 31
0.0
  0
ARC
  5
42BE
  8
240
  6
CONTINUOUS
 10
-67.400000000000006
 20
-11.385255600000001
 30
0.0
 40
1.0
 50
180.0
 51
261.70285503000002
  0
ARC
  5
42BF
  8
240
  6
CONTINUOUS
 10
-67.400000000000006
 20
11.385255600000001
 30
0.0
 40
1.0
 50
98.297144969999977
 51
180.0
  0
LINE
  5
42C0
  8
241
  6
CONTINUOUS
 10
7.5637296000000003
 20
-31.774999999999999
 30
0.0
 11
7.5637296000000003
 21
18.5
 31
0.0
  0
LINE
  5
42C1
  8
241
  6
CONTINUOUS
 10
9.1875
 20
-28.125
 30
0.0
 11
9.1875
 21
18.5
 31
0.0
  0
LINE
  5
42C2
  8
241
  6
CONTINUOUS
 10
13.012499999999999
 20
-28.125
 30
0.0
 11
13.012499999999999
 21
18.5
 31
0.0
  0
LINE
  5
42C3
  8
241
  6
CONTINUOUS
 10
14.636270400000001
 20
-31.774999999999999
 30
0.0
 11
14.636270400000001
 21
18.5
 31
0.0
  0
LINE
  5
42C4
  8
241
  6
CONTINUOUS
 10
19.100000000000001
 20
-22.350000000000001
 30
0.0
 11
19.100000000000001
 21
22.350000000000001
 31
0.0
  0
LINE
  5
42C5
  8
241
  6
CONTINUOUS
 10
3.2000000000000002
 20
-22.225000000000001
 30
0.0
 11
3.2000000000000002
 21
22.225000000000001
 31
0.0
  0
LINE
  5
42C6
  8
241
  6
CONTINUOUS
 10
0.0
 20
-22.225000000000001
 30
0.0
 11
0.0
 21
22.225000000000001
 31
0.0
  0
LINE
  5
42C7
  8
243
  6
HIDDEN2
 10
3.2000000000000002
 20
-22.800000000000001
 30
0.0
 11
19.100000000000001
 21
-22.800000000000001
 31
0.0
  0
LINE
  5
42C8
  8
240
  6
CONTINUOUS
 10
3.2000000000000002
 20
-31.774999999999999
 30
0.0
 11
7.5637296000000003
 21
-31.774999999999999
 31
0.0
  0
LINE
  5
42C9
  8
240
  6
CONTINUOUS
 10
3.2000000000000002
 20
-31.774999999999999
 30
0.0
 11
3.2000000000000002
 21
-22.225000000000001
 31
0.0
  0
LINE
  5
42CA
  8
240
  6
CONTINUOUS
 10
0.0
 20
-22.225000000000001
 30
0.0
 11
3.2000000000000002
 21
-22.225000000000001
 31
0.0
  0
LINE
  5
42CB
  8
240
  6
CONTINUOUS
 10
9.1875
 20
-28.125
 30
0.0
 11
13.012499999999999
 21
-28.125
 31
0.0
  0
LINE
  5
42CC
  8
240
  6
CONTINUOUS
 10
9.1875
 20
-28.962547170000001
 30
0.0
 11
7.5637296000000003
 21
-31.774999999999999
 31
0.0
  0
LINE
  5
42CD
  8
240
  6
CONTINUOUS
 10
9.1875
 20
-28.962547170000001
 30
0.0
 11
9.1875
 21
-28.125
 31
0.0
  0
LINE
  5
42CE
  8
240
  6
CONTINUOUS
 10
19.100000000000001
 20
-31.774999999999999
 30
0.0
 11
19.100000000000001
 21
-22.350000000000001
 31
0.0
  0
LINE
  5
42CF
  8
240
  6
CONTINUOUS
 10
14.636270400000001
 20
-31.774999999999999
 30
0.0
 11
19.100000000000001
 21
-31.774999999999999
 31
0.0
  0
LINE
  5
42D0
  8
240
  6
CONTINUOUS
 10
13.012499999999999
 20
-28.962547170000001
 30
0.0
 11
13.012499999999999
 21
-28.125
 31
0.0
  0
LINE
  5
42D1
  8
240
  6
CONTINUOUS
 10
13.012499999999999
 20
-28.962547170000001
 30
0.0
 11
14.636270400000001
 21
-31.774999999999999
 31
0.0
  0
LINE
  5
42D8
  8
241
  6
CONTINUOUS
 10
3.2000000000000002
 20
25.834098109999999
 30
0.0
 11
7.5637296000000003
 21
25.834098109999999
 31
0.0
  0
LINE
  5
42D9
  8
241
  6
CONTINUOUS
 10
3.2000000000000002
 20
18.5
 30
0.0
 11
19.100000000000001
 21
18.5
 31
0.0
  0
LINE
  5
42DA
  8
240
  6
CONTINUOUS
 10
0.0
 20
22.225000000000001
 30
0.0
 11
3.2000000000000002
 21
22.225000000000001
 31
0.0
  0
LINE
  5
42DB
  8
241
  6
CONTINUOUS
 10
9.1875
 20
21.18408896
 30
0.0
 11
13.012499999999999
 21
21.18408896
 31
0.0
  0
LINE
  5
42DC
  8
240
  6
CONTINUOUS
 10
9.1875
 20
28.125
 30
0.0
 11
13.012499999999999
 21
28.125
 31
0.0
  0
LINE
  5
42DD
  8
241
  6
CONTINUOUS
 10
9.1875
 20
21.18408896
 30
0.0
 11
9.1875
 21
28.125
 31
0.0
  0
LINE
  5
42DE
  8
241
  6
CONTINUOUS
 10
7.5637296000000003
 20
25.834098109999999
 30
0.0
 11
9.1875
 21
22.284644239999999
 31
0.0
  0
LINE
  5
42DF
  8
240
  6
CONTINUOUS
 10
9.1875
 20
28.962547170000001
 30
0.0
 11
9.1875
 21
28.125
 31
0.0
  0
LINE
  5
42E0
  8
241
  6
CONTINUOUS
 10
13.012499999999999
 20
21.18408896
 30
0.0
 11
13.012499999999999
 21
28.125
 31
0.0
  0
LINE
  5
42E1
  8
241
  6
CONTINUOUS
 10
14.636270400000001
 20
25.834098109999999
 30
0.0
 11
13.012499999999999
 21
22.284644239999999
 31
0.0
  0
LINE
  5
42E2
  8
241
  6
CONTINUOUS
 10
14.636270400000001
 20
25.834098109999999
 30
0.0
 11
19.100000000000001
 21
25.834098109999999
 31
0.0
  0
LINE
  5
42E3
  8
240
  6
CONTINUOUS
 10
13.012499999999999
 20
28.962547170000001
 30
0.0
 11
13.012499999999999
 21
28.125
 31
0.0
  0
LINE
  5
42E4
  8
240
  6
CONTINUOUS
 10
3.2000000000000002
 20
31.774999999999999
 30
0.0
 11
7.5637296000000003
 21
31.774999999999999
 31
0.0
  0
LINE
  5
42E5
  8
240
  6
CONTINUOUS
 10
14.636270400000001
 20
31.774999999999999
 30
0.0
 11
19.100000000000001
 21
31.774999999999999
 31
0.0
  0
ARC
  5
42E6
  8
240
  6
CONTINUOUS
 10
34.0
 20
-21.350000000000001
 30
0.0
 40
1.0
 50
270.0
 51
0.0
  0
LINE
  5
42E7
  8
240
  6
CONTINUOUS
 10
85.0
 20
-12.0
 30
0.0
 11
40.0
 21
-12.0
 31
0.0
  0
LINE
  5
42E8
  8
240
  6
CONTINUOUS
 10
85.0
 20
12.0
 30
0.0
 11
40.0
 21
12.0
 31
0.0
  0
LINE
  5
42E9
  8
241
  6
CONTINUOUS
 10
35.0
 20
17.0
 30
0.0
 11
35.0
 21
-17.0
 31
0.0
  0
ARC
  5
42EB
  8
240
  6
CONTINUOUS
 10
40.0
 20
-17.0
 30
0.0
 40
5.0
 50
90.0
 51
180.0
  0
LINE
  5
42EC
  8
240
  6
CONTINUOUS
 10
35.0
 20
-21.350000000000001
 30
0.0
 11
35.0
 21
-17.0
 31
0.0
  0
LINE
  5
42ED
  8
240
  6
CONTINUOUS
 10
35.0
 20
21.350000000000001
 30
0.0
 11
35.0
 21
17.0
 31
0.0
  0
ARC
  5
42EE
  8
240
  6
CONTINUOUS
 10
40.0
 20
17.0
 30
0.0
 40
5.0
 50
180.0
 51
270.0
  0
ARC
  5
42EF
  8
240
  6
CONTINUOUS
 10
34.0
 20
21.350000000000001
 30
0.0
 40
1.0
 50
0.0
 51
90.0
  0
LINE
  5
42F0
  8
240
  6
CONTINUOUS
 10
85.0
 20
12.0
 30
0.0
 11
85.0
 21
-12.0
 31
0.0
  0
LINE
  5
42F7
  8
243
  6
HIDDEN2
 10
16.100000000000001
 20
25.0
 30
0.0
 11
16.100000000000168
 21
20.399999999999679
 31
0.0
  0
LINE
  5
42F8
  8
243
  6
HIDDEN2
 10
6.099999999999997
 20
25.0
 30
0.0
 11
6.0999999999998549
 21
20.400000000000151
 31
0.0
  0
LINE
  5
42F9
  8
243
  6
HIDDEN2
 10
6.0999999999998549
 20
20.400000000000151
 30
0.0
 11
16.100000000000168
 21
20.399999999999679
 31
0.0
  0
LINE
  5
42FA
  8
243
  6
HIDDEN2
 10
3.2000000000000002
 20
25.0
 30
0.0
 11
19.099999999999248
 21
25.0
 31
0.0
  0
LINE
  5
43CD
  8
243
  6
HIDDEN2
 10
67.450000000000045
 20
7.0000000000000311
 30
0.0
 11
85.0
 21
7.0000000000000311
 31
0.0
1001
GRPNAME
1000
PASTMD01
  0
LINE
  5
43CE
  8
243
  6
HIDDEN2
 10
67.45000000000006
 20
-7.0000000000000711
 30
0.0
 11
85.000000000000014
 21
-7.0000000000000311
 31
0.0
1001
GRPNAME
1000
PASTMD01
  0
LINE
  5
43CF
  8
250
  6
CONTINUOUS
 10
82.304247974644838
 20
13.56538414086209
 30
0.0
 11
81.015572840001127
 21
12.000000000000149
 31
0.0
  0
LINE
  5
43D0
  8
250
  6
CONTINUOUS
 10
81.726897705465603
 20
13.898717474213459
 30
0.0
 11
81.015572840001127
 21
12.000000000000149
 31
0.0
  0
LINE
  5
43D1
  8
250
  6
CONTINUOUS
 10
81.015572840001127
 20
12.000000000000149
 30
0.0
 11
82.015572840055242
 21
13.732050807537769
 31
0.0
  0
LINE
  5
43D2
  8
250
  6
CONTINUOUS
 10
82.015572840055242
 20
13.732050807537769
 30
0.0
 11
89.020029840001143
 21
25.864126210000151
 31
0.0
1001
ACAD
1000
DSTYLE
1002
{
1070
     6
1000
OPEN
1070
    41
1040
2.0
1070
    42
1040
2.0
1070
    44
1040
2.0
1070
    79
1070
     2
1070
   140
1040
4.0
1070
   179
1070
     3
1070
   343
1005
0
1070
   371
1070
    -1
1070
   372
1070
    -1
1002
}
  0
TEXT
  5
43D3
  8
250
  6
CONTINUOUS
 10
91.420029840001135
 20
26.864126210000151
 30
0.0
 40
2.799999999999998
  1
CK2
  7
YOKO
1001
ITEMNAME
1000
LNSP3
1001
ACAD
1000
MTEXTBEGIN
1070
    73
1070
     1
1070
    44
1040
1.0
1070
    74
1070
     0
1000
MTEXTEND
1000
MTEXTBEGIN
1070
    73
1070
     1
1070
    44
1040
1.0
1070
    74
1070
     0
1000
MTEXTEND
  0
LINE
  5
43D4
  8
250
  6
CONTINUOUS
 10
89.020029840001143
 20
25.864126210000151
 30
0.0
 11
102.0866965100011
 21
25.864126210000151
 31
0.0
1001
ITEMNAME
1000
LNSP2
  0
CIRCLE
  5
43D5
  8
241
  6
CONTINUOUS
 10
78.500000000001151
 20
0.0000000000000852
 30
0.0
 40
2.6000000000000001
  0
CIRCLE
  5
43D6
  8
242
  6
CONTINUOUS
 10
78.500000000001151
 20
0.0000000000000852
 30
0.0
 40
2.25
  0
LINE
  5
43D7
  8
245
  6
CENTER2
 10
78.500000000001151
 20
3.6000000000000831
 30
0.0
 11
78.500000000001151
 21
-3.599999999999913
 31
0.0
  0
LINE
  5
4404
  8
247
  6
CONTINUOUS
 10
6.7000000000013058
 20
-18.750000000000011
 30
0.0
 11
6.7000000000013644
 21
-14.11538461567007
 31
0.0
  0
LINE
  5
4405
  8
247
  6
CONTINUOUS
 10
4.2000000000013644
 20
-17.954893499987989
 30
0.0
 11
6.2999999999173708
 21
-18.55705881005737
 31
0.0
  0
LINE
  5
4406
  8
247
  6
CONTINUOUS
 10
5.1961538461153634
 20
-17.325151403519062
 30
0.0
 11
5.1961538461153634
 21
-18.240536018867051
 31
0.0
  0
ARC
  5
4407
  8
247
  6
CONTINUOUS
 10
4.5847190672954632
 20
-17.087263401946831
 30
0.0
 40
0.3876715809326743
 50
72.997889675292214
 51
172.92416621851359
  0
ARC
  5
4408
  8
247
  6
CONTINUOUS
 10
4.5052231310293767
 20
-17.382477556804151
 30
0.0
 40
0.6933047965358768
 50
4.7429368522022077
 51
73.849226273266737
1001
GENIUS_GENOBJ-N-FIL_13
1002
{
1000
OWNER
1000
GEN
1002
}
1001
GENIUS_GENODEF_13
1002
{
1000
HIER
1070
     0
1002
}
1002
{
1000
MANEDIT
1070
     0
1002
}
1002
{
1000
NOSEL
1070
     0
1002
}
1002
{
1000
BEHIND
1070
     0
1002
}
1002
{
1000
OTHER
1070
     0
1002
}
1002
{
1000
REACTOR
1002
}
  0
LINE
  5
4409
  8
247
  6
CONTINUOUS
 10
6.2999999999173708
 20
-17.641674194709381
 30
0.0
 11
6.2999999999173708
 21
-18.55705881005737
 31
0.0
  0
LINE
  5
440A
  8
247
  6
CONTINUOUS
 10
4.2000000000013644
 20
-17.954893499987989
 30
0.0
 11
4.2000000000013644
 21
-17.03950888464
 31
0.0
  0
ARC
  5
440B
  8
247
  6
CONTINUOUS
 10
5.5874169627692361
 20
-17.378306476266879
 30
0.0
 40
0.394857301075386
 50
65.990941652528889
 51
172.26344345906909
  0
ARC
  5
440C
  8
247
  6
CONTINUOUS
 10
5.591200327333933
 20
-17.712446610426941
 30
0.0
 40
0.7123241612361686
 50
5.701985164259705
 51
77.277338436822021
1001
GENIUS_GENOBJ-N-FIL_13
1002
{
1000
OWNER
1000
GEN
1002
}
1001
GENIUS_GENODEF_13
1002
{
1000
HIER
1070
     0
1002
}
1002
{
1000
MANEDIT
1070
     0
1002
}
1002
{
1000
NOSEL
1070
     0
1002
}
1002
{
1000
BEHIND
1070
     0
1002
}
1002
{
1000
OTHER
1070
     0
1002
}
1002
{
1000
REACTOR
1002
}
  0
LINE
  5
440D
  8
247
  6
CONTINUOUS
 10
6.2999999999173708
 20
-16.68398188706341
 30
0.0
 11
4.2000000000013644
 21
-16.081816576994029
 31
0.0
  0
LINE
  5
440E
  8
247
  6
CONTINUOUS
 10
4.2000000000013644
 20
-14.585662730908
 30
0.0
 11
4.2000000000013644
 21
-14.981678364303621
 31
0.0
  0
LINE
  5
440F
  8
247
  6
CONTINUOUS
 10
6.2999999999173708
 20
-15.608739653943999
 30
0.0
 11
6.2999999999173708
 21
-15.17797042319201
 31
0.0
  0
ARC
  5
4410
  8
247
  6
CONTINUOUS
 10
5.6582995950847241
 20
-14.381816577069991
 30
0.0
 40
1.576855057639547
 50
202.35948814152911
 51
254.99324854284649
  0
ARC
  5
4411
  8
247
  6
CONTINUOUS
 10
4.7658188585395003
 20
-14.847511366133251
 30
0.0
 40
0.6234706797009447
 50
94.994589319075317
 51
155.1663289573039
1001
GENIUS_GENOBJ-N-FIL_13
1002
{
1000
OWNER
1000
GEN
1002
}
1001
GENIUS_GENODEF_13
1002
{
1000
HIER
1070
     0
1002
}
1002
{
1000
MANEDIT
1070
     0
1002
}
1002
{
1000
NOSEL
1070
     0
1002
}
1002
{
1000
BEHIND
1070
     0
1002
}
1002
{
1000
OTHER
1070
     0
1002
}
1002
{
1000
REACTOR
1002
}
  0
ARC
  5
4412
  8
247
  6
CONTINUOUS
 10
5.3621021219708034
 20
-15.44418395103283
 30
0.0
 40
0.9749472149106983
 50
15.8460965557808
 51
82.325137004169264
  0
ARC
  5
4413
  8
247
  6
CONTINUOUS
 10
5.5714704019724302
 20
-15.03521163877226
 30
0.0
 40
0.9271945638692009
 50
249.7136016704969
 51
321.78874565641149
1001
GENIUS_GENOBJ-N-FIL_13
1002
{
1000
OWNER
1000
GEN
1002
}
1001
GENIUS_GENODEF_13
1002
{
1000
HIER
1070
     0
1002
}
1002
{
1000
MANEDIT
1070
     0
1002
}
1002
{
1000
NOSEL
1070
     0
1002
}
1002
{
1000
BEHIND
1070
     0
1002
}
1002
{
1000
OTHER
1070
     0
1002
}
1002
{
1000
REACTOR
1002
}
  0
LINE
  5
4414
  8
247
  6
CONTINUOUS
 10
5.4923076922573371
 20
-14.962585807815991
 30
0.0
 11
5.4923076922573371
 21
-14.47797042321999
 31
0.0
  0
ARC
  5
4415
  8
247
  6
CONTINUOUS
 10
5.4500000000013644
 20
-18.750000000000011
 30
0.0
 40
1.25
 50
180.0
 51
0.0
  0
LINE
  5
4416
  8
247
  6
CONTINUOUS
 10
4.2000000000013644
 20
-18.750000000000011
 30
0.0
 11
4.2000000000013644
 21
-18.303846153914051
 31
0.0
  0
ARC
  5
4417
  8
247
  6
CONTINUOUS
 10
5.4500000000013644
 20
-14.11538461567007
 30
0.0
 40
1.25
 50
0.0
 51
180.0
  0
LINE
  5
441A
  8
241
  6
CONTINUOUS
 10
77.250000000001151
 20
-0.7216878399999147
 30
0.0
 11
78.500000000001151
 21
-1.4433756699999121
 31
0.0
  0
LINE
  5
441B
  8
241
  6
CONTINUOUS
 10
78.500000000001151
 20
-1.4433756699999121
 30
0.0
 11
79.750000000001151
 21
-0.7216878399999147
 31
0.0
  0
LINE
  5
441C
  8
241
  6
CONTINUOUS
 10
79.750000000001151
 20
-0.7216878399999147
 30
0.0
 11
79.750000000001151
 21
0.7216878400000854
 31
0.0
  0
LINE
  5
441D
  8
241
  6
CONTINUOUS
 10
79.750000000001151
 20
0.7216878400000854
 30
0.0
 11
78.500000000001151
 21
1.443375670000083
 31
0.0
  0
LINE
  5
441E
  8
241
  6
CONTINUOUS
 10
78.500000000001151
 20
1.443375670000083
 30
0.0
 11
77.250000000001151
 21
0.7216878400000854
 31
0.0
  0
LINE
  5
441F
  8
241
  6
CONTINUOUS
 10
77.250000000001151
 20
0.7216878400000854
 30
0.0
 11
77.250000000001151
 21
-0.7216878399999147
 31
0.0
  0
TEXT
  5
4422
  8
250
  6
CONTINUOUS
 10
-54.874350683333333
 20
-27.07297784
 30
0.0
 40
2.799999999999998
  1
DV40
  7
YOKO
1001
ITEMNAME
1000
LNSP3
  0
LINE
  5
4423
  8
250
  6
CONTINUOUS
 10
85.5
 20
-12.0
 30
0.0
 11
99.0
 21
-12.0
 31
0.0
  0
LINE
  5
4424
  8
250
  6
CONTINUOUS
 10
85.5
 20
12.0
 30
0.0
 11
99.0
 21
12.0
 31
0.0
  0
LINE
  5
4425
  8
250
  6
CONTINUOUS
 10
98.0
 20
-9.7699999999999996
 30
0.0
 11
98.0
 21
9.769999999999996
 31
0.0
  0
LINE
  5
4429
  8
250
  6
CONTINUOUS
 10
0.0
 20
22.725000000000001
 30
0.0
 11
0.0000000000000013
 21
43.0
 31
0.0
  0
LINE
  5
442A
  8
250
  6
CONTINUOUS
 10
85.0
 20
12.5
 30
0.0
 11
85.0
 21
43.0
 31
0.0
  0
LINE
  5
442B
  8
250
  6
CONTINUOUS
 10
2.23
 20
42.0
 30
0.0
 11
82.769999999999996
 21
42.0
 31
0.0
  0
LINE
  5
442F
  8
250
  6
CONTINUOUS
 10
-38.283542510351531
 20
-18.735824200236351
 30
0.0
 11
-43.674350680000003
 21
-28.07297784
 31
0.0
1001
ACAD
1000
DSTYLE
1002
{
1070
     6
1000
OPEN
1070
   343
1005
594
1002
}
  0
LINE
  5
4430
  8
250
  6
CONTINUOUS
 10
-38.605415285390912
 20
-18.549990866844421
 30
0.0
 11
-37.168542510000002
 21
-16.804587550000001
 31
0.0
  0
LINE
  5
4431
  8
250
  6
CONTINUOUS
 10
-37.961669735312142
 20
-18.92165753362827
 30
0.0
 11
-37.168542510000002
 21
-16.804587550000001
 31
0.0
  0
LINE
  5
4432
  8
250
  6
CONTINUOUS
 10
-37.168542510000002
 20
-16.804587550000001
 30
0.0
 11
-38.283542510351531
 21
-18.735824200236351
 31
0.0
  0
TEXT
  5
4433
  8
250
  6
CONTINUOUS
 10
96.999999999999986
 20
-3.999999999999984
 30
0.0
 40
2.799999999999998
  1
\U+220524
 50
90.0
  0
LINE
  5
4434
  8
250
  6
CONTINUOUS
 10
97.62833333333333
 20
9.769999999999996
 30
0.0
 11
98.0
 21
12.0
 31
0.0
  0
LINE
  5
4435
  8
250
  6
CONTINUOUS
 10
98.371666666666684
 20
9.769999999999996
 30
0.0
 11
98.0
 21
12.0
 31
0.0
  0
LINE
  5
4436
  8
250
  6
CONTINUOUS
 10
98.0
 20
12.0
 30
0.0
 11
98.0
 21
9.769999999999996
 31
0.0
  0
LINE
  5
4437
  8
250
  6
CONTINUOUS
 10
98.371666666666684
 20
-9.7699999999999996
 30
0.0
 11
98.0
 21
-12.0
 31
0.0
  0
LINE
  5
4438
  8
250
  6
CONTINUOUS
 10
97.62833333333333
 20
-9.7699999999999996
 30
0.0
 11
98.0
 21
-12.0
 31
0.0
  0
LINE
  5
4439
  8
250
  6
CONTINUOUS
 10
98.0
 20
-12.0
 30
0.0
 11
98.0
 21
-9.7699999999999996
 31
0.0
  0
TEXT
  5
443A
  8
250
  6
CONTINUOUS
 10
39.833333333333343
 20
43.0
 30
0.0
 40
2.799999999999998
  1
85
  0
LINE
  5
443B
  8
250
  6
CONTINUOUS
 10
82.769999999999996
 20
42.371666666666663
 30
0.0
 11
85.0
 21
42.0
 31
0.0
  0
LINE
  5
443C
  8
250
  6
CONTINUOUS
 10
82.769999999999996
 20
41.62833333333333
 30
0.0
 11
85.0
 21
42.0
 31
0.0
  0
LINE
  5
443D
  8
250
  6
CONTINUOUS
 10
85.0
 20
42.0
 30
0.0
 11
82.769999999999996
 21
42.0
 31
0.0
  0
LINE
  5
443E
  8
250
  6
CONTINUOUS
 10
2.23
 20
41.62833333333333
 30
0.0
 11
0.0000000000000012
 21
42.0
 31
0.0
  0
LINE
  5
443F
  8
250
  6
CONTINUOUS
 10
2.23
 20
42.371666666666663
 30
0.0
 11
0.0000000000000012
 21
42.0
 31
0.0
  0
LINE
  5
4440
  8
250
  6
CONTINUOUS
 10
0.0000000000000012
 20
42.0
 30
0.0
 11
2.23
 21
42.0
 31
0.0
  0
VIEWPORT
  5
22
 67
     1
  8
0
 10
261.51769911504419
 20
148.5
 30
0.0
 40
523.0353982300885
 41
297.0
 68
     1
 69
     1
1001
ACAD
1000
MVIEW
1002
{
1070
    16
1010
0.0
1020
0.0
1030
0.0
1010
0.0
1020
0.0
1030
1.0
1040
0.0
1040
297.0
1040
261.51769911504419
1040
148.5
1040
50.0
1040
0.0
1040
0.0
1070
     0
1070
   100
1070
     1
1070
     1
1070
     0
1070
     0
1070
     0
1070
     0
1040
0.0
1040
0.0
1040
0.0
1040
1.0
1040
1.0
1040
10.0
1040
10.0
1070
     0
1002
{
1002
}
1002
}
1001
GENIUS_GENODEF_13
1002
{
1000
HIER
1070
     0
1002
}
1002
{
1000
MANEDIT
1070
     0
1002
}
1002
{
1000
NOSEL
1070
     0
1002
}
1002
{
1000
BEHIND
1070
     0
1002
}
1002
{
1000
OTHER
1070
     0
1002
}
1002
{
1000
REACTOR
1002
}
1001
GENIUS_GENOBJ-N-SDF_13
1002
{
1000
OWNER
1000
GEN
1002
}
1001
GENIUS_GENSCREG_15
1000
PF
1040
1.0
1000
DF
1040
1.0
1000
MIN
1011
0.0
1021
0.0
1031
0.0
1021
0.0
1031
0.0
1000
MAX
1011
523.0353982300885
1021
0.0
1031
0.0
1021
297.0
1031
0.0
1000
FLAGS
1070
     4
  0
ENDSEC
  0
EOF
