  0
SECTION
  2
HEADER
  9
$ACADVER
  1
AC1009
  9
$INSBASE
 10
0.0
 20
0.0
 30
0.0
  9
$EXTMIN
 10
-52.999999999999972
 20
-25.000000000000359
 30
0.0
  9
$EXTMAX
 10
79.223455400000574
 20
60.999999999999972
 30
0.0
  9
$LIMMIN
 10
0.0
 20
0.0
  9
$LIMMAX
 10
297.0
 20
210.0
  9
$ORTHOMODE
 70
     0
  9
$REGENMODE
 70
     1
  9
$FILLMODE
 70
     1
  9
$QTEXTMODE
 70
     0
  9
$MIRRTEXT
 70
     1
  9
$DRAGMODE
 70
     2
  9
$LTSCALE
 40
10.0
  9
$OSMODE
 70
    47
  9
$ATTMODE
 70
     1
  9
$TEXTSIZE
 40
3.0
  9
$TRACEWID
 40
1.0
  9
$TEXTSTYLE
  7
YOKO
  9
$CLAYER
  8
240
  9
$CELTYPE
  6
BYLAYER
  9
$CECOLOR
 62
   256
  9
$DIMSCALE
 40
1.0
  9
$DIMASZ
 40
2.2299999999999991
  9
$DIMEXO
 40
0.5
  9
$DIMDLI
 40
7.0
  9
$DIMRND
 40
0.0
  9
$DIMDLE
 40
0.0
  9
$DIMEXE
 40
1.0
  9
$DIMTP
 40
0.0
  9
$DIMTM
 40
0.01
  9
$DIMTXT
 40
2.799999999999998
  9
$DIMCEN
 40
0.0
  9
$DIMTSZ
 40
0.0
  9
$DIMTOL
 70
     0
  9
$DIMLIM
 70
     0
  9
$DIMTIH
 70
     0
  9
$DIMTOH
 70
     0
  9
$DIMSE1
 70
     0
  9
$DIMSE2
 70
     0
  9
$DIMTAD
 70
     3
  9
$DIMZIN
 70
     9
  9
$DIMBLK
  1
OPEN
  9
$DIMASO
 70
     1
  9
$DIMSHO
 70
     1
  9
$DIMPOST
  1

  9
$DIMAPOST
  1

  9
$DIMALT
 70
     0
  9
$DIMALTD
 70
     2
  9
$DIMALTF
 40
25.399999999999999
  9
$DIMLFAC
 40
1.0
  9
$DIMTOFL
 70
     1
  9
$DIMTVP
 40
0.0
  9
$DIMTIX
 70
     1
  9
$DIMSOXD
 70
     0
  9
$DIMSAH
 70
     0
  9
$DIMBLK1
  1

  9
$DIMBLK2
  1

  9
$DIMSTYLE
  2
BIGT
  9
$DIMCLRD
 70
   256
  9
$DIMCLRE
 70
   256
  9
$DIMCLRT
 70
    40
  9
$DIMTFAC
 40
1.0
  9
$DIMGAP
 40
1.0
  9
$LUNITS
 70
     2
  9
$LUPREC
 70
     6
  9
$SKETCHINC
 40
1.0
  9
$FILLETRAD
 40
0.0
  9
$AUNITS
 70
     0
  9
$AUPREC
 70
     6
  9
$MENU
  1
.
  9
$ELEVATION
 40
0.0
  9
$PELEVATION
 40
0.0
  9
$THICKNESS
 40
0.0
  9
$LIMCHECK
 70
     0
  9
$BLIPMODE
 70
     0
  9
$CHAMFERA
 40
0.2
  9
$CHAMFERB
 40
0.2
  9
$SKPOLY
 70
     0
  9
$TDCREATE
 40
2460423.3749089469
  9
$TDUPDATE
 40
2460423.4089881601
  9
$TDINDWG
 40
0.0255235764
  9
$TDUSRTIMER
 40
0.0255235185
  9
$USRTIMER
 70
     1
  9
$ANGBASE
 50
0.0
  9
$ANGDIR
 70
     0
  9
$PDMODE
 70
     1
  9
$PDSIZE
 40
0.0
  9
$PLINEWID
 40
0.0
  9
$COORDS
 70
     1
  9
$SPLFRAME
 70
     0
  9
$SPLINETYPE
 70
     6
  9
$SPLINESEGS
 70
     4
  9
$ATTDIA
 70
     1
  9
$ATTREQ
 70
     1
  9
$HANDLING
 70
     1
  9
$HANDSEED
  5
491B
  9
$SURFTAB1
 70
     6
  9
$SURFTAB2
 70
     6
  9
$SURFTYPE
 70
     6
  9
$SURFU
 70
     6
  9
$SURFV
 70
     6
  9
$UCSNAME
  2

  9
$UCSORG
 10
0.0
 20
0.0
 30
0.0
  9
$UCSXDIR
 10
1.0
 20
0.0
 30
0.0
  9
$UCSYDIR
 10
0.0
 20
1.0
 30
0.0
  9
$PUCSNAME
  2

  9
$PUCSORG
 10
0.0
 20
0.0
 30
0.0
  9
$PUCSXDIR
 10
1.0
 20
0.0
 30
0.0
  9
$PUCSYDIR
 10
0.0
 20
1.0
 30
0.0
  9
$USERI1
 70
     1
  9
$USERI2
 70
     0
  9
$USERI3
 70
     0
  9
$USERI4
 70
     0
  9
$USERI5
 70
     0
  9
$USERR1
 40
0.0
  9
$USERR2
 40
0.0
  9
$USERR3
 40
0.0
  9
$USERR4
 40
0.0
  9
$USERR5
 40
0.0
  9
$WORLDVIEW
 70
     1
  9
$SHADEDGE
 70
     3
  9
$SHADEDIF
 70
    70
  9
$TILEMODE
 70
     1
  9
$MAXACTVP
 70
    16
  9
$PLIMCHECK
 70
     0
  9
$PEXTMIN
 10
1.0000000000000000E+020
 20
1.0000000000000000E+020
 30
1.0000000000000000E+020
  9
$PEXTMAX
 10
-1.0000000000000000E+020
 20
-1.0000000000000000E+020
 30
-1.0000000000000000E+020
  9
$PLIMMIN
 10
0.0
 20
0.0
  9
$PLIMMAX
 10
420.0
 20
297.0
  9
$UNITMODE
 70
     0
  9
$VISRETAIN
 70
     1
  9
$PLINEGEN
 70
     0
  9
$PSLTSCALE
 70
     1
  0
ENDSEC
  0
SECTION
  2
TABLES
  0
TABLE
  2
VPORT
 70
     1
  0
VPORT
  2
*ACTIVE
 70
     0
 10
0.0
 20
0.0
 11
1.0
 21
1.0
 12
10.48397803911555
 22
4.5413662493156863
 13
0.0
 23
0.0
 14
7.0
 24
7.0
 15
7.0
 25
7.0
 16
0.0
 26
0.0
 36
1.0
 17
0.0
 27
0.0
 37
0.0
 40
126.6007149053015
 41
2.1055480378890392
 42
50.0
 43
0.0
 44
0.0
 50
0.0
 51
0.0
 71
     0
 72
  2000
 73
     1
 74
     0
 75
     0
 76
     1
 77
     0
 78
     0
  0
ENDTAB
  0
TABLE
  2
LTYPE
 70
    21
  0
LTYPE
  2
CONTINUOUS
 70
     0
  3
Solid line
 72
    65
 73
     0
 40
0.0
  0
LTYPE
  2
CENTER2
 70
     0
  3
___ _ ___ _ ___ _ ___ _ ___ _ ___ _ ___ _ ___ _
 72
    65
 73
     4
 40
1.125
 49
0.75
 49
-0.125
 49
0.125
 49
-0.125
  0
LTYPE
  2
HIDDEN2
 70
     0
  3
_ _ _ _ _ _ _ _ _ _ _ _ _ _ _ _ _ _ _ _ _ _ _ _
 72
    65
 73
     2
 40
0.1875
 49
0.125
 49
-0.0625
  0
LTYPE
  2
PHANTOM2
 70
     0
  3
___ _ _ ___ _ _ ___ _ _ ___ _ _ ___ _ _ ___ _ _
 72
    65
 73
     6
 40
1.25
 49
0.625
 49
-0.125
 49
0.125
 49
-0.125
 49
0.125
 49
-0.125
  0
LTYPE
  2
AMCONSTR
 70
     0
  3
_______________________
 72
    65
 73
     2
 40
9999.0
 49
9999.0
 49
0.0
  0
LTYPE
  2
HIDDEN
 70
     0
  3
Hidden __ __ __ __ __ __ __ __ __ __ __ __ __ _
 72
    65
 73
     2
 40
0.375
 49
0.25
 49
-0.125
  0
LTYPE
  2
CENTER
 70
     0
  3
Center ____ _ ____ _ ____ _ ____ _ ____ _ ____
 72
    65
 73
     4
 40
2.0
 49
1.25
 49
-0.25
 49
0.25
 49
-0.25
  0
LTYPE
  2
AMZIGZAG2
 70
     0
  3
/\/-/\/-/\/-/\/-/\/-/\/
 72
    65
 73
     2
 40
0.4401
 49
0.0001
 49
-0.4400000000000001
  0
LTYPE
  2
ACANSTGB
 70
     0
  3
__ . . __ . .
 72
    65
 73
     6
 40
0.35433070866
 49
0.15748031496
 49
-0.03937007874
 49
0.03937007874
 49
-0.03937007874
 49
0.03937007874
 49
-0.03937007874
  0
LTYPE
  2
ACANSTGL
 70
     0
  3
_ _ _ _ _
 72
    65
 73
     2
 40
0.11811023622
 49
0.07874015748
 49
-0.03937007874
  0
ENDTAB
  0
TABLE
  2
LAYER
 70
    10
  0
LAYER
  2
0
 70
     0
 62
     7
  6
CONTINUOUS
  0
LAYER
  2
240
 70
     0
 62
     4
  6
CONTINUOUS
  0
LAYER
  2
DEFPOINTS
 70
     0
 62
     7
  6
CONTINUOUS
  0
LAYER
  2
245
 70
     0
 62
     2
  6
CENTER2
  0
LAYER
  2
241
 70
     0
 62
   211
  6
CONTINUOUS
  0
LAYER
  2
242
 70
     0
 62
     3
  6
CONTINUOUS
  0
LAYER
  2
243
 70
     0
 62
   211
  6
HIDDEN2
  0
LAYER
  2
247
 70
     0
 62
    60
  6
CONTINUOUS
  0
LAYER
  2
250
 70
     0
 62
     3
  6
CONTINUOUS
  0
ENDTAB
  0
TABLE
  2
STYLE
 70
    10
  0
STYLE
  2
STANDARD
 70
     0
 40
0.0
 41
1.0
 50
0.0
 71
     0
 42
3.0
  3
romans.shx
  4
extfont.shx
  0
STYLE
  2
YOKO
 70
     0
 40
0.0
 41
1.0
 50
0.0
 71
     0
 42
3.0
  3
romans.shx
  4
extfont.shx
  0
STYLE
  2

 70
     1
 40
0.0
 41
1.0
 50
0.0
 71
     0
 42
3.0
  3
genltshp.shx
  4

  0
STYLE
  2
ACANSGDT
 70
     0
 40
0.0
 41
1.0
 50
0.0
 71
     0
 42
3.0
  3
amgdt.shx
  4

  0
ENDTAB
  0
TABLE
  2
VIEW
 70
     0
  0
ENDTAB
  0
TABLE
  2
UCS
 70
     0
  0
ENDTAB
  0
TABLE
  2
APPID
 70
    42
  0
APPID
  2
ACAD
 70
     0
  0
APPID
  2
ACADANNOTATIVE
 70
     0
  0
APPID
  2
GLOBAL
 70
     0
  0
APPID
  2
DETAIL
 70
     0
  0
APPID
  2
GRPNAME
 70
     0
  0
APPID
  2
GPARA
 70
     0
  0
APPID
  2
MCAD_NO_VIS
 70
     0
  0
APPID
  2
ACAD_TEMP_GRAPHIC
 70
     0
  0
APPID
  2
ACATTRIBSERVICES
 70
     0
  0
APPID
  2
GENIUS_GENSCREG_15
 70
     0
  0
APPID
  2
GENIUS_GENODEF_13
 70
     0
  0
APPID
  2
GENIUS_GENOBJ-N-SDF_13
 70
     0
  0
APPID
  2
GENIUS_GENREC_14
 70
     0
  0
APPID
  2
GENIUS_GENOBJ-N-REC_13
 70
     0
  0
APPID
  2
GENIUS_GENDIMSH_14
 70
     0
  0
APPID
  2
GENIUS_GENOBJ-N-DIM_13
 70
     0
  0
APPID
  2
GENIUS_GENDIM_13
 70
     0
  0
APPID
  2
GENIUS_GENDTOL_13
 70
     0
  0
APPID
  2
GENIUS_GENOLIS_13
 70
     0
  0
APPID
  2
GENIUS_GENOENT_13
 70
     0
  0
APPID
  2
GENIUS_GENOBJ-F-FEM_13
 70
     0
  0
APPID
  2
GENIUS_GENOREF_13
 70
     0
  0
APPID
  2
GENIUS_GEFFEM_13
 70
     0
  0
APPID
  2
GENIUS_GEFFEMP_13
 70
     0
  0
APPID
  2
AD_DRAW
 70
     0
  0
APPID
  2
DESIGNERASSEMBLIES
 70
     0
  0
APPID
  2
ACADM_DIM_EDIT
 70
     0
  0
APPID
  2
AMDT_DM_ADJ
 70
     0
  0
APPID
  2
ITEMNAME
 70
     0
  0
APPID
  2
GENIUS_GENOBJ-N-FIL_13
 70
     0
  0
APPID
  2
GENIUS_GENFIL_13
 70
     0
  0
APPID
  2
GENIUS_GENOBJ-N-CHA_13
 70
     0
  0
APPID
  2
ACAD_NAV_VCDISPLAY
 70
     0
  0
APPID
  2
ACAECLAYERSTANDARD
 70
     0
  0
APPID
  2
ACAD_PSEXT
 70
     0
  0
APPID
  2
ASK_MEN_XD
 70
     0
  0
APPID
  2
ACAD_EXEMPT_FROM_CAD_STANDARDS
 70
     0
  0
APPID
  2
ACAD_DSTYLE_DIMINSPECT
 70
     0
  0
APPID
  2
ACAD_DSTYLE_DIMRADIAL_EXTENSION
 70
     0
  0
APPID
  2
ACAD_DSTYLE_DIMJAG
 70
     0
  0
APPID
  2
ACAD_DSTYLE_DIMBREAK
 70
     0
  0
APPID
  2
ACAD_MLEADERVER
 70
     0
  0
ENDTAB
  0
TABLE
  2
DIMSTYLE
 70
    31
  0
DIMSTYLE
  2
STANDARD
 70
     0
  3

  4

  5

  6

  7

 40
1.0
 41
0.18
 42
0.0625
 43
0.38
 44
0.18
 45
0.0
 46
0.0
 47
0.0
 48
0.0
140
0.18
141
0.09
142
0.0
143
25.399999999999999
144
1.0
145
0.0
146
1.0
147
0.09
 71
     0
 72
     0
 73
     1
 74
     1
 75
     0
 76
     0
 77
     0
 78
     0
170
     0
171
     2
172
     0
173
     0
174
     0
175
     0
176
     0
177
     0
178
     0
  0
DIMSTYLE
  2
BIGT
 70
     0
  3

  4

  5

  6

  7

 40
1.0
 41
2.2299999999999991
 42
0.5
 43
7.0
 44
1.0
 45
0.0
 46
0.0
 47
0.0
 48
0.01
140
2.799999999999998
141
0.0
142
0.0
143
25.399999999999999
144
1.0
145
0.0
146
1.0
147
1.0
 71
     0
 72
     0
 73
     0
 74
     0
 75
     0
 76
     0
 77
     3
 78
     9
170
     0
171
     2
172
     1
173
     0
174
     1
175
     0
176
   256
177
   256
178
    40
  0
DIMSTYLE
  2
AM_ANSI
 70
     0
  3

  4
mm
  5

  6

  7

 40
1.0
 41
0.12
 42
0.05
 43
0.5
 44
0.1
 45
0.0
 46
0.0
 47
0.1
 48
0.1
140
0.12
141
0.0
142
0.0
143
25.399999999999999
144
1.0
145
0.0
146
0.71
147
0.06
 71
     0
 72
     0
 73
     1
 74
     1
 75
     0
 76
     0
 77
     0
 78
     7
170
     0
171
     2
172
     0
173
     0
174
     0
175
     0
176
   256
177
   256
178
     2
  0
DIMSTYLE
  2
AM_ANSI$3
 70
     0
  3

  4
mm
  5

  6

  7

 40
1.0
 41
0.12
 42
0.05
 43
0.5
 44
0.1
 45
0.0
 46
0.0
 47
0.1
 48
0.1
140
0.12
141
0.0
142
0.0
143
25.399999999999999
144
1.0
145
0.0
146
0.71
147
0.06
 71
     0
 72
     0
 73
     1
 74
     1
 75
     0
 76
     0
 77
     0
 78
     7
170
     0
171
     2
172
     0
173
     0
174
     0
175
     0
176
   256
177
   256
178
     2
  0
DIMSTYLE
  2
AM_ANSI$4
 70
     0
  3

  4
mm
  5

  6

  7

 40
1.0
 41
0.12
 42
0.05
 43
0.5
 44
0.1
 45
0.0
 46
0.0
 47
0.1
 48
0.1
140
0.12
141
0.0
142
0.0
143
25.399999999999999
144
1.0
145
0.0
146
0.71
147
0.06
 71
     0
 72
     0
 73
     1
 74
     1
 75
     0
 76
     0
 77
     0
 78
     7
170
     0
171
     2
172
     0
173
     0
174
     0
175
     0
176
   256
177
   256
178
     2
  0
DIMSTYLE
  2
AM_ANSI$7
 70
     0
  3

  4
mm
  5

  6

  7

 40
1.0
 41
0.12
 42
0.05
 43
0.5
 44
0.1
 45
0.0
 46
0.0
 47
0.1
 48
0.1
140
0.12
141
0.0
142
0.0
143
25.399999999999999
144
1.0
145
0.0
146
0.71
147
0.06
 71
     0
 72
     0
 73
     1
 74
     1
 75
     0
 76
     0
 77
     0
 78
     7
170
     0
171
     2
172
     0
173
     0
174
     0
175
     0
176
   256
177
   256
178
     2
  0
DIMSTYLE
  2
AM_ANSI$SF
 70
     0
  3

  4
mm
  5

  6

  7

 40
1.0
 41
0.12
 42
0.05
 43
0.5
 44
0.1
 45
0.0
 46
0.0
 47
0.1
 48
0.1
140
0.12
141
0.0
142
0.0
143
25.399999999999999
144
1.0
145
0.0
146
0.71
147
0.06
 71
     0
 72
     0
 73
     1
 74
     1
 75
     1
 76
     1
 77
     0
 78
     7
170
     0
171
     2
172
     0
173
     0
174
     0
175
     0
176
   256
177
   256
178
     2
  0
DIMSTYLE
  2
AM_ANSI$SH
 70
     0
  3

  4
mm
  5

  6
GENAXEH
  7

 40
1.0
 41
0.12
 42
0.05
 43
0.5
 44
0.1
 45
0.0
 46
0.0
 47
0.1
 48
0.1
140
0.12
141
0.0
142
0.0
143
25.399999999999999
144
1.0
145
0.0
146
0.71
147
0.06
 71
     0
 72
     0
 73
     1
 74
     1
 75
     1
 76
     1
 77
     0
 78
     7
170
     0
171
     2
172
     0
173
     1
174
     0
175
     0
176
   256
177
   256
178
     2
  0
ENDTAB
  0
ENDSEC
  0
SECTION
  2
BLOCKS
  0
BLOCK
  8
0
  2
$MODEL_SPACE
 70
     0
 10
0.0
 20
0.0
 30
0.0
  3
$MODEL_SPACE
  1

  0
ENDBLK
  5
47D4
  8
0
  0
BLOCK
 67
     1
  8
0
  2
$PAPER_SPACE
 70
     0
 10
0.0
 20
0.0
 30
0.0
  3
$PAPER_SPACE
  1

  0
ENDBLK
  5
47D0
 67
     1
  8
0
  0
BLOCK
  8
0
  2
_OPEN
 70
     0
 10
0.0
 20
0.0
 30
0.0
  3
_OPEN
  1

  0
LINE
  5
4668
  8
0
  6
BYBLOCK
 62
     0
 10
-1.0
 20
0.1666666666666666
 30
0.0
 11
0.0
 21
0.0
 31
0.0
  0
LINE
  5
4669
  8
0
  6
BYBLOCK
 62
     0
 10
-1.0
 20
-0.1666666666666666
 30
0.0
 11
0.0
 21
0.0
 31
0.0
  0
LINE
  5
466A
  8
0
  6
BYBLOCK
 62
     0
 10
0.0
 20
0.0
 30
0.0
 11
-1.0
 21
0.0
 31
0.0
  0
ENDBLK
  5
466B
  8
0
  0
BLOCK
  8
0
  2
GENAXEH
 70
     0
 10
0.0
 20
0.0
 30
0.0
  3
GENAXEH
  1

  0
LINE
  5
46A3
  8
0
 10
-1.0
 20
0.0
 30
0.0
 11
1.0
 21
0.0
 31
0.0
  0
ENDBLK
  5
46A4
  8
0
  0
BLOCK
  8
0
  2
_ACMFILLEDHALF
 70
     0
 10
0.0
 20
0.0
 30
0.0
  3
_ACMFILLEDHALF
  1

  0
TRACE
  5
4899
  8
240
 62
     0
 10
-0.8
 20
0.0
 30
0.0
 11
-1.0
 21
0.166666666
 31
0.0
 12
0.0
 22
0.0
 32
0.0
 13
0.0
 23
0.0
 33
0.0
  0
LINE
  5
489A
  8
240
 62
     0
 10
-1.0
 20
0.0
 30
0.0
 11
-0.8
 21
0.0
 31
0.0
  0
ENDBLK
  5
4898
  8
0
  0
ENDSEC
  0
SECTION
  2
ENTITIES
  0
LINE
  5
425C
  8
245
  6
CENTER2
 10
-49.800000000000217
 20
-0.0000000000000568
 30
0.0
 11
60.999999999999559
 21
0.0000000000000568
 31
0.0
  0
LINE
  5
4260
  8
240
  6
CONTINUOUS
 10
3.199999999999799
 20
24.99999999999995
 30
0.0
 11
7.7225009252404533
 21
24.99999999999995
 31
0.0
  0
LINE
  5
4261
  8
240
  6
CONTINUOUS
 10
3.1999999999993669
 20
-25.000000000000359
 30
0.0
 11
7.7225009252404533
 21
-25.00000000000006
 31
0.0
  0
LINE
  5
4264
  8
240
  6
CONTINUOUS
 10
-47.800000000000217
 20
-8.9041666666668036
 30
0.0
 11
-47.800000000000217
 21
8.9041666666666295
 31
0.0
  0
LINE
  5
4267
  8
240
  6
CONTINUOUS
 10
-0.0000000000002407
 20
-15.87500000000005
 30
0.0
 11
-47.800000000000217
 21
-8.9041666666668036
 31
0.0
  0
LINE
  5
426E
  8
240
  6
CONTINUOUS
 10
-0.0000000000002407
 20
15.87499999999994
 30
0.0
 11
-47.800000000000217
 21
8.9041666666666295
 31
0.0
  0
LINE
  5
4273
  8
240
  6
CONTINUOUS
 10
3.1999999999994939
 20
15.87499999999994
 30
0.0
 11
3.199999999999799
 21
24.99999999999995
 31
0.0
  0
LINE
  5
4279
  8
241
  6
CONTINUOUS
 10
9.2249999999997812
 20
-22.150000000000048
 30
0.0
 11
9.2249999999997812
 21
15.00000000000006
 31
0.0
  0
LINE
  5
427A
  8
241
  6
CONTINUOUS
 10
12.974999999999779
 20
-22.150000000000048
 30
0.0
 11
12.974999999999779
 21
15.00000000000006
 31
0.0
  0
LINE
  5
427B
  8
240
  6
CONTINUOUS
 10
14.477499074759161
 20
-25.000000000000028
 30
0.0
 11
19.099999999999781
 21
-25.000000000000028
 31
0.0
  0
LINE
  5
427D
  8
240
  6
CONTINUOUS
 10
9.2249999999997812
 20
-22.39759526419186
 30
0.0
 11
7.7225009252404533
 21
-25.00000000000006
 31
0.0
  0
LINE
  5
427E
  8
240
  6
CONTINUOUS
 10
9.2249999999997812
 20
-22.150000000000048
 30
0.0
 11
12.974999999999779
 21
-22.150000000000048
 31
0.0
  0
LINE
  5
427F
  8
240
  6
CONTINUOUS
 10
12.974999999999779
 20
-22.397595264191722
 30
0.0
 11
14.477499074759161
 21
-25.000000000000028
 31
0.0
  0
LINE
  5
4281
  8
241
  6
CONTINUOUS
 10
7.7225009252404533
 20
-25.000000000000028
 30
0.0
 11
7.7225009252404533
 21
15.00000000000005
 31
0.0
  0
LINE
  5
428B
  8
240
  6
CONTINUOUS
 10
12.974999999999779
 20
22.397595264191612
 30
0.0
 11
14.477499074759161
 21
24.999999999999929
 31
0.0
  0
LINE
  5
428C
  8
240
  6
CONTINUOUS
 10
9.2249999999997812
 20
22.39759526419175
 30
0.0
 11
7.7225009252404533
 21
24.99999999999995
 31
0.0
  0
LINE
  5
428D
  8
240
  6
CONTINUOUS
 10
9.2249999999997812
 20
22.149999999999949
 30
0.0
 11
9.2249999999997812
 21
22.39759526419175
 31
0.0
  0
LINE
  5
428E
  8
240
  6
CONTINUOUS
 10
12.974999999999779
 20
22.149999999999949
 30
0.0
 11
12.974999999999779
 21
22.397595264191612
 31
0.0
  0
LINE
  5
428F
  8
240
  6
CONTINUOUS
 10
9.2249999999997812
 20
22.149999999999949
 30
0.0
 11
12.974999999999779
 21
22.149999999999949
 31
0.0
  0
LINE
  5
4290
  8
240
  6
CONTINUOUS
 10
19.099999999999781
 20
22.99999999999994
 30
0.0
 11
19.099999999999781
 21
24.999999999999929
 31
0.0
  0
LINE
  5
4291
  8
240
  6
CONTINUOUS
 10
14.477499074759161
 20
24.999999999999929
 30
0.0
 11
19.099999999999781
 21
24.999999999999929
 31
0.0
  0
LINE
  5
429D
  8
240
  6
CONTINUOUS
 10
3.1999999999993669
 20
-25.000000000000359
 30
0.0
 11
3.199999999999505
 21
-15.87500000000005
 31
0.0
  0
LINE
  5
42A8
  8
240
  6
CONTINUOUS
 10
59.99999999999968
 20
25.000000000000089
 30
0.0
 11
59.99999999999968
 21
-24.999999999999911
 31
0.0
1001
GRPNAME
1000
PASTMD0U
  0
LINE
  5
42D3
  8
240
  6
CONTINUOUS
 10
59.99999999999968
 20
25.000000000000089
 30
0.0
 11
34.999999999999879
 21
25.000000000000028
 31
0.0
1001
GRPNAME
1000
PASTMD0U
  0
LINE
  5
42D5
  8
240
  6
CONTINUOUS
 10
59.99999999999968
 20
-24.999999999999929
 30
0.0
 11
34.999999999999922
 21
-24.99999999999989
 31
0.0
1001
GRPNAME
1000
PASTMD0U
  0
LINE
  5
42D7
  8
240
  6
CONTINUOUS
 10
19.599999999999781
 20
22.49999999999994
 30
0.0
 11
33.999999999999872
 21
22.49999999999994
 31
0.0
  0
LINE
  5
42DA
  8
240
  6
CONTINUOUS
 10
19.599999999999781
 20
-22.499999999999829
 30
0.0
 11
33.999999999999943
 21
-22.49999999999989
 31
0.0
  0
LINE
  5
42DC
  8
240
  6
CONTINUOUS
 10
34.999999999999922
 20
-24.99999999999989
 30
0.0
 11
34.999999999999922
 21
-23.499999999999879
 31
0.0
  0
LINE
  5
42DE
  8
240
  6
CONTINUOUS
 10
34.999999999999879
 20
25.000000000000028
 30
0.0
 11
34.999999999999879
 21
23.49999999999994
 31
0.0
  0
LINE
  5
42DF
  8
240
  6
CONTINUOUS
 10
19.099999999999781
 20
-25.000000000000028
 30
0.0
 11
19.099999999999781
 21
-22.999999999999829
 31
0.0
  0
LINE
  5
4302
  8
240
  6
CONTINUOUS
 10
-0.0000000000002407
 20
15.87499999999994
 30
0.0
 11
3.1999999999994939
 21
15.87499999999994
 31
0.0
  0
LINE
  5
4303
  8
240
  6
CONTINUOUS
 10
-0.0000000000002407
 20
-15.87500000000005
 30
0.0
 11
3.199999999999505
 21
-15.87500000000005
 31
0.0
  0
LINE
  5
435A
  8
243
  6
HIDDEN2
 10
59.99999999999968
 20
13.99999999999997
 30
0.0
 11
30.499999999999659
 21
13.99999999999997
 31
0.0
1001
GRPNAME
1000
PASTMD03
  0
LINE
  5
435B
  8
243
  6
HIDDEN2
 10
59.99999999999968
 20
-13.99999999999997
 30
0.0
 11
30.499999999999659
 21
-13.99999999999997
 31
0.0
1001
GRPNAME
1000
PASTMD03
  0
CIRCLE
  5
435C
  8
241
  6
CONTINUOUS
 10
47.00000000000059
 20
0.0000000000000835
 30
0.0
 40
5.1500000000000004
  0
CIRCLE
  5
435D
  8
242
  6
CONTINUOUS
 10
47.00000000000059
 20
0.0000000000000835
 30
0.0
 40
4.5
  0
LINE
  5
435E
  8
245
  6
CENTER2
 10
47.00000000000059
 20
6.1982482400000771
 30
0.0
 11
47.00000000000059
 21
-6.1499999999999151
 31
0.0
  0
LINE
  5
435F
  8
241
  6
CONTINUOUS
 10
44.500000000000597
 20
-1.4433756699999141
 30
0.0
 11
47.00000000000059
 21
-2.8867513499999151
 31
0.0
  0
LINE
  5
4360
  8
241
  6
CONTINUOUS
 10
47.00000000000059
 20
-2.8867513499999151
 30
0.0
 11
49.500000000000597
 21
-1.4433756699999141
 31
0.0
  0
LINE
  5
4361
  8
241
  6
CONTINUOUS
 10
49.500000000000597
 20
-1.4433756699999141
 30
0.0
 11
49.500000000000597
 21
1.443375670000083
 31
0.0
  0
LINE
  5
4362
  8
241
  6
CONTINUOUS
 10
49.500000000000597
 20
1.443375670000083
 30
0.0
 11
47.00000000000059
 21
2.8867513500000821
 31
0.0
  0
LINE
  5
4363
  8
241
  6
CONTINUOUS
 10
47.00000000000059
 20
2.8867513500000821
 30
0.0
 11
44.500000000000597
 21
1.443375670000083
 31
0.0
  0
LINE
  5
4364
  8
241
  6
CONTINUOUS
 10
44.500000000000597
 20
1.443375670000083
 30
0.0
 11
44.500000000000597
 21
-1.4433756699999141
 31
0.0
  0
LINE
  5
4365
  8
240
  6
CONTINUOUS
 10
34.999999999999879
 20
23.49999999999994
 30
0.0
 11
33.999999999999872
 21
22.49999999999994
 31
0.0
  0
LINE
  5
4366
  8
240
  6
CONTINUOUS
 10
19.599999999999781
 20
22.49999999999994
 30
0.0
 11
19.099999999999781
 21
22.99999999999994
 31
0.0
  0
LINE
  5
4367
  8
240
  6
CONTINUOUS
 10
34.999999999999922
 20
-23.499999999999879
 30
0.0
 11
33.999999999999943
 21
-22.49999999999989
 31
0.0
  0
LINE
  5
4368
  8
240
  6
CONTINUOUS
 10
19.099999999999781
 20
-22.999999999999829
 30
0.0
 11
19.599999999999781
 21
-22.499999999999829
 31
0.0
  0
LINE
  5
4369
  8
241
  6
CONTINUOUS
 10
3.199999999999505
 20
-15.87500000000005
 30
0.0
 11
3.1999999999995068
 21
15.87499999999994
 31
0.0
  0
LINE
  5
436A
  8
241
  6
CONTINUOUS
 10
-0.0000000000002407
 20
-15.87500000000005
 30
0.0
 11
-0.0000000000002407
 21
15.87499999999994
 31
0.0
  0
LINE
  5
436B
  8
241
  6
CONTINUOUS
 10
34.999999999999879
 20
23.49999999999994
 30
0.0
 11
34.999999999999872
 21
-23.499999999999812
 31
0.0
  0
LINE
  5
436D
  8
241
  6
CONTINUOUS
 10
19.149999999999761
 20
15.000000000000069
 30
0.0
 11
3.199999999999485
 21
15.000000000000091
 31
0.0
  0
LINE
  5
436E
  8
241
  6
CONTINUOUS
 10
7.7225009252404071
 20
20.00000000000005
 30
0.0
 11
3.1999999999993891
 21
19.999999999999641
 31
0.0
  0
LINE
  5
436F
  8
241
  6
CONTINUOUS
 10
7.7225009252403964
 20
25.000000000000028
 30
0.0
 11
7.7225009252404071
 21
20.00000000000005
 31
0.0
  0
LINE
  5
4370
  8
241
  6
CONTINUOUS
 10
14.477499074759111
 20
25.000000000000039
 30
0.0
 11
14.47749907475912
 21
20.000000000000071
 31
0.0
  0
LINE
  5
4371
  8
241
  6
CONTINUOUS
 10
9.2249999999997314
 20
22.150000000000048
 30
0.0
 11
9.2249999999997438
 21
16.29792931632733
 31
0.0
  0
LINE
  5
4372
  8
241
  6
CONTINUOUS
 10
12.97499999999973
 20
22.15000000000007
 30
0.0
 11
12.97499999999974
 21
16.29792931632733
 31
0.0
  0
LINE
  5
4376
  8
241
  6
CONTINUOUS
 10
14.47749907475913
 20
15.00000000000006
 30
0.0
 11
14.477499074759219
 21
-25.000000000000028
 31
0.0
  0
LINE
  5
4377
  8
241
  6
CONTINUOUS
 10
14.47749907475912
 20
20.000000000000071
 30
0.0
 11
19.099999999999739
 21
20.000000000000082
 31
0.0
  0
LINE
  5
4378
  8
241
  6
CONTINUOUS
 10
7.7225009252404071
 20
20.00000000000005
 30
0.0
 11
9.2249999999997723
 21
16.632867269912989
 31
0.0
  0
LINE
  5
4379
  8
241
  6
CONTINUOUS
 10
9.2249999999997438
 20
16.29792931632733
 30
0.0
 11
12.97499999999974
 21
16.29792931632733
 31
0.0
  0
LINE
  5
437A
  8
241
  6
CONTINUOUS
 10
14.47749907475912
 20
20.000000000000071
 30
0.0
 11
12.97499999999974
 21
16.632867269913
 31
0.0
  0
LINE
  5
437B
  8
241
  6
CONTINUOUS
 10
19.099999999999749
 20
16.770509831248479
 30
0.0
 11
24.169307944072191
 21
16.770509831248489
 31
0.0
  0
ARC
  5
437C
  8
241
  6
CONTINUOUS
 10
19.149999999999739
 20
23.00000000000006
 30
0.0
 40
8.0000000000000693
 50
270.00000000000011
 51
308.85955149571521
  0
LINE
  5
43F6
  8
243
  6
HIDDEN2
 10
3.1999999999995912
 20
19.0
 30
0.0
 11
30.049999999999191
 21
19.0
 31
0.0
  0
LINE
  5
43F7
  8
243
  6
HIDDEN2
 10
30.049999999999191
 20
19.0
 30
0.0
 11
30.049999999999191
 21
22.49999999999994
 31
0.0
  0
LINE
  5
43F8
  8
243
  6
HIDDEN2
 10
3.1999999999994908
 20
-16.399999999999999
 30
0.0
 11
27.199999999999811
 21
-16.399999999999999
 31
0.0
  0
LINE
  5
43F9
  8
243
  6
HIDDEN2
 10
27.199999999999811
 20
-16.399999999999999
 30
0.0
 11
27.199999999999811
 21
-22.499999999999861
 31
0.0
  0
LINE
  5
4465
  8
241
  6
CONTINUOUS
 10
19.099999999999781
 20
22.99999999999994
 30
0.0
 11
19.099999999999781
 21
16.770509831248479
 31
0.0
  0
LINE
  5
4466
  8
240
  6
CONTINUOUS
 10
9.2249999999990422
 20
-22.150000000000261
 30
0.0
 11
9.2249999999990351
 21
-22.397595264192059
 31
0.0
  0
LINE
  5
4467
  8
240
  6
CONTINUOUS
 10
12.97499999999904
 20
-22.150000000000379
 30
0.0
 11
12.97499999999903
 21
-22.397595264192049
 31
0.0
  0
LINE
  5
4468
  8
241
  6
CONTINUOUS
 10
33.999999999999872
 20
22.49999999999994
 30
0.0
 11
33.999999999999943
 21
-22.49999999999989
 31
0.0
  0
LINE
  5
44BD
  8
243
  6
HIDDEN2
 10
27.499999999999041
 20
15.19000000000001
 30
0.0
 11
18.499999999998991
 21
15.19000000000001
 31
0.0
  0
LINE
  5
44BE
  8
243
  6
HIDDEN2
 10
27.499999999999108
 20
19.0
 30
0.0
 11
27.499999999999279
 21
15.19
 31
0.0
  0
LINE
  5
44BF
  8
243
  6
HIDDEN2
 10
27.499999999999041
 20
15.19
 30
0.0
 11
22.999999999999009
 21
13.09161553830252
 31
0.0
  0
LINE
  5
44C0
  8
243
  6
HIDDEN2
 10
18.499999999999051
 20
19.0
 30
0.0
 11
18.499999999999051
 21
15.19
 31
0.0
  0
LINE
  5
44C1
  8
243
  6
HIDDEN2
 10
18.499999999998991
 20
15.19
 30
0.0
 11
22.999999999999009
 21
13.09161553830252
 31
0.0
  0
LINE
  5
44DE
  8
243
  6
HIDDEN2
 10
16.099999999999781
 20
19.000000000000011
 30
0.0
 11
16.099999999999952
 21
14.399999999999659
 31
0.0
  0
LINE
  5
44DF
  8
243
  6
HIDDEN2
 10
6.0999999999997812
 20
19.000000000000011
 30
0.0
 11
6.099999999999639
 21
14.40000000000013
 31
0.0
  0
LINE
  5
44E0
  8
243
  6
HIDDEN2
 10
6.099999999999639
 20
14.40000000000013
 30
0.0
 11
16.099999999999952
 21
14.399999999999659
 31
0.0
  0
LINE
  5
44E1
  8
243
  6
HIDDEN2
 10
11.099999999999669
 20
13.39999999999999
 30
0.0
 11
9.3679491924308849
 21
14.39999999999997
 31
0.0
  0
LINE
  5
44E2
  8
243
  6
HIDDEN2
 10
11.09999999999989
 20
13.39999999999999
 30
0.0
 11
12.832050807568679
 21
14.39999999999997
 31
0.0
  0
LINE
  5
44E5
  8
245
  6
CENTER2
 10
22.99999999999908
 20
19.630271605407518
 30
0.0
 11
22.99999999999908
 21
12.58281225100202
 31
0.0
  0
LINE
  5
44E6
  8
245
  6
CENTER2
 10
11.099999999999779
 20
19.630271605407518
 30
0.0
 11
11.099999999999779
 21
12.58281225100202
 31
0.0
  0
LINE
  5
44E7
  8
241
  6
CONTINUOUS
 10
19.099999999999781
 20
15.000000000000069
 30
0.0
 11
19.099999999999781
 21
-22.999999999999829
 31
0.0
  0
LINE
  5
4525
  8
250
  6
CONTINUOUS
 10
57.460007805591808
 20
26.745403316679859
 30
0.0
 11
56.023135030000589
 21
25.00000000000027
 31
0.0
  0
LINE
  5
4526
  8
250
  6
CONTINUOUS
 10
56.816262255555642
 20
27.11706998353754
 30
0.0
 11
56.023135030000589
 21
25.00000000000027
 31
0.0
  0
LINE
  5
4527
  8
250
  6
CONTINUOUS
 10
56.023135030000589
 20
25.00000000000027
 30
0.0
 11
57.138135030573729
 21
26.931236650108701
 31
0.0
  0
LINE
  5
4528
  8
250
  6
CONTINUOUS
 10
66.156788740000593
 20
42.552003080000247
 30
0.0
 11
79.223455400000574
 21
42.552003080000247
 31
0.0
1001
ITEMNAME
1000
LNSP2
  0
TEXT
  5
4529
  8
250
  6
CONTINUOUS
 10
68.556788740000599
 20
43.552003080000269
 30
0.0
 40
2.799999999999998
  1
CK5
  7
YOKO
  0
LINE
  5
452A
  8
250
  6
CONTINUOUS
 10
57.138135030573729
 20
26.931236650108701
 30
0.0
 11
66.156788740000593
 21
42.552003080000247
 31
0.0
1001
ACAD
1000
DSTYLE
1002
{
1070
     6
1000
OPEN
1070
   343
1005
0
1002
}
  0
LINE
  5
452B
  8
250
  6
CONTINUOUS
 10
60.49999999999968
 20
-24.99999999999995
 30
0.0
 11
74.199999999999747
 21
-24.99999999999995
 31
0.0
  0
LINE
  5
452C
  8
250
  6
CONTINUOUS
 10
60.49999999999968
 20
25.00000000000006
 30
0.0
 11
74.199999999999747
 21
25.00000000000006
 31
0.0
  0
LINE
  5
452D
  8
250
  6
CONTINUOUS
 10
73.199999999999747
 20
-22.76999999999995
 30
0.0
 11
73.199999999999747
 21
22.77000000000006
 31
0.0
  0
TEXT
  5
452E
  8
250
  6
CONTINUOUS
 10
72.199999999999747
 20
-3.9333333333332621
 30
0.0
 40
2.799999999999998
  1
\U+220550
 50
90.0
  0
LINE
  5
452F
  8
250
  6
CONTINUOUS
 10
72.828333333333049
 20
22.77000000000006
 30
0.0
 11
73.199999999999747
 21
25.00000000000006
 31
0.0
  0
LINE
  5
4530
  8
250
  6
CONTINUOUS
 10
73.571666666666445
 20
22.77000000000006
 30
0.0
 11
73.199999999999747
 21
25.00000000000006
 31
0.0
  0
LINE
  5
4531
  8
250
  6
CONTINUOUS
 10
73.199999999999747
 20
25.00000000000006
 30
0.0
 11
73.199999999999747
 21
22.77000000000006
 31
0.0
  0
LINE
  5
4532
  8
250
  6
CONTINUOUS
 10
73.571666666666445
 20
-22.76999999999995
 30
0.0
 11
73.199999999999747
 21
-24.99999999999995
 31
0.0
  0
LINE
  5
4533
  8
250
  6
CONTINUOUS
 10
72.828333333333049
 20
-22.76999999999995
 30
0.0
 11
73.199999999999747
 21
-24.99999999999995
 31
0.0
  0
LINE
  5
4534
  8
250
  6
CONTINUOUS
 10
73.199999999999747
 20
-24.99999999999995
 30
0.0
 11
73.199999999999747
 21
-22.76999999999995
 31
0.0
  0
LINE
  5
455B
  8
247
  6
CONTINUOUS
 10
6.4607899310796997
 20
-13.378876138484211
 30
0.0
 11
6.4607899310797441
 21
-9.6711838310202207
 31
0.0
  0
LINE
  5
455C
  8
247
  6
CONTINUOUS
 10
4.4607899310797459
 20
-12.742790938474551
 30
0.0
 11
6.1407899310125513
 21
-13.224523186530099
 31
0.0
  0
LINE
  5
455D
  8
247
  6
CONTINUOUS
 10
5.2577130079709429
 20
-12.23899726129944
 30
0.0
 11
5.2577130079709429
 21
-12.97130495357783
 31
0.0
  0
ARC
  5
455E
  8
247
  6
CONTINUOUS
 10
4.7685651849150226
 20
-12.04868686004162
 30
0.0
 40
0.3101372647461394
 50
72.997889675292981
 51
172.92416621851351
  0
ARC
  5
455F
  8
247
  6
CONTINUOUS
 10
4.7049684359021571
 20
-12.28485818392747
 30
0.0
 40
0.554643837228702
 50
4.7429368522022131
 51
73.849226273266737
1001
GENIUS_GENOBJ-N-FIL_13
1002
{
1000
OWNER
1000
GEN
1002
}
1001
GENIUS_GENODEF_13
1002
{
1000
HIER
1070
     0
1002
}
1002
{
1000
MANEDIT
1070
     0
1002
}
1002
{
1000
NOSEL
1070
     0
1002
}
1002
{
1000
BEHIND
1070
     0
1002
}
1002
{
1000
OTHER
1070
     0
1002
}
1002
{
1000
REACTOR
1002
}
  0
LINE
  5
4560
  8
247
  6
CONTINUOUS
 10
6.1407899310125513
 20
-12.492215494251701
 30
0.0
 11
6.1407899310125513
 21
-13.224523186530099
 31
0.0
  0
LINE
  5
4561
  8
247
  6
CONTINUOUS
 10
4.4607899310797459
 20
-12.742790938474551
 30
0.0
 11
4.4607899310797459
 21
-12.010483246196159
 31
0.0
  0
ARC
  5
4562
  8
247
  6
CONTINUOUS
 10
5.5707235012940428
 20
-12.281521319497649
 30
0.0
 40
0.3158858408603088
 50
65.990941652528974
 51
172.26344345906901
  0
ARC
  5
4563
  8
247
  6
CONTINUOUS
 10
5.5737501929457993
 20
-12.54883342682575
 30
0.0
 40
0.5698593289889349
 50
5.701985164256504
 51
77.277338436821935
1001
GENIUS_GENOBJ-N-FIL_13
1002
{
1000
OWNER
1000
GEN
1002
}
1001
GENIUS_GENODEF_13
1002
{
1000
HIER
1070
     0
1002
}
1002
{
1000
MANEDIT
1070
     0
1002
}
1002
{
1000
NOSEL
1070
     0
1002
}
1002
{
1000
BEHIND
1070
     0
1002
}
1002
{
1000
OTHER
1070
     0
1002
}
1002
{
1000
REACTOR
1002
}
  0
LINE
  5
4564
  8
247
  6
CONTINUOUS
 10
6.1407899310125513
 20
-11.726061648134889
 30
0.0
 11
4.4607899310797459
 21
-11.24432940007938
 31
0.0
  0
LINE
  5
4565
  8
247
  6
CONTINUOUS
 10
4.4607899310797459
 20
-10.047406323210559
 30
0.0
 11
4.4607899310797459
 21
-10.364218829927051
 31
0.0
  0
LINE
  5
4566
  8
247
  6
CONTINUOUS
 10
6.1407899310125513
 20
-10.86586786163936
 30
0.0
 11
6.1407899310125513
 21
-10.521252477037759
 31
0.0
  0
ARC
  5
4567
  8
247
  6
CONTINUOUS
 10
5.627429607146432
 20
-9.8843294001401478
 30
0.0
 40
1.261484046111637
 50
202.35948814152931
 51
254.9932485428468
  0
ARC
  5
4568
  8
247
  6
CONTINUOUS
 10
4.913445017910254
 20
-10.256885231390759
 30
0.0
 40
0.4987765437607558
 50
94.994589319075246
 51
155.16632895730399
1001
GENIUS_GENOBJ-N-FIL_13
1002
{
1000
OWNER
1000
GEN
1002
}
1001
GENIUS_GENODEF_13
1002
{
1000
HIER
1070
     0
1002
}
1002
{
1000
MANEDIT
1070
     0
1002
}
1002
{
1000
NOSEL
1070
     0
1002
}
1002
{
1000
BEHIND
1070
     0
1002
}
1002
{
1000
OTHER
1070
     0
1002
}
1002
{
1000
REACTOR
1002
}
  0
ARC
  5
4569
  8
247
  6
CONTINUOUS
 10
5.3904716286552956
 20
-10.734223299310409
 30
0.0
 40
0.7799577719285588
 50
15.84609655578072
 51
82.325137004169207
  0
ARC
  5
456A
  8
247
  6
CONTINUOUS
 10
5.5579662526565956
 20
-10.40704544950195
 30
0.0
 40
0.7417556510953607
 50
249.7136016704965
 51
321.78874565641092
1001
GENIUS_GENOBJ-N-FIL_13
1002
{
1000
OWNER
1000
GEN
1002
}
1001
GENIUS_GENODEF_13
1002
{
1000
HIER
1070
     0
1002
}
1002
{
1000
MANEDIT
1070
     0
1002
}
1002
{
1000
NOSEL
1070
     0
1002
}
1002
{
1000
BEHIND
1070
     0
1002
}
1002
{
1000
OTHER
1070
     0
1002
}
1002
{
1000
REACTOR
1002
}
  0
LINE
  5
456B
  8
247
  6
CONTINUOUS
 10
5.4946360848845242
 20
-10.34894478473695
 30
0.0
 11
5.4946360848845242
 21
-9.9612524770601958
 31
0.0
  0
ARC
  5
456C
  8
247
  6
CONTINUOUS
 10
5.4607899310797459
 20
-13.378876138484211
 30
0.0
 40
1.0
 50
180.0
 51
0.0
  0
LINE
  5
456D
  8
247
  6
CONTINUOUS
 10
4.4607899310797459
 20
-13.378876138484211
 30
0.0
 11
4.4607899310797459
 21
-13.021953061615401
 31
0.0
  0
ARC
  5
456E
  8
247
  6
CONTINUOUS
 10
5.4607899310797459
 20
-9.6711838310202207
 30
0.0
 40
1.0
 50
0.0
 51
180.0
  0
TEXT
  5
456F
  8
241
  6
CONTINUOUS
 10
-47.800000000000018
 20
55.999999999999972
 30
0.0
 40
5.0
  1
DV30-CKB5-60
  7
YOKO
 11
-47.800000000000018
 21
55.999999999999972
 31
0.0
 73
     1
  0
INSERT
  5
4570
  8
250
  6
CONTINUOUS
  2
_OPEN
 10
-20.798333952781991
 20
-12.84190963188605
 30
0.0
 41
2.0
 42
2.0
 43
2.0
 50
60.0
1001
ACAD
1000
DSTYLE
1002
{
1070
    41
1040
2.0
1070
    78
1070
     8
1070
   140
1040
2.799999999999998
1070
   271
1070
     3
1070
   272
1070
     4
1070
   279
1070
     0
1070
   284
1070
     0
1070
   285
1070
     0
1070
   286
1070
     0
1070
   340
1005
10
1070
   341
1005
594
1070
   342
1005
594
1002
}
  0
POLYLINE
  5
4571
  8
250
  6
CONTINUOUS
 66
     1
 10
0.0
 20
0.0
 30
0.0
1001
ACAD
1000
DSTYLE
1002
{
1070
    41
1040
2.0
1070
    78
1070
     8
1070
   140
1040
2.799999999999998
1070
   271
1070
     3
1070
   272
1070
     4
1070
   279
1070
     0
1070
   284
1070
     0
1070
   285
1070
     0
1070
   286
1070
     0
1070
   340
1005
10
1070
   341
1005
594
1070
   342
1005
594
1002
}
  0
VERTEX
  5
4761
  8
250
  6
CONTINUOUS
 10
-21.798333952781981
 20
-14.573960439454931
 30
0.0
  0
VERTEX
  5
4762
  8
250
  6
CONTINUOUS
 10
-25.529282404628511
 20
-21.036152718473559
 30
0.0
  0
SEQEND
  5
4763
  8
250
  6
CONTINUOUS
  0
TEXT
  5
4572
  8
250
  6
CONTINUOUS
 10
-38.462615737961862
 20
-20.036152718473559
 30
0.0
 40
2.799999999999998
  1
DV30
  7
YOKO
1001
ITEMNAME
1000
LNSP3
  0
LINE
  5
4573
  8
250
  6
CONTINUOUS
 10
-25.529282404628511
 20
-21.036152718473559
 30
0.0
 11
-40.729282404628513
 21
-21.036152718473559
 31
0.0
1001
ITEMNAME
1000
LNSP2
  0
LINE
  5
4593
  8
250
  6
CONTINUOUS
 10
-0.0000000000002407
 20
16.37499999999994
 30
0.0
 11
-0.0000000000002389
 21
43.0
 31
0.0
  0
LINE
  5
4594
  8
250
  6
CONTINUOUS
 10
59.99999999999968
 20
25.500000000000099
 30
0.0
 11
59.99999999999968
 21
43.0
 31
0.0
  0
LINE
  5
4595
  8
250
  6
CONTINUOUS
 10
2.2299999999997602
 20
42.0
 30
0.0
 11
57.76999999999969
 21
42.0
 31
0.0
  0
TEXT
  5
4599
  8
250
  6
CONTINUOUS
 10
27.266666666666389
 20
43.0
 30
0.0
 40
2.799999999999998
  1
60
  0
LINE
  5
459A
  8
250
  6
CONTINUOUS
 10
57.76999999999969
 20
42.371666666666663
 30
0.0
 11
59.99999999999968
 21
42.0
 31
0.0
  0
LINE
  5
459B
  8
250
  6
CONTINUOUS
 10
57.76999999999969
 20
41.62833333333333
 30
0.0
 11
59.99999999999968
 21
42.0
 31
0.0
  0
LINE
  5
459C
  8
250
  6
CONTINUOUS
 10
59.99999999999968
 20
42.0
 30
0.0
 11
57.76999999999969
 21
42.0
 31
0.0
  0
LINE
  5
459D
  8
250
  6
CONTINUOUS
 10
2.2299999999997602
 20
41.62833333333333
 30
0.0
 11
-0.0000000000002389
 21
42.0
 31
0.0
  0
LINE
  5
459E
  8
250
  6
CONTINUOUS
 10
2.2299999999997602
 20
42.371666666666663
 30
0.0
 11
-0.0000000000002389
 21
42.0
 31
0.0
  0
LINE
  5
459F
  8
250
  6
CONTINUOUS
 10
-0.0000000000002389
 20
42.0
 30
0.0
 11
2.2299999999997602
 21
42.0
 31
0.0
  0
VIEWPORT
  5
22
 67
     1
  8
0
 10
261.51769911504419
 20
148.5
 30
0.0
 40
523.0353982300885
 41
297.0
 68
     1
 69
     1
1001
ACAD
1000
MVIEW
1002
{
1070
    16
1010
0.0
1020
0.0
1030
0.0
1010
0.0
1020
0.0
1030
1.0
1040
0.0
1040
297.0
1040
261.51769911504419
1040
148.5
1040
50.0
1040
0.0
1040
0.0
1070
     0
1070
   100
1070
     1
1070
     1
1070
     0
1070
     0
1070
     0
1070
     0
1040
0.0
1040
0.0
1040
0.0
1040
1.0
1040
1.0
1040
10.0
1040
10.0
1070
     0
1002
{
1002
}
1002
}
1001
GENIUS_GENODEF_13
1002
{
1000
HIER
1070
     0
1002
}
1002
{
1000
MANEDIT
1070
     0
1002
}
1002
{
1000
NOSEL
1070
     0
1002
}
1002
{
1000
BEHIND
1070
     0
1002
}
1002
{
1000
OTHER
1070
     0
1002
}
1002
{
1000
REACTOR
1002
}
1001
GENIUS_GENOBJ-N-SDF_13
1002
{
1000
OWNER
1000
GEN
1002
}
1001
GENIUS_GENSCREG_15
1000
PF
1040
1.0
1000
DF
1040
1.0
1000
MIN
1011
0.0
1021
0.0
1031
0.0
1021
0.0
1031
0.0
1000
MAX
1011
523.0353982300885
1021
0.0
1031
0.0
1021
297.0
1031
0.0
1000
FLAGS
1070
     4
  0
ENDSEC
  0
EOF
