  0
SECTION
  2
HEADER
  9
$ACADVER
  1
AC1009
  9
$INSBASE
 10
0.0
 20
0.0
 30
0.0
  9
$EXTMIN
 10
-49.499999999999879
 20
-56.390528111929939
 30
0.0
  9
$EXTMAX
 10
248.52397372936031
 20
83.906919313899976
 30
0.0
  9
$LIMMIN
 10
0.0
 20
0.0
  9
$LIMMAX
 10
420.0
 20
297.0
  9
$ORTHOMODE
 70
     0
  9
$REGENMODE
 70
     1
  9
$FILLMODE
 70
     1
  9
$QTEXTMODE
 70
     0
  9
$MIRRTEXT
 70
     0
  9
$DRAGMODE
 70
     2
  9
$LTSCALE
 40
23.100000000000001
  9
$OSMODE
 70
    39
  9
$ATTMODE
 70
     1
  9
$TEXTSIZE
 40
0.2
  9
$TRACEWID
 40
0.05
  9
$TEXTSTYLE
  7
STANDARD
  9
$CLAYER
  8
240
  9
$CELTYPE
  6
BYLAYER
  9
$CECOLOR
 62
   256
  9
$DIMSCALE
 40
1.0
  9
$DIMASZ
 40
3.5
  9
$DIMEXO
 40
1.0
  9
$DIMDLI
 40
15.960000000000001
  9
$DIMRND
 40
0.0
  9
$DIMDLE
 40
0.0
  9
$DIMEXE
 40
1.5
  9
$DIMTP
 40
0.01
  9
$DIMTM
 40
0.01
  9
$DIMTXT
 40
3.5
  9
$DIMCEN
 40
3.779999999999998
  9
$DIMTSZ
 40
0.0
  9
$DIMTOL
 70
     1
  9
$DIMLIM
 70
     0
  9
$DIMTIH
 70
     1
  9
$DIMTOH
 70
     1
  9
$DIMSE1
 70
     0
  9
$DIMSE2
 70
     0
  9
$DIMTAD
 70
     0
  9
$DIMZIN
 70
     0
  9
$DIMBLK
  1
_FILLED
  9
$DIMASO
 70
     1
  9
$DIMSHO
 70
     1
  9
$DIMPOST
  1

  9
$DIMAPOST
  1

  9
$DIMALT
 70
     0
  9
$DIMALTD
 70
     2
  9
$DIMALTF
 40
25.399999999999999
  9
$DIMLFAC
 40
1.0
  9
$DIMTOFL
 70
     0
  9
$DIMTVP
 40
0.0
  9
$DIMTIX
 70
     0
  9
$DIMSOXD
 70
     0
  9
$DIMSAH
 70
     0
  9
$DIMBLK1
  1

  9
$DIMBLK2
  1

  9
$DIMSTYLE
  2
STANDARD
  9
$DIMCLRD
 70
     0
  9
$DIMCLRE
 70
     0
  9
$DIMCLRT
 70
     0
  9
$DIMTFAC
 40
1.0
  9
$DIMGAP
 40
0.625
  9
$LUNITS
 70
     2
  9
$LUPREC
 70
     2
  9
$SKETCHINC
 40
0.1
  9
$FILLETRAD
 40
0.0
  9
$AUNITS
 70
     0
  9
$AUPREC
 70
     0
  9
$MENU
  1
.
  9
$ELEVATION
 40
0.0
  9
$PELEVATION
 40
0.0
  9
$THICKNESS
 40
0.0
  9
$LIMCHECK
 70
     0
  9
$BLIPMODE
 70
     0
  9
$CHAMFERA
 40
0.0
  9
$CHAMFERB
 40
0.0
  9
$SKPOLY
 70
     0
  9
$TDCREATE
 40
2458360.6444212971
  9
$TDUPDATE
 40
2460791.757985984
  9
$TDINDWG
 40
0.0417049653
  9
$TDUSRTIMER
 40
0.0417048611
  9
$USRTIMER
 70
     1
  9
$ANGBASE
 50
0.0
  9
$ANGDIR
 70
     0
  9
$PDMODE
 70
     3
  9
$PDSIZE
 40
8.0
  9
$PLINEWID
 40
0.0
  9
$COORDS
 70
     1
  9
$SPLFRAME
 70
     0
  9
$SPLINETYPE
 70
     6
  9
$SPLINESEGS
 70
     8
  9
$ATTDIA
 70
     1
  9
$ATTREQ
 70
     1
  9
$HANDLING
 70
     1
  9
$HANDSEED
  5
383F
  9
$SURFTAB1
 70
     6
  9
$SURFTAB2
 70
     6
  9
$SURFTYPE
 70
     6
  9
$SURFU
 70
     6
  9
$SURFV
 70
     6
  9
$UCSNAME
  2

  9
$UCSORG
 10
0.0
 20
0.0
 30
0.0
  9
$UCSXDIR
 10
1.0
 20
0.0
 30
0.0
  9
$UCSYDIR
 10
0.0
 20
1.0
 30
0.0
  9
$PUCSNAME
  2

  9
$PUCSORG
 10
0.0
 20
0.0
 30
0.0
  9
$PUCSXDIR
 10
1.0
 20
0.0
 30
0.0
  9
$PUCSYDIR
 10
0.0
 20
1.0
 30
0.0
  9
$USERI1
 70
     0
  9
$USERI2
 70
     0
  9
$USERI3
 70
     0
  9
$USERI4
 70
     0
  9
$USERI5
 70
     0
  9
$USERR1
 40
0.0
  9
$USERR2
 40
0.0
  9
$USERR3
 40
0.0
  9
$USERR4
 40
0.0
  9
$USERR5
 40
0.0
  9
$WORLDVIEW
 70
     1
  9
$SHADEDGE
 70
     3
  9
$SHADEDIF
 70
    70
  9
$TILEMODE
 70
     1
  9
$MAXACTVP
 70
    64
  9
$PLIMCHECK
 70
     0
  9
$PEXTMIN
 10
1.0000000000000000E+020
 20
1.0000000000000000E+020
 30
1.0000000000000000E+020
  9
$PEXTMAX
 10
-1.0000000000000000E+020
 20
-1.0000000000000000E+020
 30
-1.0000000000000000E+020
  9
$PLIMMIN
 10
0.0
 20
0.0
  9
$PLIMMAX
 10
12.0
 20
9.0
  9
$UNITMODE
 70
     0
  9
$VISRETAIN
 70
     1
  9
$PLINEGEN
 70
     0
  9
$PSLTSCALE
 70
     1
  0
ENDSEC
  0
SECTION
  2
TABLES
  0
TABLE
  2
VPORT
 70
     1
  0
VPORT
  2
*ACTIVE
 70
     0
 10
0.0
 20
0.0
 11
1.0
 21
1.0
 12
80.02924383911386
 22
8.1081342449682836
 13
0.0
 23
0.0
 14
1.0
 24
1.0
 15
0.0
 25
0.0
 16
0.0
 26
0.0
 36
1.0
 17
0.0
 27
0.0
 37
0.0
 40
183.3071594273151
 41
1.8807106598984771
 42
50.0
 43
0.0
 44
0.0
 50
0.0
 51
0.0
 71
     0
 72
   100
 73
     1
 74
     1
 75
     1
 76
     1
 77
     0
 78
     0
  0
ENDTAB
  0
TABLE
  2
LTYPE
 70
    25
  0
LTYPE
  2
CONTINUOUS
 70
     0
  3
Solid line
 72
    65
 73
     0
 40
0.0
  0
LTYPE
  2
CENTER
 70
     0
  3
____ _ ____ _ ____ _ ____ _ ____ _ ____ _ ____
 72
    65
 73
     4
 40
0.6
 49
0.375
 49
-0.075
 49
0.075
 49
-0.075
  0
LTYPE
  2
DASHED
 70
     0
  3
- - - - - - - - - - - - - - - - - - - -
 72
    65
 73
     2
 40
0.2
 49
0.1
 49
-0.1
  0
LTYPE
  2
AM_ISO02W050
 70
     0
  3
__ __ __ __ __ __ __ __ __ __ __ __ __ __ __
 72
    65
 73
     2
 40
7.5
 49
6.0
 49
-1.5
  0
LTYPE
  2
AM_ISO08W050
 70
     0
  3
____ . ____ . ____ . ____ . ____ . ____ . ____
 72
    65
 73
     4
 40
18.0
 49
12.0
 49
-1.5
 49
3.0
 49
-1.5
  0
LTYPE
  2
AM_ISO09W050
 70
     0
  3
_____ . . _____ . . _____ . . ____ .. ____
 72
    65
 73
     6
 40
22.5
 49
12.0
 49
-1.5
 49
3.0
 49
-1.5
 49
3.0
 49
-1.5
  0
LTYPE
  2
AMCONSTR
 70
     0
  3
_______________________
 72
    65
 73
     2
 40
9999.0
 49
9999.0
 49
0.0
  0
LTYPE
  2
AM_ISO08W050X2
 70
     0
  3
__ . __ . __ . __ . __ . __
 72
    65
 73
     4
 40
9.0
 49
6.0
 49
-0.75
 49
1.5
 49
-0.75
  0
LTYPE
  2
AM_ISO02W050X2
 70
     0
  3
 _ _ _ _ _ _ _ _ _ _ _ _
 72
    65
 73
     2
 40
3.75
 49
3.0
 49
-0.75
  0
LTYPE
  2
AMZIGZAG
 70
     0
  3
/\/-/\/-/\/-/\/-/\/-/\/
 72
    65
 73
     2
 40
11.0001
 49
0.0001
 49
-11.0
  0
LTYPE
  2
HIDDEN
 70
     0
  3
Hidden __ __ __ __ __ __ __ __ __ __ __ __ __ _
 72
    65
 73
     2
 40
0.375
 49
0.25
 49
-0.125
  0
LTYPE
  2
PHANTOM2
 70
     0
  3
Phantom (.5x) ___ _ _ ___ _ _ ___ _ _ ___ _ _
 72
    65
 73
     6
 40
1.25
 49
0.625
 49
-0.125
 49
0.125
 49
-0.125
 49
0.125
 49
-0.125
  0
LTYPE
  2
CENTER2
 70
     0
  3
Center (.5x) ___ _ ___ _ ___ _ ___ _ ___ _ ___
 72
    65
 73
     4
 40
1.125
 49
0.75
 49
-0.125
 49
0.125
 49
-0.125
  0
LTYPE
  2
HIDDEN2
 70
     0
  3
Hidden (.5x) _ _ _ _ _ _ _ _ _ _ _ _ _ _ _ _ _
 72
    65
 73
     2
 40
0.1875
 49
0.125
 49
-0.0625
  0
LTYPE
  2
AMZIGZAG2
 70
     0
  3
/\/-/\/-/\/-/\/-/\/-/\/
 72
    65
 73
     2
 40
0.4401
 49
0.0001
 49
-0.4400000000000003
  0
LTYPE
  2
ACANSTGB
 70
     0
  3
__ . . __ . .
 72
    65
 73
     6
 40
0.35433070866
 49
0.15748031496
 49
-0.03937007874
 49
0.03937007874
 49
-0.03937007874
 49
0.03937007874
 49
-0.03937007874
  0
LTYPE
  2
ACANSTGL
 70
     0
  3
_ _ _ _ _
 72
    65
 73
     2
 40
0.11811023622
 49
0.07874015748
 49
-0.03937007874
  0
LTYPE
  2
ACJISTGB
 70
     0
  3
__ . . __ . .
 72
    65
 73
     6
 40
9.0
 49
4.0
 49
-1.0
 49
1.0
 49
-1.0
 49
1.0
 49
-1.0
  0
LTYPE
  2
ACJISTGL
 70
     0
  3
_ _ _ _ _
 72
    65
 73
     2
 40
3.0
 49
2.0
 49
-1.0
  0
LTYPE
  2
ACJISWELD
 70
     0
  3
_ _ _ _ _
 72
    65
 73
     2
 40
2.0
 49
2.0
 49
-1.0
  0
ENDTAB
  0
TABLE
  2
LAYER
 70
    19
  0
LAYER
  2
0
 70
     0
 62
     7
  6
CONTINUOUS
  0
LAYER
  2
1
 70
     0
 62
     4
  6
CONTINUOUS
  0
LAYER
  2
2
 70
     0
 62
     7
  6
CONTINUOUS
  0
LAYER
  2
3
 70
     0
 62
     1
  6
DASHED
  0
LAYER
  2
4
 70
     0
 62
     2
  6
CENTER
  0
LAYER
  2
6
 70
     0
 62
     5
  6
CONTINUOUS
  0
LAYER
  2
NOCUT
 70
     0
 62
     7
  6
CONTINUOUS
  0
LAYER
  2
DEFPOINTS
 70
     0
 62
     7
  6
CONTINUOUS
  0
LAYER
  2
240
 70
     0
 62
     4
  6
CONTINUOUS
  0
ENDTAB
  0
TABLE
  2
STYLE
 70
     9
  0
STYLE
  2
STANDARD
 70
     0
 40
0.0
 41
0.85
 50
0.0
 71
     0
 42
0.2
  3
txt
  4

  0
STYLE
  2
ACANSGDT
 70
     0
 40
0.0
 41
1.0
 50
0.0
 71
     0
 42
0.2
  3
amgdt.shx
  4

  0
STYLE
  2
ACJISGDT
 70
     0
 40
0.0
 41
1.0
 50
0.0
 71
     0
 42
3.0
  3
amgdt.shx
  4
extfont.shx
  0
ENDTAB
  0
TABLE
  2
VIEW
 70
     0
  0
ENDTAB
  0
TABLE
  2
UCS
 70
     0
  0
ENDTAB
  0
TABLE
  2
APPID
 70
    27
  0
APPID
  2
ACAD
 70
     0
  0
APPID
  2
ACADANNOTATIVE
 70
     0
  0
APPID
  2
MCAD_NO_VIS
 70
     0
  0
APPID
  2
ACAD_TEMP_GRAPHIC
 70
     0
  0
APPID
  2
ACATTRIBSERVICES
 70
     0
  0
APPID
  2
DESIGNERASSEMBLIES
 70
     0
  0
APPID
  2
ACAD_DSTYLE_DIMJAG
 70
     0
  0
APPID
  2
ACAD_DSTYLE_DIMBREAK
 70
     0
  0
APPID
  2
ACAD_NAV_VCDISPLAY
 70
     0
  0
APPID
  2
ACAD_MLEADERVER
 70
     0
  0
APPID
  2
ACAD_DSTYLE_DIMARC_LENGTH_
 70
     0
  0
APPID
  2
ACAD_DSTYLE_DIM_LINETYPE
 70
     0
  0
APPID
  2
ACAD_DSTYLE_DIM_EXT1_LINETYPE
 70
     0
  0
APPID
  2
ACAD_DSTYLE_DIM_EXT2_LINETYPE
 70
     0
  0
APPID
  2
ACAECLAYERSTANDARD
 70
     0
  0
APPID
  2
GRPNAME
 70
     0
  0
APPID
  2
GENIUS_GENODEF_13
 70
     0
  0
APPID
  2
GENIUS_GENOREF_13
 70
     0
  0
APPID
  2
GENIUS_GENOBJ-N-FIL_13
 70
     0
  0
APPID
  2
GENIUS_GENFIL_13
 70
     0
  0
APPID
  2
GENIUS_GENOBJ-N-CEN_13
 70
     0
  0
APPID
  2
GENIUS_GENCEN_19
 70
     0
  0
APPID
  2
ACAD_PSEXT
 70
     0
  0
APPID
  2
PLOTTRANSPARENCY
 70
     0
  0
APPID
  2
ACAD_EXEMPT_FROM_CAD_STANDARDS
 70
     0
  0
APPID
  2
GENIUS_GENDTOL_13
 70
     0
  0
APPID
  2
ACAD_DSTYLE_DIMINSPECT
 70
     0
  0
ENDTAB
  0
TABLE
  2
DIMSTYLE
 70
    21
  0
DIMSTYLE
  2
STANDARD
 70
     0
  3

  4

  5

  6

  7

 40
1.0
 41
3.5
 42
1.0
 43
0.38
 44
1.5
 45
0.0
 46
0.0
 47
0.01
 48
0.01
140
3.5
141
0.09
142
0.0
143
25.399999999999999
144
1.0
145
0.0
146
1.0
147
0.625
 71
     1
 72
     0
 73
     0
 74
     0
 75
     0
 76
     0
 77
     1
 78
     8
170
     0
171
     1
172
     0
173
     0
174
     0
175
     0
176
     0
177
     0
178
     0
  0
DIMSTYLE
  2
AM_ANSI
 70
     0
  3

  4
mm
  5

  6

  7

 40
1.0
 41
0.12
 42
0.05
 43
0.5
 44
0.1
 45
0.0
 46
0.0
 47
0.1
 48
0.1
140
0.12
141
0.0
142
0.0
143
25.399999999999999
144
1.0
145
0.0
146
0.71
147
0.06
 71
     0
 72
     0
 73
     1
 74
     1
 75
     0
 76
     0
 77
     0
 78
     7
170
     0
171
     2
172
     0
173
     0
174
     0
175
     0
176
   256
177
   256
178
     2
  0
DIMSTYLE
  2
AM_ANSI$3
 70
     0
  3

  4
mm
  5

  6

  7

 40
1.0
 41
0.12
 42
0.05
 43
0.5
 44
0.1
 45
0.0
 46
0.0
 47
0.1
 48
0.1
140
0.12
141
0.0
142
0.0
143
25.399999999999999
144
1.0
145
0.0
146
0.71
147
0.06
 71
     0
 72
     0
 73
     1
 74
     1
 75
     0
 76
     0
 77
     0
 78
     7
170
     0
171
     2
172
     0
173
     0
174
     0
175
     0
176
   256
177
   256
178
     2
  0
DIMSTYLE
  2
AM_ANSI$4
 70
     0
  3

  4
mm
  5

  6

  7

 40
1.0
 41
0.12
 42
0.05
 43
0.5
 44
0.1
 45
0.0
 46
0.0
 47
0.1
 48
0.1
140
0.12
141
0.0
142
0.0
143
25.399999999999999
144
1.0
145
0.0
146
0.71
147
0.06
 71
     0
 72
     0
 73
     1
 74
     1
 75
     0
 76
     0
 77
     0
 78
     7
170
     0
171
     2
172
     0
173
     0
174
     0
175
     0
176
   256
177
   256
178
     2
  0
DIMSTYLE
  2
AM_ANSI$7
 70
     0
  3

  4
mm
  5

  6

  7

 40
1.0
 41
0.12
 42
0.05
 43
0.5
 44
0.1
 45
0.0
 46
0.0
 47
0.1
 48
0.1
140
0.12
141
0.0
142
0.0
143
25.399999999999999
144
1.0
145
0.0
146
0.71
147
0.06
 71
     0
 72
     0
 73
     1
 74
     1
 75
     0
 76
     0
 77
     0
 78
     7
170
     0
171
     2
172
     0
173
     0
174
     0
175
     0
176
   256
177
   256
178
     2
  0
DIMSTYLE
  2
AM_ANSI$SF
 70
     0
  3

  4
mm
  5

  6

  7

 40
1.0
 41
0.12
 42
0.05
 43
0.5
 44
0.1
 45
0.0
 46
0.0
 47
0.1
 48
0.1
140
0.12
141
0.0
142
0.0
143
25.399999999999999
144
1.0
145
0.0
146
0.71
147
0.06
 71
     0
 72
     0
 73
     1
 74
     1
 75
     1
 76
     1
 77
     0
 78
     7
170
     0
171
     2
172
     0
173
     0
174
     0
175
     0
176
   256
177
   256
178
     2
  0
DIMSTYLE
  2
AM_ANSI$SH
 70
     0
  3

  4
mm
  5

  6

  7

 40
1.0
 41
0.12
 42
0.05
 43
0.5
 44
0.1
 45
0.0
 46
0.0
 47
0.1
 48
0.1
140
0.12
141
0.0
142
0.0
143
25.399999999999999
144
1.0
145
0.0
146
0.71
147
0.06
 71
     0
 72
     0
 73
     1
 74
     1
 75
     1
 76
     1
 77
     0
 78
     7
170
     0
171
     2
172
     0
173
     1
174
     0
175
     0
176
   256
177
   256
178
     2
  0
DIMSTYLE
  2
BIGT_TEST
 70
     0
  3

  4

  5
OPEN
  6

  7

 40
1.0
 41
2.2299999999999991
 42
0.5
 43
7.0
 44
1.0
 45
0.0
 46
0.0
 47
0.0
 48
0.01
140
2.7999999999999989
141
0.0
142
0.0
143
25.399999999999999
144
1.0
145
0.0
146
1.0
147
1.0
 71
     0
 72
     0
 73
     0
 74
     0
 75
     0
 76
     0
 77
     3
 78
     9
170
     0
171
     2
172
     1
173
     0
174
     1
175
     0
176
     3
177
     3
178
    40
  0
ENDTAB
  0
ENDSEC
  0
SECTION
  2
BLOCKS
  0
BLOCK
  8
0
  2
$MODEL_SPACE
 70
     0
 10
0.0
 20
0.0
 30
0.0
  3
$MODEL_SPACE
  1

  0
ENDBLK
  5
ABC
  8
0
  0
BLOCK
 67
     1
  8
0
  2
$PAPER_SPACE
 70
     0
 10
0.0
 20
0.0
 30
0.0
  3
$PAPER_SPACE
  1

  0
ENDBLK
  5
AB8
 67
     1
  8
0
  0
BLOCK
  8
0
  2
_FILLED
 70
     0
 10
0.0
 20
0.0
 30
0.0
  3
_FILLED
  1

  0
SOLID
  5
215
  8
0
  6
BYBLOCK
 62
     0
 10
0.0
 20
0.0
 30
0.0
 11
-1.0
 21
0.2142857143
 31
0.0
 12
-1.0
 22
-0.2142857143
 32
0.0
 13
-1.0
 23
-0.2142857143
 33
0.0
  0
ENDBLK
  5
216
  8
0
  6
BYBLOCK
 62
     0
  0
BLOCK
  8
0
  2
_ACMFILLEDHALF
 70
     0
 10
0.0
 20
0.0
 30
0.0
  3
_ACMFILLEDHALF
  1

  0
TRACE
  5
679
  8
0
 62
     0
 10
-0.8
 20
0.0
 30
0.0
 11
-1.0
 21
0.166666666
 31
0.0
 12
0.0
 22
0.0
 32
0.0
 13
0.0
 23
0.0
 33
0.0
  0
LINE
  5
67A
  8
0
 62
     0
 10
-1.0
 20
0.0
 30
0.0
 11
-0.8
 21
0.0
 31
0.0
  0
ENDBLK
  5
678
  8
0
  0
BLOCK
  8
0
  2
_OPEN
 70
     0
 10
0.0
 20
0.0
 30
0.0
  3
_OPEN
  1

  0
LINE
  5
B80
  8
0
  6
BYBLOCK
 62
     0
 10
-1.0
 20
0.1666666666666666
 30
0.0
 11
0.0
 21
0.0
 31
0.0
  0
LINE
  5
B81
  8
0
  6
BYBLOCK
 62
     0
 10
-1.0
 20
-0.1666666666666666
 30
0.0
 11
0.0
 21
0.0
 31
0.0
  0
LINE
  5
B82
  8
0
  6
BYBLOCK
 62
     0
 10
0.0
 20
0.0
 30
0.0
 11
-1.0
 21
0.0
 31
0.0
  0
ENDBLK
  5
B83
  8
0
  0
BLOCK
  8
0
  2
_OPEN30
 70
     0
 10
0.0
 20
0.0
 30
0.0
  3
_OPEN30
  1

  0
LINE
  5
B86
  8
0
  6
BYBLOCK
 62
     0
 10
-1.0
 20
0.26794919
 30
0.0
 11
0.0
 21
0.0
 31
0.0
  0
LINE
  5
B87
  8
0
  6
BYBLOCK
 62
     0
 10
0.0
 20
0.0
 30
0.0
 11
-1.0
 21
-0.26794919
 31
0.0
  0
LINE
  5
B88
  8
0
  6
BYBLOCK
 62
     0
 10
0.0
 20
0.0
 30
0.0
 11
-1.0
 21
0.0
 31
0.0
  0
ENDBLK
  5
B89
  8
0
  0
ENDSEC
  0
SECTION
  2
ENTITIES
  0
LINE
  5
84D
  8
4
  6
CENTER2
 10
0.0
 20
0.0
 30
0.0
 11
100.0
 21
0.0
 31
0.0
  0
LINE
  5
84E
  8
0
 10
3.0
 20
3.0
 30
0.0
 11
-3.0
 21
-3.0
 31
0.0
  0
LINE
  5
84F
  8
0
 10
-3.0
 20
3.0
 30
0.0
 11
3.0
 21
-3.0
 31
0.0
  0
LINE
  5
850
  8
0
 10
102.0
 20
2.0
 30
0.0
 11
97.999999999999986
 21
-2.0
 31
0.0
  0
LINE
  5
851
  8
0
 10
97.999999999999986
 20
2.0
 30
0.0
 11
102.0
 21
-2.0
 31
0.0
  0
CIRCLE
  5
852
  8
0
 10
0.0
 20
0.0
 30
0.0
 40
2.5
  0
CIRCLE
  5
853
  8
0
 10
100.0
 20
0.0
 30
0.0
 40
1.5
  0
LINE
  5
C5D
  8
1
  6
CONTINUOUS
 10
0.0
 20
-44.0
 30
0.0
 11
0.0
 21
44.0
 31
0.0
  0
LINE
  5
C5E
  8
1
  6
CONTINUOUS
 10
0.999999999994884
 20
45.0
 30
0.0
 11
99.0
 21
45.0
 31
0.0
  0
LINE
  5
C5F
  8
1
  6
CONTINUOUS
 10
100.0
 20
44.000000000005109
 30
0.0
 11
100.0
 21
-44.000000000005109
 31
0.0
  0
LINE
  5
C60
  8
3
  6
HIDDEN2
 10
0.0
 20
23.0
 30
0.0
 11
100.0
 21
23.0
 31
0.0
  0
LINE
  5
C6A
  8
1
  6
CONTINUOUS
 10
99.0
 20
45.0
 30
0.0
 11
100.0
 21
44.000000000005109
 31
0.0
1001
GENIUS_GENFIL_13
1070
     1
1040
1.0
1040
0.999999999994884
1040
1.0
1040
44.999999999707242
1000
~T
1001
GENIUS_GENOREF_13
1005
0
  0
LINE
  5
C6B
  8
1
  6
CONTINUOUS
 10
0.0
 20
44.0
 30
0.0
 11
0.999999999994884
 21
45.0
 31
0.0
1001
GENIUS_GENFIL_13
1070
     1
1040
1.0
1040
0.9999999999948983
1040
1.0
1040
44.99999999970764
1000
~T
1001
GENIUS_GENOREF_13
1005
0
  0
LINE
  5
C6E
  8
1
  6
CONTINUOUS
 10
0.999999999994884
 20
-45.0
 30
0.0
 11
99.0
 21
-45.0
 31
0.0
  0
LINE
  5
C6F
  8
1
  6
CONTINUOUS
 10
99.0
 20
-45.0
 30
0.0
 11
100.0
 21
-44.000000000005109
 31
0.0
1001
GENIUS_GENFIL_13
1070
     1
1040
1.0
1040
0.999999999994884
1040
1.0
1040
44.999999999707242
1000
~T
  0
LINE
  5
C70
  8
1
  6
CONTINUOUS
 10
0.0
 20
-44.0
 30
0.0
 11
0.999999999994884
 21
-45.0
 31
0.0
1001
GENIUS_GENFIL_13
1070
     1
1040
1.0
1040
0.9999999999948983
1040
1.0
1040
44.99999999970764
1000
~T
  0
CIRCLE
  5
CC0
  8
1
  6
CONTINUOUS
 10
4.1999999999949287
 20
0.0
 30
0.0
 40
2.4999999999998859
  0
CIRCLE
  5
CC1
  8
1
  6
CONTINUOUS
 10
95.799999999999955
 20
0.0
 30
0.0
 40
2.5000000000001128
  0
LINE
  5
CCA
  8
4
  6
CENTER2
 10
95.799999999999955
 20
-3.1267568641812882
 30
0.0
 11
95.799999999999955
 21
2.9433756729742981
 31
0.0
  0
LINE
  5
CDA
  8
4
  6
CENTER2
 10
4.1999999999949287
 20
-3.1267568641812882
 30
0.0
 11
4.1999999999949287
 21
2.9433756729742981
 31
0.0
  0
LINE
  5
CDD
  8
3
  6
HIDDEN2
 10
0.0
 20
-23.0
 30
0.0
 11
100.0
 21
-23.0
 31
0.0
  0
CIRCLE
  5
F1C
  8
1
  6
CONTINUOUS
 10
81.0
 20
0.0
 30
0.0
 40
10.0
  0
CIRCLE
  5
F1D
  8
1
  6
CONTINUOUS
 10
81.0
 20
0.0
 30
0.0
 40
9.25
  0
LINE
  5
F1E
  8
4
  6
CENTER2
 10
81.0
 20
11.0
 30
0.0
 11
81.0
 21
-10.999999999999989
 31
0.0
  0
POLYLINE
  5
F1F
  8
3
  6
HIDDEN2
 66
     1
 10
0.0
 20
0.0
 30
0.0
 70
     8
  0
VERTEX
  5
F20
  8
3
  6
HIDDEN2
 10
71.912000000000006
 20
36.292704575163498
 30
0.0
 70
    32
  0
VERTEX
  5
F21
  8
3
  6
HIDDEN2
 10
71.761200000000002
 20
36.074200000000083
 30
0.0
 70
    32
  0
VERTEX
  5
F22
  8
3
  6
HIDDEN2
 10
71.58459999999998
 20
35.780200000000093
 30
0.0
 70
    32
  0
VERTEX
  5
F23
  8
3
  6
HIDDEN2
 10
71.430599999999998
 20
35.481000000000087
 30
0.0
 70
    32
  0
VERTEX
  5
F24
  8
3
  6
HIDDEN2
 10
71.299700000000001
 20
35.17720000000007
 30
0.0
 70
    32
  0
VERTEX
  5
F25
  8
3
  6
HIDDEN2
 10
71.192099999999982
 20
34.869700000000101
 30
0.0
 70
    32
  0
VERTEX
  5
F26
  8
3
  6
HIDDEN2
 10
71.108199999999982
 20
34.559200000000082
 30
0.0
 70
    32
  0
VERTEX
  5
F27
  8
3
  6
HIDDEN2
 10
71.04819999999998
 20
34.246400000000087
 30
0.0
 70
    32
  0
VERTEX
  5
F28
  8
3
  6
HIDDEN2
 10
71.012
 20
33.932100000000091
 30
0.0
 70
    32
  0
VERTEX
  5
F29
  8
3
  6
HIDDEN2
 10
71.0
 20
33.617100000000093
 30
0.0
 70
    32
  0
SEQEND
  5
F2A
  8
3
  6
HIDDEN2
  0
POLYLINE
  5
F2B
  8
3
  6
HIDDEN2
 66
     1
 10
0.0
 20
0.0
 30
0.0
 70
     8
  0
VERTEX
  5
F2C
  8
3
  6
HIDDEN2
 10
74.312000000000026
 20
38.38988878127531
 30
0.0
 70
    32
  0
VERTEX
  5
F2D
  8
3
  6
HIDDEN2
 10
74.284400000000005
 20
38.374600000000079
 30
0.0
 70
    32
  0
VERTEX
  5
F2E
  8
3
  6
HIDDEN2
 10
73.928899999999999
 20
38.157300000000077
 30
0.0
 70
    32
  0
VERTEX
  5
F2F
  8
3
  6
HIDDEN2
 10
73.590500000000006
 20
37.929100000000084
 30
0.0
 70
    32
  0
VERTEX
  5
F30
  8
3
  6
HIDDEN2
 10
73.269900000000007
 20
37.690400000000068
 30
0.0
 70
    32
  0
VERTEX
  5
F31
  8
3
  6
HIDDEN2
 10
73.112000000000023
 20
37.560524635761681
 30
0.0
 70
    32
  0
SEQEND
  5
F32
  8
3
  6
HIDDEN2
  0
POLYLINE
  5
F33
  8
3
  6
HIDDEN2
 66
     1
 10
0.0
 20
0.0
 30
0.0
 70
     8
  0
VERTEX
  5
F34
  8
3
  6
HIDDEN2
 10
76.712000000000032
 20
39.417492062043891
 30
0.0
 70
    32
  0
VERTEX
  5
F35
  8
3
  6
HIDDEN2
 10
76.286000000000001
 20
39.279800000000073
 30
0.0
 70
    32
  0
VERTEX
  5
F36
  8
3
  6
HIDDEN2
 10
75.85899999999998
 20
39.12440000000008
 30
0.0
 70
    32
  0
VERTEX
  5
F37
  8
3
  6
HIDDEN2
 10
75.512000000000015
 20
38.983324041475839
 30
0.0
 70
    32
  0
SEQEND
  5
F38
  8
3
  6
HIDDEN2
  0
POLYLINE
  5
F39
  8
3
  6
HIDDEN2
 66
     1
 10
0.0
 20
0.0
 30
0.0
 70
     8
  0
VERTEX
  5
F3A
  8
3
  6
HIDDEN2
 10
79.112000000000023
 20
39.921597559967019
 30
0.0
 70
    32
  0
VERTEX
  5
F3B
  8
3
  6
HIDDEN2
 10
79.049099999999981
 20
39.914600000000071
 30
0.0
 70
    32
  0
VERTEX
  5
F3C
  8
3
  6
HIDDEN2
 10
78.5702
 20
39.845500000000072
 30
0.0
 70
    32
  0
VERTEX
  5
F3D
  8
3
  6
HIDDEN2
 10
78.097200000000001
 20
39.761500000000069
 30
0.0
 70
    32
  0
VERTEX
  5
F3E
  8
3
  6
HIDDEN2
 10
77.912000000000006
 20
39.722203110920503
 30
0.0
 70
    32
  0
SEQEND
  5
F3F
  8
3
  6
HIDDEN2
  0
POLYLINE
  5
F40
  8
3
  6
HIDDEN2
 66
     1
 10
0.0
 20
0.0
 30
0.0
 70
     8
  0
VERTEX
  5
F41
  8
3
  6
HIDDEN2
 10
81.512000000000015
 20
40.029190480081787
 30
0.0
 70
    32
  0
VERTEX
  5
F42
  8
3
  6
HIDDEN2
 10
81.490700000000004
 20
40.030200000000072
 30
0.0
 70
    32
  0
VERTEX
  5
F43
  8
3
  6
HIDDEN2
 10
81.0
 20
40.037900000000072
 30
0.0
 70
    32
  0
VERTEX
  5
F44
  8
3
  6
HIDDEN2
 10
80.509299999999996
 20
40.030200000000072
 30
0.0
 70
    32
  0
VERTEX
  5
F45
  8
3
  6
HIDDEN2
 10
80.312000000000026
 20
40.020848907048048
 30
0.0
 70
    32
  0
SEQEND
  5
F46
  8
3
  6
HIDDEN2
  0
POLYLINE
  5
F47
  8
3
  6
HIDDEN2
 66
     1
 10
0.0
 20
0.0
 30
0.0
 70
     8
  0
VERTEX
  5
F48
  8
3
  6
HIDDEN2
 10
83.912000000000035
 20
39.759547886719659
 30
0.0
 70
    32
  0
VERTEX
  5
F49
  8
3
  6
HIDDEN2
 10
83.902799999999999
 20
39.761500000000069
 30
0.0
 70
    32
  0
VERTEX
  5
F4A
  8
3
  6
HIDDEN2
 10
83.4298
 20
39.845500000000072
 30
0.0
 70
    32
  0
VERTEX
  5
F4B
  8
3
  6
HIDDEN2
 10
82.950900000000004
 20
39.914600000000071
 30
0.0
 70
    32
  0
VERTEX
  5
F4C
  8
3
  6
HIDDEN2
 10
82.712000000000032
 20
39.941177377998429
 30
0.0
 70
    32
  0
SEQEND
  5
F4D
  8
3
  6
HIDDEN2
  0
POLYLINE
  5
F4E
  8
3
  6
HIDDEN2
 66
     1
 10
0.0
 20
0.0
 30
0.0
 70
     8
  0
VERTEX
  5
F4F
  8
3
  6
HIDDEN2
 10
86.312000000000054
 20
39.054878418133661
 30
0.0
 70
    32
  0
VERTEX
  5
F50
  8
3
  6
HIDDEN2
 10
86.141000000000005
 20
39.12440000000008
 30
0.0
 70
    32
  0
VERTEX
  5
F51
  8
3
  6
HIDDEN2
 10
85.714000000000027
 20
39.279800000000073
 30
0.0
 70
    32
  0
VERTEX
  5
F52
  8
3
  6
HIDDEN2
 10
85.275599999999983
 20
39.421500000000073
 30
0.0
 70
    32
  0
VERTEX
  5
F53
  8
3
  6
HIDDEN2
 10
85.112000000000023
 20
39.468050178253179
 30
0.0
 70
    32
  0
SEQEND
  5
F54
  8
3
  6
HIDDEN2
  0
POLYLINE
  5
F55
  8
3
  6
HIDDEN2
 66
     1
 10
0.0
 20
0.0
 30
0.0
 70
     8
  0
VERTEX
  5
F56
  8
3
  6
HIDDEN2
 10
88.712000000000032
 20
37.703876200873388
 30
0.0
 70
    32
  0
VERTEX
  5
F57
  8
3
  6
HIDDEN2
 10
88.409499999999966
 20
37.929100000000084
 30
0.0
 70
    32
  0
VERTEX
  5
F58
  8
3
  6
HIDDEN2
 10
88.071099999999987
 20
38.157300000000077
 30
0.0
 70
    32
  0
VERTEX
  5
F59
  8
3
  6
HIDDEN2
 10
87.715599999999995
 20
38.374600000000079
 30
0.0
 70
    32
  0
VERTEX
  5
F5A
  8
3
  6
HIDDEN2
 10
87.512
 20
38.487382458972341
 30
0.0
 70
    32
  0
SEQEND
  5
F5B
  8
3
  6
HIDDEN2
  0
POLYLINE
  5
F5C
  8
3
  6
HIDDEN2
 66
     1
 10
0.0
 20
0.0
 30
0.0
 70
     8
  0
VERTEX
  5
F5D
  8
3
  6
HIDDEN2
 10
89.912000000000035
 20
30.70866520163132
 30
0.0
 70
    32
  0
VERTEX
  5
F5E
  8
3
  6
HIDDEN2
 10
90.039899999999989
 20
30.8718000000001
 30
0.0
 70
    32
  0
VERTEX
  5
F5F
  8
3
  6
HIDDEN2
 10
90.238799999999998
 20
31.1599000000001
 30
0.0
 70
    32
  0
VERTEX
  5
F60
  8
3
  6
HIDDEN2
 10
90.415400000000005
 20
31.454000000000072
 30
0.0
 70
    32
  0
VERTEX
  5
F61
  8
3
  6
HIDDEN2
 10
90.569399999999987
 20
31.753200000000088
 30
0.0
 70
    32
  0
VERTEX
  5
F62
  8
3
  6
HIDDEN2
 10
90.700299999999984
 20
32.057000000000087
 30
0.0
 70
    32
  0
VERTEX
  5
F63
  8
3
  6
HIDDEN2
 10
90.807900000000004
 20
32.364400000000103
 30
0.0
 70
    32
  0
VERTEX
  5
F64
  8
3
  6
HIDDEN2
 10
90.891800000000003
 20
32.675000000000082
 30
0.0
 70
    32
  0
VERTEX
  5
F65
  8
3
  6
HIDDEN2
 10
90.951800000000006
 20
32.987700000000082
 30
0.0
 70
    32
  0
VERTEX
  5
F66
  8
3
  6
HIDDEN2
 10
90.987999999999985
 20
33.302000000000071
 30
0.0
 70
    32
  0
VERTEX
  5
F67
  8
3
  6
HIDDEN2
 10
91.0
 20
33.617100000000093
 30
0.0
 70
    32
  0
VERTEX
  5
F68
  8
3
  6
HIDDEN2
 10
90.987999999999985
 20
33.932100000000091
 30
0.0
 70
    32
  0
VERTEX
  5
F69
  8
3
  6
HIDDEN2
 10
90.951800000000006
 20
34.246400000000087
 30
0.0
 70
    32
  0
VERTEX
  5
F6A
  8
3
  6
HIDDEN2
 10
90.891800000000003
 20
34.559200000000082
 30
0.0
 70
    32
  0
VERTEX
  5
F6B
  8
3
  6
HIDDEN2
 10
90.807900000000004
 20
34.869700000000101
 30
0.0
 70
    32
  0
VERTEX
  5
F6C
  8
3
  6
HIDDEN2
 10
90.700299999999984
 20
35.17720000000007
 30
0.0
 70
    32
  0
VERTEX
  5
F6D
  8
3
  6
HIDDEN2
 10
90.569399999999987
 20
35.481000000000087
 30
0.0
 70
    32
  0
VERTEX
  5
F6E
  8
3
  6
HIDDEN2
 10
90.415400000000005
 20
35.780200000000093
 30
0.0
 70
    32
  0
VERTEX
  5
F6F
  8
3
  6
HIDDEN2
 10
90.238799999999998
 20
36.074200000000083
 30
0.0
 70
    32
  0
VERTEX
  5
F70
  8
3
  6
HIDDEN2
 10
90.039899999999989
 20
36.362400000000072
 30
0.0
 70
    32
  0
VERTEX
  5
F71
  8
3
  6
HIDDEN2
 10
89.912000000000035
 20
36.525534798368852
 30
0.0
 70
    32
  0
SEQEND
  5
F72
  8
3
  6
HIDDEN2
  0
POLYLINE
  5
F73
  8
3
  6
HIDDEN2
 66
     1
 10
0.0
 20
0.0
 30
0.0
 70
     8
  0
VERTEX
  5
F74
  8
3
  6
HIDDEN2
 10
87.512
 20
28.746817541027809
 30
0.0
 70
    32
  0
VERTEX
  5
F75
  8
3
  6
HIDDEN2
 10
87.715599999999995
 20
28.859600000000089
 30
0.0
 70
    32
  0
VERTEX
  5
F76
  8
3
  6
HIDDEN2
 10
88.071099999999987
 20
29.076900000000069
 30
0.0
 70
    32
  0
VERTEX
  5
F77
  8
3
  6
HIDDEN2
 10
88.409499999999966
 20
29.305100000000071
 30
0.0
 70
    32
  0
VERTEX
  5
F78
  8
3
  6
HIDDEN2
 10
88.712000000000032
 20
29.530229444791139
 30
0.0
 70
    32
  0
SEQEND
  5
F79
  8
3
  6
HIDDEN2
  0
POLYLINE
  5
F7A
  8
3
  6
HIDDEN2
 66
     1
 10
0.0
 20
0.0
 30
0.0
 70
     8
  0
VERTEX
  5
F7B
  8
3
  6
HIDDEN2
 10
85.112000000000023
 20
27.766149821746971
 30
0.0
 70
    32
  0
VERTEX
  5
F7C
  8
3
  6
HIDDEN2
 10
85.275599999999983
 20
27.812700000000099
 30
0.0
 70
    32
  0
VERTEX
  5
F7D
  8
3
  6
HIDDEN2
 10
85.714000000000027
 20
27.954400000000089
 30
0.0
 70
    32
  0
VERTEX
  5
F7E
  8
3
  6
HIDDEN2
 10
86.141000000000005
 20
28.109700000000071
 30
0.0
 70
    32
  0
VERTEX
  5
F7F
  8
3
  6
HIDDEN2
 10
86.312000000000054
 20
28.179262816493939
 30
0.0
 70
    32
  0
SEQEND
  5
F80
  8
3
  6
HIDDEN2
  0
POLYLINE
  5
F81
  8
3
  6
HIDDEN2
 66
     1
 10
0.0
 20
0.0
 30
0.0
 70
     8
  0
VERTEX
  5
F82
  8
3
  6
HIDDEN2
 10
82.712000000000032
 20
27.292973221670891
 30
0.0
 70
    32
  0
VERTEX
  5
F83
  8
3
  6
HIDDEN2
 10
82.950900000000004
 20
27.319600000000069
 30
0.0
 70
    32
  0
VERTEX
  5
F84
  8
3
  6
HIDDEN2
 10
83.4298
 20
27.388700000000082
 30
0.0
 70
    32
  0
VERTEX
  5
F85
  8
3
  6
HIDDEN2
 10
83.902799999999999
 20
27.472700000000071
 30
0.0
 70
    32
  0
VERTEX
  5
F86
  8
3
  6
HIDDEN2
 10
83.912000000000035
 20
27.474652113280499
 30
0.0
 70
    32
  0
SEQEND
  5
F87
  8
3
  6
HIDDEN2
  0
POLYLINE
  5
F88
  8
3
  6
HIDDEN2
 66
     1
 10
0.0
 20
0.0
 30
0.0
 70
     8
  0
VERTEX
  5
F89
  8
3
  6
HIDDEN2
 10
80.312000000000026
 20
27.213351092952081
 30
0.0
 70
    32
  0
VERTEX
  5
F8A
  8
3
  6
HIDDEN2
 10
80.509299999999996
 20
27.204000000000089
 30
0.0
 70
    32
  0
VERTEX
  5
F8B
  8
3
  6
HIDDEN2
 10
81.0
 20
27.196200000000069
 30
0.0
 70
    32
  0
VERTEX
  5
F8C
  8
3
  6
HIDDEN2
 10
81.490700000000004
 20
27.204000000000089
 30
0.0
 70
    32
  0
VERTEX
  5
F8D
  8
3
  6
HIDDEN2
 10
81.512000000000015
 20
27.205009519918359
 30
0.0
 70
    32
  0
SEQEND
  5
F8E
  8
3
  6
HIDDEN2
  0
POLYLINE
  5
F8F
  8
3
  6
HIDDEN2
 66
     1
 10
0.0
 20
0.0
 30
0.0
 70
     8
  0
VERTEX
  5
F90
  8
3
  6
HIDDEN2
 10
77.912000000000006
 20
27.511996889079668
 30
0.0
 70
    32
  0
VERTEX
  5
F91
  8
3
  6
HIDDEN2
 10
78.097200000000001
 20
27.472700000000071
 30
0.0
 70
    32
  0
VERTEX
  5
F92
  8
3
  6
HIDDEN2
 10
78.5702
 20
27.388700000000082
 30
0.0
 70
    32
  0
VERTEX
  5
F93
  8
3
  6
HIDDEN2
 10
79.049099999999981
 20
27.319600000000069
 30
0.0
 70
    32
  0
VERTEX
  5
F94
  8
3
  6
HIDDEN2
 10
79.112000000000023
 20
27.312589433416129
 30
0.0
 70
    32
  0
SEQEND
  5
F95
  8
3
  6
HIDDEN2
  0
POLYLINE
  5
F96
  8
3
  6
HIDDEN2
 66
     1
 10
0.0
 20
0.0
 30
0.0
 70
     8
  0
VERTEX
  5
F97
  8
3
  6
HIDDEN2
 10
75.512000000000015
 20
28.250859633470061
 30
0.0
 70
    32
  0
VERTEX
  5
F98
  8
3
  6
HIDDEN2
 10
75.85899999999998
 20
28.109700000000071
 30
0.0
 70
    32
  0
VERTEX
  5
F99
  8
3
  6
HIDDEN2
 10
76.286000000000001
 20
27.954400000000089
 30
0.0
 70
    32
  0
VERTEX
  5
F9A
  8
3
  6
HIDDEN2
 10
76.712000000000032
 20
27.81670793795627
 30
0.0
 70
    32
  0
SEQEND
  5
F9B
  8
3
  6
HIDDEN2
  0
POLYLINE
  5
F9C
  8
3
  6
HIDDEN2
 66
     1
 10
0.0
 20
0.0
 30
0.0
 70
     8
  0
VERTEX
  5
F9D
  8
3
  6
HIDDEN2
 10
73.112000000000023
 20
29.67362764900669
 30
0.0
 70
    32
  0
VERTEX
  5
F9E
  8
3
  6
HIDDEN2
 10
73.269900000000007
 20
29.543700000000069
 30
0.0
 70
    32
  0
VERTEX
  5
F9F
  8
3
  6
HIDDEN2
 10
73.590500000000006
 20
29.305100000000071
 30
0.0
 70
    32
  0
VERTEX
  5
FA0
  8
3
  6
HIDDEN2
 10
73.928899999999999
 20
29.076900000000069
 30
0.0
 70
    32
  0
VERTEX
  5
FA1
  8
3
  6
HIDDEN2
 10
74.284400000000005
 20
28.859600000000089
 30
0.0
 70
    32
  0
VERTEX
  5
FA2
  8
3
  6
HIDDEN2
 10
74.312000000000026
 20
28.844311218724851
 30
0.0
 70
    32
  0
SEQEND
  5
FA3
  8
3
  6
HIDDEN2
  0
POLYLINE
  5
FA4
  8
3
  6
HIDDEN2
 66
     1
 10
0.0
 20
0.0
 30
0.0
 70
     8
  0
VERTEX
  5
FA5
  8
3
  6
HIDDEN2
 10
71.0
 20
33.617100000000093
 30
0.0
 70
    32
  0
VERTEX
  5
FA6
  8
3
  6
HIDDEN2
 10
71.012
 20
33.302000000000071
 30
0.0
 70
    32
  0
VERTEX
  5
FA7
  8
3
  6
HIDDEN2
 10
71.04819999999998
 20
32.987700000000082
 30
0.0
 70
    32
  0
VERTEX
  5
FA8
  8
3
  6
HIDDEN2
 10
71.108199999999982
 20
32.675000000000082
 30
0.0
 70
    32
  0
VERTEX
  5
FA9
  8
3
  6
HIDDEN2
 10
71.192099999999982
 20
32.364400000000103
 30
0.0
 70
    32
  0
VERTEX
  5
FAA
  8
3
  6
HIDDEN2
 10
71.299700000000001
 20
32.057000000000087
 30
0.0
 70
    32
  0
VERTEX
  5
FAB
  8
3
  6
HIDDEN2
 10
71.430599999999998
 20
31.753200000000088
 30
0.0
 70
    32
  0
VERTEX
  5
FAC
  8
3
  6
HIDDEN2
 10
71.58459999999998
 20
31.454000000000072
 30
0.0
 70
    32
  0
VERTEX
  5
FAD
  8
3
  6
HIDDEN2
 10
71.761200000000002
 20
31.1599000000001
 30
0.0
 70
    32
  0
VERTEX
  5
FAE
  8
3
  6
HIDDEN2
 10
71.912000000000006
 20
30.94147124183014
 30
0.0
 70
    32
  0
SEQEND
  5
FAF
  8
3
  6
HIDDEN2
  0
POLYLINE
  5
FB0
  8
3
  6
HIDDEN2
 66
     1
 10
0.0
 20
0.0
 30
0.0
 70
     8
  0
VERTEX
  5
FB1
  8
3
  6
HIDDEN2
 10
71.912000000000006
 20
34.902985429141822
 30
0.0
 70
    32
  0
VERTEX
  5
FB2
  8
3
  6
HIDDEN2
 10
71.906700000000001
 20
34.887900000000087
 30
0.0
 70
    32
  0
VERTEX
  5
FB3
  8
3
  6
HIDDEN2
 10
71.828500000000005
 20
34.599900000000083
 30
0.0
 70
    32
  0
VERTEX
  5
FB4
  8
3
  6
HIDDEN2
 10
71.77249999999998
 20
34.309800000000102
 30
0.0
 70
    32
  0
VERTEX
  5
FB5
  8
3
  6
HIDDEN2
 10
71.738900000000001
 20
34.018200000000093
 30
0.0
 70
    32
  0
VERTEX
  5
FB6
  8
3
  6
HIDDEN2
 10
71.727699999999984
 20
33.72600000000007
 30
0.0
 70
    32
  0
SEQEND
  5
FB7
  8
3
  6
HIDDEN2
  0
POLYLINE
  5
FB8
  8
3
  6
HIDDEN2
 66
     1
 10
0.0
 20
0.0
 30
0.0
 70
     8
  0
VERTEX
  5
FB9
  8
3
  6
HIDDEN2
 10
74.312000000000026
 20
37.840279226133923
 30
0.0
 70
    32
  0
VERTEX
  5
FBA
  8
3
  6
HIDDEN2
 10
74.141199999999998
 20
37.725600000000071
 30
0.0
 70
    32
  0
VERTEX
  5
FBB
  8
3
  6
HIDDEN2
 10
73.842500000000001
 20
37.504300000000072
 30
0.0
 70
    32
  0
VERTEX
  5
FBC
  8
3
  6
HIDDEN2
 10
73.561199999999999
 20
37.27380000000008
 30
0.0
 70
    32
  0
VERTEX
  5
FBD
  8
3
  6
HIDDEN2
 10
73.297899999999984
 20
37.034800000000082
 30
0.0
 70
    32
  0
VERTEX
  5
FBE
  8
3
  6
HIDDEN2
 10
73.112000000000023
 20
36.847228647323341
 30
0.0
 70
    32
  0
SEQEND
  5
FBF
  8
3
  6
HIDDEN2
  0
POLYLINE
  5
FC0
  8
3
  6
HIDDEN2
 66
     1
 10
0.0
 20
0.0
 30
0.0
 70
     8
  0
VERTEX
  5
FC1
  8
3
  6
HIDDEN2
 10
76.712000000000032
 20
38.997606878825039
 30
0.0
 70
    32
  0
VERTEX
  5
FC2
  8
3
  6
HIDDEN2
 10
76.652600000000007
 20
38.978500000000082
 30
0.0
 70
    32
  0
VERTEX
  5
FC3
  8
3
  6
HIDDEN2
 10
76.254699999999985
 20
38.83440000000008
 30
0.0
 70
    32
  0
VERTEX
  5
FC4
  8
3
  6
HIDDEN2
 10
75.86839999999998
 20
38.678000000000083
 30
0.0
 70
    32
  0
VERTEX
  5
FC5
  8
3
  6
HIDDEN2
 10
75.512000000000015
 20
38.517577106178209
 30
0.0
 70
    32
  0
SEQEND
  5
FC6
  8
3
  6
HIDDEN2
  0
POLYLINE
  5
FC7
  8
3
  6
HIDDEN2
 66
     1
 10
0.0
 20
0.0
 30
0.0
 70
     8
  0
VERTEX
  5
FC8
  8
3
  6
HIDDEN2
 10
79.112000000000023
 20
39.550793747198639
 30
0.0
 70
    32
  0
VERTEX
  5
FC9
  8
3
  6
HIDDEN2
 10
78.780699999999982
 20
39.503200000000071
 30
0.0
 70
    32
  0
VERTEX
  5
FCA
  8
3
  6
HIDDEN2
 10
78.340000000000003
 20
39.425300000000071
 30
0.0
 70
    32
  0
VERTEX
  5
FCB
  8
3
  6
HIDDEN2
 10
77.912000000000006
 20
39.33490939659152
 30
0.0
 70
    32
  0
SEQEND
  5
FCC
  8
3
  6
HIDDEN2
  0
POLYLINE
  5
FCD
  8
3
  6
HIDDEN2
 66
     1
 10
0.0
 20
0.0
 30
0.0
 70
     8
  0
VERTEX
  5
FCE
  8
3
  6
HIDDEN2
 10
81.512000000000015
 20
39.67401436403518
 30
0.0
 70
    32
  0
VERTEX
  5
FCF
  8
3
  6
HIDDEN2
 10
81.501699999999985
 20
39.67450000000008
 30
0.0
 70
    32
  0
VERTEX
  5
FD0
  8
3
  6
HIDDEN2
 10
81.044499999999985
 20
39.681700000000063
 30
0.0
 70
    32
  0
VERTEX
  5
FD1
  8
3
  6
HIDDEN2
 10
80.587400000000002
 20
39.67450000000008
 30
0.0
 70
    32
  0
VERTEX
  5
FD2
  8
3
  6
HIDDEN2
 10
80.312000000000026
 20
39.661517978513572
 30
0.0
 70
    32
  0
SEQEND
  5
FD3
  8
3
  6
HIDDEN2
  0
POLYLINE
  5
FD4
  8
3
  6
HIDDEN2
 66
     1
 10
0.0
 20
0.0
 30
0.0
 70
     8
  0
VERTEX
  5
FD5
  8
3
  6
HIDDEN2
 10
83.912000000000035
 20
39.390896660525172
 30
0.0
 70
    32
  0
VERTEX
  5
FD6
  8
3
  6
HIDDEN2
 10
83.749099999999984
 20
39.425300000000071
 30
0.0
 70
    32
  0
VERTEX
  5
FD7
  8
3
  6
HIDDEN2
 10
83.308300000000003
 20
39.503200000000071
 30
0.0
 70
    32
  0
VERTEX
  5
FD8
  8
3
  6
HIDDEN2
 10
82.862099999999998
 20
39.567300000000081
 30
0.0
 70
    32
  0
VERTEX
  5
FD9
  8
3
  6
HIDDEN2
 10
82.712000000000032
 20
39.583925948945691
 30
0.0
 70
    32
  0
SEQEND
  5
FDA
  8
3
  6
HIDDEN2
  0
POLYLINE
  5
FDB
  8
3
  6
HIDDEN2
 66
     1
 10
0.0
 20
0.0
 30
0.0
 70
     8
  0
VERTEX
  5
FDC
  8
3
  6
HIDDEN2
 10
86.312000000000054
 20
38.636893017656547
 30
0.0
 70
    32
  0
VERTEX
  5
FDD
  8
3
  6
HIDDEN2
 10
86.220699999999994
 20
38.678000000000083
 30
0.0
 70
    32
  0
VERTEX
  5
FDE
  8
3
  6
HIDDEN2
 10
85.834299999999985
 20
38.83440000000008
 30
0.0
 70
    32
  0
VERTEX
  5
FDF
  8
3
  6
HIDDEN2
 10
85.436400000000006
 20
38.978500000000082
 30
0.0
 70
    32
  0
VERTEX
  5
FE0
  8
3
  6
HIDDEN2
 10
85.112000000000023
 20
39.082873555337962
 30
0.0
 70
    32
  0
SEQEND
  5
FE1
  8
3
  6
HIDDEN2
  0
POLYLINE
  5
FE2
  8
3
  6
HIDDEN2
 66
     1
 10
0.0
 20
0.0
 30
0.0
 70
     8
  0
VERTEX
  5
FE3
  8
3
  6
HIDDEN2
 10
88.712000000000032
 20
37.106690619065752
 30
0.0
 70
    32
  0
VERTEX
  5
FE4
  8
3
  6
HIDDEN2
 10
88.527900000000002
 20
37.27380000000008
 30
0.0
 70
    32
  0
VERTEX
  5
FE5
  8
3
  6
HIDDEN2
 10
88.246499999999983
 20
37.504300000000072
 30
0.0
 70
    32
  0
VERTEX
  5
FE6
  8
3
  6
HIDDEN2
 10
87.947800000000015
 20
37.725600000000071
 30
0.0
 70
    32
  0
VERTEX
  5
FE7
  8
3
  6
HIDDEN2
 10
87.632499999999965
 20
37.937300000000072
 30
0.0
 70
    32
  0
VERTEX
  5
FE8
  8
3
  6
HIDDEN2
 10
87.512
 20
38.010647826087002
 30
0.0
 70
    32
  0
SEQEND
  5
FE9
  8
3
  6
HIDDEN2
  0
POLYLINE
  5
FEA
  8
3
  6
HIDDEN2
 66
     1
 10
0.0
 20
0.0
 30
0.0
 70
     8
  0
VERTEX
  5
FEB
  8
3
  6
HIDDEN2
 10
89.912000000000035
 20
31.903957351916549
 30
0.0
 70
    32
  0
VERTEX
  5
FEC
  8
3
  6
HIDDEN2
 10
89.960199999999986
 20
31.997200000000099
 30
0.0
 70
    32
  0
VERTEX
  5
FED
  8
3
  6
HIDDEN2
 10
90.082099999999983
 20
32.278900000000093
 30
0.0
 70
    32
  0
VERTEX
  5
FEE
  8
3
  6
HIDDEN2
 10
90.182299999999984
 20
32.564100000000082
 30
0.0
 70
    32
  0
VERTEX
  5
FEF
  8
3
  6
HIDDEN2
 10
90.260499999999965
 20
32.852100000000092
 30
0.0
 70
    32
  0
VERTEX
  5
FF0
  8
3
  6
HIDDEN2
 10
90.316500000000005
 20
33.142300000000091
 30
0.0
 70
    32
  0
VERTEX
  5
FF1
  8
3
  6
HIDDEN2
 10
90.350099999999969
 20
33.433800000000083
 30
0.0
 70
    32
  0
VERTEX
  5
FF2
  8
3
  6
HIDDEN2
 10
90.361400000000003
 20
33.72600000000007
 30
0.0
 70
    32
  0
VERTEX
  5
FF3
  8
3
  6
HIDDEN2
 10
90.350099999999969
 20
34.018200000000093
 30
0.0
 70
    32
  0
VERTEX
  5
FF4
  8
3
  6
HIDDEN2
 10
90.316500000000005
 20
34.309800000000102
 30
0.0
 70
    32
  0
VERTEX
  5
FF5
  8
3
  6
HIDDEN2
 10
90.260499999999965
 20
34.599900000000083
 30
0.0
 70
    32
  0
VERTEX
  5
FF6
  8
3
  6
HIDDEN2
 10
90.182299999999984
 20
34.887900000000087
 30
0.0
 70
    32
  0
VERTEX
  5
FF7
  8
3
  6
HIDDEN2
 10
90.082099999999983
 20
35.173100000000083
 30
0.0
 70
    32
  0
VERTEX
  5
FF8
  8
3
  6
HIDDEN2
 10
89.960199999999986
 20
35.45490000000008
 30
0.0
 70
    32
  0
VERTEX
  5
FF9
  8
3
  6
HIDDEN2
 10
89.912000000000035
 20
35.548109059233433
 30
0.0
 70
    32
  0
SEQEND
  5
FFA
  8
3
  6
HIDDEN2
  0
POLYLINE
  5
FFB
  8
3
  6
HIDDEN2
 66
     1
 10
0.0
 20
0.0
 30
0.0
 70
     8
  0
VERTEX
  5
FFC
  8
3
  6
HIDDEN2
 10
87.512
 20
29.441352173913149
 30
0.0
 70
    32
  0
VERTEX
  5
FFD
  8
3
  6
HIDDEN2
 10
87.632499999999965
 20
29.514700000000069
 30
0.0
 70
    32
  0
VERTEX
  5
FFE
  8
3
  6
HIDDEN2
 10
87.947800000000015
 20
29.726400000000101
 30
0.0
 70
    32
  0
VERTEX
  5
FFF
  8
3
  6
HIDDEN2
 10
88.246499999999983
 20
29.947800000000068
 30
0.0
 70
    32
  0
VERTEX
  5
1000
  8
3
  6
HIDDEN2
 10
88.527900000000002
 20
30.178200000000071
 30
0.0
 70
    32
  0
VERTEX
  5
1001
  8
3
  6
HIDDEN2
 10
88.712000000000032
 20
30.34530938093441
 30
0.0
 70
    32
  0
SEQEND
  5
1002
  8
3
  6
HIDDEN2
  0
POLYLINE
  5
1003
  8
3
  6
HIDDEN2
 66
     1
 10
0.0
 20
0.0
 30
0.0
 70
     8
  0
VERTEX
  5
1004
  8
3
  6
HIDDEN2
 10
85.112000000000023
 20
28.369147012732711
 30
0.0
 70
    32
  0
VERTEX
  5
1005
  8
3
  6
HIDDEN2
 10
85.436400000000006
 20
28.473600000000101
 30
0.0
 70
    32
  0
VERTEX
  5
1006
  8
3
  6
HIDDEN2
 10
85.834299999999985
 20
28.617600000000071
 30
0.0
 70
    32
  0
VERTEX
  5
1007
  8
3
  6
HIDDEN2
 10
86.220699999999994
 20
28.7740000000001
 30
0.0
 70
    32
  0
VERTEX
  5
1008
  8
3
  6
HIDDEN2
 10
86.312000000000054
 20
28.815131407169709
 30
0.0
 70
    32
  0
SEQEND
  5
1009
  8
3
  6
HIDDEN2
  0
POLYLINE
  5
100A
  8
3
  6
HIDDEN2
 66
     1
 10
0.0
 20
0.0
 30
0.0
 70
     8
  0
VERTEX
  5
100B
  8
3
  6
HIDDEN2
 10
82.712000000000032
 20
27.86814073251951
 30
0.0
 70
    32
  0
VERTEX
  5
100C
  8
3
  6
HIDDEN2
 10
82.862099999999998
 20
27.88480000000008
 30
0.0
 70
    32
  0
VERTEX
  5
100D
  8
3
  6
HIDDEN2
 10
83.308300000000003
 20
27.94880000000007
 30
0.0
 70
    32
  0
VERTEX
  5
100E
  8
3
  6
HIDDEN2
 10
83.749099999999984
 20
28.026800000000069
 30
0.0
 70
    32
  0
VERTEX
  5
100F
  8
3
  6
HIDDEN2
 10
83.912000000000035
 20
28.061203339474979
 30
0.0
 70
    32
  0
SEQEND
  5
1010
  8
3
  6
HIDDEN2
  0
POLYLINE
  5
1011
  8
3
  6
HIDDEN2
 66
     1
 10
0.0
 20
0.0
 30
0.0
 70
     8
  0
VERTEX
  5
1012
  8
3
  6
HIDDEN2
 10
80.312000000000026
 20
27.790482021486589
 30
0.0
 70
    32
  0
VERTEX
  5
1013
  8
3
  6
HIDDEN2
 10
80.587400000000002
 20
27.777500000000089
 30
0.0
 70
    32
  0
VERTEX
  5
1014
  8
3
  6
HIDDEN2
 10
81.044499999999985
 20
27.770300000000081
 30
0.0
 70
    32
  0
VERTEX
  5
1015
  8
3
  6
HIDDEN2
 10
81.501699999999985
 20
27.777500000000089
 30
0.0
 70
    32
  0
VERTEX
  5
1016
  8
3
  6
HIDDEN2
 10
81.512000000000015
 20
27.777985635964988
 30
0.0
 70
    32
  0
SEQEND
  5
1017
  8
3
  6
HIDDEN2
  0
POLYLINE
  5
1018
  8
3
  6
HIDDEN2
 66
     1
 10
0.0
 20
0.0
 30
0.0
 70
     8
  0
VERTEX
  5
1019
  8
3
  6
HIDDEN2
 10
77.912000000000006
 20
28.117190603408641
 30
0.0
 70
    32
  0
VERTEX
  5
101A
  8
3
  6
HIDDEN2
 10
78.340000000000003
 20
28.026800000000069
 30
0.0
 70
    32
  0
VERTEX
  5
101B
  8
3
  6
HIDDEN2
 10
78.780699999999982
 20
27.94880000000007
 30
0.0
 70
    32
  0
VERTEX
  5
101C
  8
3
  6
HIDDEN2
 10
79.112000000000023
 20
27.901280502017109
 30
0.0
 70
    32
  0
SEQEND
  5
101D
  8
3
  6
HIDDEN2
  0
POLYLINE
  5
101E
  8
3
  6
HIDDEN2
 66
     1
 10
0.0
 20
0.0
 30
0.0
 70
     8
  0
VERTEX
  5
101F
  8
3
  6
HIDDEN2
 10
75.512000000000015
 20
28.93451821342612
 30
0.0
 70
    32
  0
VERTEX
  5
1020
  8
3
  6
HIDDEN2
 10
75.86839999999998
 20
28.7740000000001
 30
0.0
 70
    32
  0
VERTEX
  5
1021
  8
3
  6
HIDDEN2
 10
76.254699999999985
 20
28.617600000000071
 30
0.0
 70
    32
  0
VERTEX
  5
1022
  8
3
  6
HIDDEN2
 10
76.652600000000007
 20
28.473600000000101
 30
0.0
 70
    32
  0
VERTEX
  5
1023
  8
3
  6
HIDDEN2
 10
76.712000000000032
 20
28.454478580171429
 30
0.0
 70
    32
  0
SEQEND
  5
1024
  8
3
  6
HIDDEN2
  0
POLYLINE
  5
1025
  8
3
  6
HIDDEN2
 66
     1
 10
0.0
 20
0.0
 30
0.0
 70
     8
  0
VERTEX
  5
1026
  8
3
  6
HIDDEN2
 10
73.112000000000023
 20
30.60484732325304
 30
0.0
 70
    32
  0
VERTEX
  5
1027
  8
3
  6
HIDDEN2
 10
73.297899999999984
 20
30.417200000000069
 30
0.0
 70
    32
  0
VERTEX
  5
1028
  8
3
  6
HIDDEN2
 10
73.561199999999999
 20
30.178200000000071
 30
0.0
 70
    32
  0
VERTEX
  5
1029
  8
3
  6
HIDDEN2
 10
73.842500000000001
 20
29.947800000000068
 30
0.0
 70
    32
  0
VERTEX
  5
102A
  8
3
  6
HIDDEN2
 10
74.141199999999998
 20
29.726400000000101
 30
0.0
 70
    32
  0
VERTEX
  5
102B
  8
3
  6
HIDDEN2
 10
74.312000000000026
 20
29.611720773866232
 30
0.0
 70
    32
  0
SEQEND
  5
102C
  8
3
  6
HIDDEN2
  0
POLYLINE
  5
102D
  8
3
  6
HIDDEN2
 66
     1
 10
0.0
 20
0.0
 30
0.0
 70
     8
  0
VERTEX
  5
102E
  8
3
  6
HIDDEN2
 10
71.727699999999984
 20
33.72600000000007
 30
0.0
 70
    32
  0
VERTEX
  5
102F
  8
3
  6
HIDDEN2
 10
71.738900000000001
 20
33.433800000000083
 30
0.0
 70
    32
  0
VERTEX
  5
1030
  8
3
  6
HIDDEN2
 10
71.77249999999998
 20
33.142300000000091
 30
0.0
 70
    32
  0
VERTEX
  5
1031
  8
3
  6
HIDDEN2
 10
71.828500000000005
 20
32.852100000000092
 30
0.0
 70
    32
  0
VERTEX
  5
1032
  8
3
  6
HIDDEN2
 10
71.906700000000001
 20
32.564100000000082
 30
0.0
 70
    32
  0
VERTEX
  5
1033
  8
3
  6
HIDDEN2
 10
71.912000000000006
 20
32.549014570858361
 30
0.0
 70
    32
  0
SEQEND
  5
1034
  8
3
  6
HIDDEN2
  0
LINE
  5
1035
  8
4
  6
CENTER2
 10
69.828855860457026
 20
34.471999940321602
 30
0.0
 11
92.237475832614535
 21
34.471999940321602
 31
0.0
  0
LINE
  5
1036
  8
4
  6
CENTER2
 10
81.0
 20
26.58187767267756
 30
0.0
 11
81.0
 21
41.363930717114791
 31
0.0
  0
POLYLINE
  5
1037
  8
3
  6
HIDDEN2
 66
     1
 10
0.0
 20
0.0
 30
0.0
 70
     8
  0
VERTEX
  5
1038
  8
3
  6
HIDDEN2
 10
71.912000000000006
 20
-36.292704575163341
 30
0.0
 70
    32
  0
VERTEX
  5
1039
  8
3
  6
HIDDEN2
 10
71.761200000000002
 20
-36.074199999999927
 30
0.0
 70
    32
  0
VERTEX
  5
103A
  8
3
  6
HIDDEN2
 10
71.58459999999998
 20
-35.780199999999923
 30
0.0
 70
    32
  0
VERTEX
  5
103B
  8
3
  6
HIDDEN2
 10
71.430599999999998
 20
-35.480999999999931
 30
0.0
 70
    32
  0
VERTEX
  5
103C
  8
3
  6
HIDDEN2
 10
71.299700000000001
 20
-35.177199999999928
 30
0.0
 70
    32
  0
VERTEX
  5
103D
  8
3
  6
HIDDEN2
 10
71.192099999999982
 20
-34.869699999999924
 30
0.0
 70
    32
  0
VERTEX
  5
103E
  8
3
  6
HIDDEN2
 10
71.108199999999982
 20
-34.559199999999919
 30
0.0
 70
    32
  0
VERTEX
  5
103F
  8
3
  6
HIDDEN2
 10
71.04819999999998
 20
-34.24639999999993
 30
0.0
 70
    32
  0
VERTEX
  5
1040
  8
3
  6
HIDDEN2
 10
71.012
 20
-33.932099999999942
 30
0.0
 70
    32
  0
VERTEX
  5
1041
  8
3
  6
HIDDEN2
 10
71.0
 20
-33.61709999999993
 30
0.0
 70
    32
  0
SEQEND
  5
1042
  8
3
  6
HIDDEN2
  0
POLYLINE
  5
1043
  8
3
  6
HIDDEN2
 66
     1
 10
0.0
 20
0.0
 30
0.0
 70
     8
  0
VERTEX
  5
1044
  8
3
  6
HIDDEN2
 10
74.312000000000026
 20
-38.389888781275161
 30
0.0
 70
    32
  0
VERTEX
  5
1045
  8
3
  6
HIDDEN2
 10
74.284400000000005
 20
-38.374599999999937
 30
0.0
 70
    32
  0
VERTEX
  5
1046
  8
3
  6
HIDDEN2
 10
73.928899999999999
 20
-38.157299999999928
 30
0.0
 70
    32
  0
VERTEX
  5
1047
  8
3
  6
HIDDEN2
 10
73.590500000000006
 20
-37.929099999999927
 30
0.0
 70
    32
  0
VERTEX
  5
1048
  8
3
  6
HIDDEN2
 10
73.269900000000007
 20
-37.690399999999933
 30
0.0
 70
    32
  0
VERTEX
  5
1049
  8
3
  6
HIDDEN2
 10
73.112000000000023
 20
-37.560524635761539
 30
0.0
 70
    32
  0
SEQEND
  5
104A
  8
3
  6
HIDDEN2
  0
POLYLINE
  5
104B
  8
3
  6
HIDDEN2
 66
     1
 10
0.0
 20
0.0
 30
0.0
 70
     8
  0
VERTEX
  5
104C
  8
3
  6
HIDDEN2
 10
76.712000000000032
 20
-39.417492062043728
 30
0.0
 70
    32
  0
VERTEX
  5
104D
  8
3
  6
HIDDEN2
 10
76.286000000000001
 20
-39.279799999999931
 30
0.0
 70
    32
  0
VERTEX
  5
104E
  8
3
  6
HIDDEN2
 10
75.85899999999998
 20
-39.12439999999993
 30
0.0
 70
    32
  0
VERTEX
  5
104F
  8
3
  6
HIDDEN2
 10
75.512000000000015
 20
-38.983324041475697
 30
0.0
 70
    32
  0
SEQEND
  5
1050
  8
3
  6
HIDDEN2
  0
POLYLINE
  5
1051
  8
3
  6
HIDDEN2
 66
     1
 10
0.0
 20
0.0
 30
0.0
 70
     8
  0
VERTEX
  5
1052
  8
3
  6
HIDDEN2
 10
79.112000000000023
 20
-39.921597559966841
 30
0.0
 70
    32
  0
VERTEX
  5
1053
  8
3
  6
HIDDEN2
 10
79.049099999999981
 20
-39.914599999999943
 30
0.0
 70
    32
  0
VERTEX
  5
1054
  8
3
  6
HIDDEN2
 10
78.5702
 20
-39.84549999999993
 30
0.0
 70
    32
  0
VERTEX
  5
1055
  8
3
  6
HIDDEN2
 10
78.097200000000001
 20
-39.761499999999927
 30
0.0
 70
    32
  0
VERTEX
  5
1056
  8
3
  6
HIDDEN2
 10
77.912000000000006
 20
-39.722203110920319
 30
0.0
 70
    32
  0
SEQEND
  5
1057
  8
3
  6
HIDDEN2
  0
POLYLINE
  5
1058
  8
3
  6
HIDDEN2
 66
     1
 10
0.0
 20
0.0
 30
0.0
 70
     8
  0
VERTEX
  5
1059
  8
3
  6
HIDDEN2
 10
81.512000000000015
 20
-40.029190480081617
 30
0.0
 70
    32
  0
VERTEX
  5
105A
  8
3
  6
HIDDEN2
 10
81.490700000000004
 20
-40.030199999999908
 30
0.0
 70
    32
  0
VERTEX
  5
105B
  8
3
  6
HIDDEN2
 10
81.0
 20
-40.037899999999901
 30
0.0
 70
    32
  0
VERTEX
  5
105C
  8
3
  6
HIDDEN2
 10
80.509299999999996
 20
-40.030199999999908
 30
0.0
 70
    32
  0
VERTEX
  5
105D
  8
3
  6
HIDDEN2
 10
80.312000000000026
 20
-40.02084890704792
 30
0.0
 70
    32
  0
SEQEND
  5
105E
  8
3
  6
HIDDEN2
  0
POLYLINE
  5
105F
  8
3
  6
HIDDEN2
 66
     1
 10
0.0
 20
0.0
 30
0.0
 70
     8
  0
VERTEX
  5
1060
  8
3
  6
HIDDEN2
 10
83.912000000000035
 20
-39.759547886719503
 30
0.0
 70
    32
  0
VERTEX
  5
1061
  8
3
  6
HIDDEN2
 10
83.902799999999999
 20
-39.761499999999927
 30
0.0
 70
    32
  0
VERTEX
  5
1062
  8
3
  6
HIDDEN2
 10
83.4298
 20
-39.84549999999993
 30
0.0
 70
    32
  0
VERTEX
  5
1063
  8
3
  6
HIDDEN2
 10
82.950900000000004
 20
-39.914599999999943
 30
0.0
 70
    32
  0
VERTEX
  5
1064
  8
3
  6
HIDDEN2
 10
82.712000000000032
 20
-39.941177377998272
 30
0.0
 70
    32
  0
SEQEND
  5
1065
  8
3
  6
HIDDEN2
  0
POLYLINE
  5
1066
  8
3
  6
HIDDEN2
 66
     1
 10
0.0
 20
0.0
 30
0.0
 70
     8
  0
VERTEX
  5
1067
  8
3
  6
HIDDEN2
 10
86.312000000000054
 20
-39.054878418133498
 30
0.0
 70
    32
  0
VERTEX
  5
1068
  8
3
  6
HIDDEN2
 10
86.141000000000005
 20
-39.12439999999993
 30
0.0
 70
    32
  0
VERTEX
  5
1069
  8
3
  6
HIDDEN2
 10
85.714000000000027
 20
-39.279799999999931
 30
0.0
 70
    32
  0
VERTEX
  5
106A
  8
3
  6
HIDDEN2
 10
85.275599999999983
 20
-39.421499999999931
 30
0.0
 70
    32
  0
VERTEX
  5
106B
  8
3
  6
HIDDEN2
 10
85.112000000000023
 20
-39.468050178253037
 30
0.0
 70
    32
  0
SEQEND
  5
106C
  8
3
  6
HIDDEN2
  0
POLYLINE
  5
106D
  8
3
  6
HIDDEN2
 66
     1
 10
0.0
 20
0.0
 30
0.0
 70
     8
  0
VERTEX
  5
106E
  8
3
  6
HIDDEN2
 10
88.712000000000032
 20
-37.703876200873253
 30
0.0
 70
    32
  0
VERTEX
  5
106F
  8
3
  6
HIDDEN2
 10
88.409499999999966
 20
-37.929099999999927
 30
0.0
 70
    32
  0
VERTEX
  5
1070
  8
3
  6
HIDDEN2
 10
88.071099999999987
 20
-38.157299999999928
 30
0.0
 70
    32
  0
VERTEX
  5
1071
  8
3
  6
HIDDEN2
 10
87.715599999999995
 20
-38.374599999999937
 30
0.0
 70
    32
  0
VERTEX
  5
1072
  8
3
  6
HIDDEN2
 10
87.512
 20
-38.487382458972192
 30
0.0
 70
    32
  0
SEQEND
  5
1073
  8
3
  6
HIDDEN2
  0
POLYLINE
  5
1074
  8
3
  6
HIDDEN2
 66
     1
 10
0.0
 20
0.0
 30
0.0
 70
     8
  0
VERTEX
  5
1075
  8
3
  6
HIDDEN2
 10
89.912000000000035
 20
-30.70866520163117
 30
0.0
 70
    32
  0
VERTEX
  5
1076
  8
3
  6
HIDDEN2
 10
90.039899999999989
 20
-30.871799999999929
 30
0.0
 70
    32
  0
VERTEX
  5
1077
  8
3
  6
HIDDEN2
 10
90.238799999999998
 20
-31.159899999999929
 30
0.0
 70
    32
  0
VERTEX
  5
1078
  8
3
  6
HIDDEN2
 10
90.415400000000005
 20
-31.45399999999993
 30
0.0
 70
    32
  0
VERTEX
  5
1079
  8
3
  6
HIDDEN2
 10
90.569399999999987
 20
-31.753199999999929
 30
0.0
 70
    32
  0
VERTEX
  5
107A
  8
3
  6
HIDDEN2
 10
90.700299999999984
 20
-32.056999999999931
 30
0.0
 70
    32
  0
VERTEX
  5
107B
  8
3
  6
HIDDEN2
 10
90.807900000000004
 20
-32.364399999999932
 30
0.0
 70
    32
  0
VERTEX
  5
107C
  8
3
  6
HIDDEN2
 10
90.891800000000003
 20
-32.674999999999933
 30
0.0
 70
    32
  0
VERTEX
  5
107D
  8
3
  6
HIDDEN2
 10
90.951800000000006
 20
-32.987699999999933
 30
0.0
 70
    32
  0
VERTEX
  5
107E
  8
3
  6
HIDDEN2
 10
90.987999999999985
 20
-33.301999999999943
 30
0.0
 70
    32
  0
VERTEX
  5
107F
  8
3
  6
HIDDEN2
 10
91.0
 20
-33.61709999999993
 30
0.0
 70
    32
  0
VERTEX
  5
1080
  8
3
  6
HIDDEN2
 10
90.987999999999985
 20
-33.932099999999942
 30
0.0
 70
    32
  0
VERTEX
  5
1081
  8
3
  6
HIDDEN2
 10
90.951800000000006
 20
-34.24639999999993
 30
0.0
 70
    32
  0
VERTEX
  5
1082
  8
3
  6
HIDDEN2
 10
90.891800000000003
 20
-34.559199999999919
 30
0.0
 70
    32
  0
VERTEX
  5
1083
  8
3
  6
HIDDEN2
 10
90.807900000000004
 20
-34.869699999999924
 30
0.0
 70
    32
  0
VERTEX
  5
1084
  8
3
  6
HIDDEN2
 10
90.700299999999984
 20
-35.177199999999928
 30
0.0
 70
    32
  0
VERTEX
  5
1085
  8
3
  6
HIDDEN2
 10
90.569399999999987
 20
-35.480999999999931
 30
0.0
 70
    32
  0
VERTEX
  5
1086
  8
3
  6
HIDDEN2
 10
90.415400000000005
 20
-35.780199999999923
 30
0.0
 70
    32
  0
VERTEX
  5
1087
  8
3
  6
HIDDEN2
 10
90.238799999999998
 20
-36.074199999999927
 30
0.0
 70
    32
  0
VERTEX
  5
1088
  8
3
  6
HIDDEN2
 10
90.039899999999989
 20
-36.36239999999993
 30
0.0
 70
    32
  0
VERTEX
  5
1089
  8
3
  6
HIDDEN2
 10
89.912000000000035
 20
-36.525534798368689
 30
0.0
 70
    32
  0
SEQEND
  5
108A
  8
3
  6
HIDDEN2
  0
POLYLINE
  5
108B
  8
3
  6
HIDDEN2
 66
     1
 10
0.0
 20
0.0
 30
0.0
 70
     8
  0
VERTEX
  5
108C
  8
3
  6
HIDDEN2
 10
87.512
 20
-28.74681754102766
 30
0.0
 70
    32
  0
VERTEX
  5
108D
  8
3
  6
HIDDEN2
 10
87.715599999999995
 20
-28.859599999999929
 30
0.0
 70
    32
  0
VERTEX
  5
108E
  8
3
  6
HIDDEN2
 10
88.071099999999987
 20
-29.076899999999931
 30
0.0
 70
    32
  0
VERTEX
  5
108F
  8
3
  6
HIDDEN2
 10
88.409499999999966
 20
-29.305099999999928
 30
0.0
 70
    32
  0
VERTEX
  5
1090
  8
3
  6
HIDDEN2
 10
88.712000000000032
 20
-29.530229444790979
 30
0.0
 70
    32
  0
SEQEND
  5
1091
  8
3
  6
HIDDEN2
  0
POLYLINE
  5
1092
  8
3
  6
HIDDEN2
 66
     1
 10
0.0
 20
0.0
 30
0.0
 70
     8
  0
VERTEX
  5
1093
  8
3
  6
HIDDEN2
 10
85.112000000000023
 20
-27.766149821746819
 30
0.0
 70
    32
  0
VERTEX
  5
1094
  8
3
  6
HIDDEN2
 10
85.275599999999983
 20
-27.812699999999928
 30
0.0
 70
    32
  0
VERTEX
  5
1095
  8
3
  6
HIDDEN2
 10
85.714000000000027
 20
-27.954399999999929
 30
0.0
 70
    32
  0
VERTEX
  5
1096
  8
3
  6
HIDDEN2
 10
86.141000000000005
 20
-28.109699999999929
 30
0.0
 70
    32
  0
VERTEX
  5
1097
  8
3
  6
HIDDEN2
 10
86.312000000000054
 20
-28.1792628164938
 30
0.0
 70
    32
  0
SEQEND
  5
1098
  8
3
  6
HIDDEN2
  0
POLYLINE
  5
1099
  8
3
  6
HIDDEN2
 66
     1
 10
0.0
 20
0.0
 30
0.0
 70
     8
  0
VERTEX
  5
109A
  8
3
  6
HIDDEN2
 10
82.712000000000032
 20
-27.292973221670731
 30
0.0
 70
    32
  0
VERTEX
  5
109B
  8
3
  6
HIDDEN2
 10
82.950900000000004
 20
-27.31959999999993
 30
0.0
 70
    32
  0
VERTEX
  5
109C
  8
3
  6
HIDDEN2
 10
83.4298
 20
-27.388699999999929
 30
0.0
 70
    32
  0
VERTEX
  5
109D
  8
3
  6
HIDDEN2
 10
83.902799999999999
 20
-27.472699999999929
 30
0.0
 70
    32
  0
VERTEX
  5
109E
  8
3
  6
HIDDEN2
 10
83.912000000000035
 20
-27.474652113280349
 30
0.0
 70
    32
  0
SEQEND
  5
109F
  8
3
  6
HIDDEN2
  0
POLYLINE
  5
10A0
  8
3
  6
HIDDEN2
 66
     1
 10
0.0
 20
0.0
 30
0.0
 70
     8
  0
VERTEX
  5
10A1
  8
3
  6
HIDDEN2
 10
80.312000000000026
 20
-27.213351092951932
 30
0.0
 70
    32
  0
VERTEX
  5
10A2
  8
3
  6
HIDDEN2
 10
80.509299999999996
 20
-27.20399999999993
 30
0.0
 70
    32
  0
VERTEX
  5
10A3
  8
3
  6
HIDDEN2
 10
81.0
 20
-27.19619999999993
 30
0.0
 70
    32
  0
VERTEX
  5
10A4
  8
3
  6
HIDDEN2
 10
81.490700000000004
 20
-27.20399999999993
 30
0.0
 70
    32
  0
VERTEX
  5
10A5
  8
3
  6
HIDDEN2
 10
81.512000000000015
 20
-27.20500951991821
 30
0.0
 70
    32
  0
SEQEND
  5
10A6
  8
3
  6
HIDDEN2
  0
POLYLINE
  5
10A7
  8
3
  6
HIDDEN2
 66
     1
 10
0.0
 20
0.0
 30
0.0
 70
     8
  0
VERTEX
  5
10A8
  8
3
  6
HIDDEN2
 10
77.912000000000006
 20
-27.511996889079519
 30
0.0
 70
    32
  0
VERTEX
  5
10A9
  8
3
  6
HIDDEN2
 10
78.097200000000001
 20
-27.472699999999929
 30
0.0
 70
    32
  0
VERTEX
  5
10AA
  8
3
  6
HIDDEN2
 10
78.5702
 20
-27.388699999999929
 30
0.0
 70
    32
  0
VERTEX
  5
10AB
  8
3
  6
HIDDEN2
 10
79.049099999999981
 20
-27.31959999999993
 30
0.0
 70
    32
  0
VERTEX
  5
10AC
  8
3
  6
HIDDEN2
 10
79.112000000000023
 20
-27.312589433415969
 30
0.0
 70
    32
  0
SEQEND
  5
10AD
  8
3
  6
HIDDEN2
  0
POLYLINE
  5
10AE
  8
3
  6
HIDDEN2
 66
     1
 10
0.0
 20
0.0
 30
0.0
 70
     8
  0
VERTEX
  5
10AF
  8
3
  6
HIDDEN2
 10
75.512000000000015
 20
-28.250859633469911
 30
0.0
 70
    32
  0
VERTEX
  5
10B0
  8
3
  6
HIDDEN2
 10
75.85899999999998
 20
-28.109699999999929
 30
0.0
 70
    32
  0
VERTEX
  5
10B1
  8
3
  6
HIDDEN2
 10
76.286000000000001
 20
-27.954399999999929
 30
0.0
 70
    32
  0
VERTEX
  5
10B2
  8
3
  6
HIDDEN2
 10
76.712000000000032
 20
-27.816707937956132
 30
0.0
 70
    32
  0
SEQEND
  5
10B3
  8
3
  6
HIDDEN2
  0
POLYLINE
  5
10B4
  8
3
  6
HIDDEN2
 66
     1
 10
0.0
 20
0.0
 30
0.0
 70
     8
  0
VERTEX
  5
10B5
  8
3
  6
HIDDEN2
 10
73.112000000000023
 20
-29.673627649006551
 30
0.0
 70
    32
  0
VERTEX
  5
10B6
  8
3
  6
HIDDEN2
 10
73.269900000000007
 20
-29.54369999999993
 30
0.0
 70
    32
  0
VERTEX
  5
10B7
  8
3
  6
HIDDEN2
 10
73.590500000000006
 20
-29.305099999999928
 30
0.0
 70
    32
  0
VERTEX
  5
10B8
  8
3
  6
HIDDEN2
 10
73.928899999999999
 20
-29.076899999999931
 30
0.0
 70
    32
  0
VERTEX
  5
10B9
  8
3
  6
HIDDEN2
 10
74.284400000000005
 20
-28.859599999999929
 30
0.0
 70
    32
  0
VERTEX
  5
10BA
  8
3
  6
HIDDEN2
 10
74.312000000000026
 20
-28.844311218724702
 30
0.0
 70
    32
  0
SEQEND
  5
10BB
  8
3
  6
HIDDEN2
  0
POLYLINE
  5
10BC
  8
3
  6
HIDDEN2
 66
     1
 10
0.0
 20
0.0
 30
0.0
 70
     8
  0
VERTEX
  5
10BD
  8
3
  6
HIDDEN2
 10
71.0
 20
-33.61709999999993
 30
0.0
 70
    32
  0
VERTEX
  5
10BE
  8
3
  6
HIDDEN2
 10
71.012
 20
-33.301999999999943
 30
0.0
 70
    32
  0
VERTEX
  5
10BF
  8
3
  6
HIDDEN2
 10
71.04819999999998
 20
-32.987699999999933
 30
0.0
 70
    32
  0
VERTEX
  5
10C0
  8
3
  6
HIDDEN2
 10
71.108199999999982
 20
-32.674999999999933
 30
0.0
 70
    32
  0
VERTEX
  5
10C1
  8
3
  6
HIDDEN2
 10
71.192099999999982
 20
-32.364399999999932
 30
0.0
 70
    32
  0
VERTEX
  5
10C2
  8
3
  6
HIDDEN2
 10
71.299700000000001
 20
-32.056999999999931
 30
0.0
 70
    32
  0
VERTEX
  5
10C3
  8
3
  6
HIDDEN2
 10
71.430599999999998
 20
-31.753199999999929
 30
0.0
 70
    32
  0
VERTEX
  5
10C4
  8
3
  6
HIDDEN2
 10
71.58459999999998
 20
-31.45399999999993
 30
0.0
 70
    32
  0
VERTEX
  5
10C5
  8
3
  6
HIDDEN2
 10
71.761200000000002
 20
-31.159899999999929
 30
0.0
 70
    32
  0
VERTEX
  5
10C6
  8
3
  6
HIDDEN2
 10
71.912000000000006
 20
-30.94147124182998
 30
0.0
 70
    32
  0
SEQEND
  5
10C7
  8
3
  6
HIDDEN2
  0
POLYLINE
  5
10C8
  8
3
  6
HIDDEN2
 66
     1
 10
0.0
 20
0.0
 30
0.0
 70
     8
  0
VERTEX
  5
10C9
  8
3
  6
HIDDEN2
 10
71.912000000000006
 20
-34.902985429141673
 30
0.0
 70
    32
  0
VERTEX
  5
10CA
  8
3
  6
HIDDEN2
 10
71.906700000000001
 20
-34.887899999999931
 30
0.0
 70
    32
  0
VERTEX
  5
10CB
  8
3
  6
HIDDEN2
 10
71.828500000000005
 20
-34.599899999999941
 30
0.0
 70
    32
  0
VERTEX
  5
10CC
  8
3
  6
HIDDEN2
 10
71.77249999999998
 20
-34.309799999999932
 30
0.0
 70
    32
  0
VERTEX
  5
10CD
  8
3
  6
HIDDEN2
 10
71.738900000000001
 20
-34.018199999999929
 30
0.0
 70
    32
  0
VERTEX
  5
10CE
  8
3
  6
HIDDEN2
 10
71.727699999999984
 20
-33.725999999999928
 30
0.0
 70
    32
  0
SEQEND
  5
10CF
  8
3
  6
HIDDEN2
  0
POLYLINE
  5
10D0
  8
3
  6
HIDDEN2
 66
     1
 10
0.0
 20
0.0
 30
0.0
 70
     8
  0
VERTEX
  5
10D1
  8
3
  6
HIDDEN2
 10
74.312000000000026
 20
-37.840279226133767
 30
0.0
 70
    32
  0
VERTEX
  5
10D2
  8
3
  6
HIDDEN2
 10
74.141199999999998
 20
-37.725599999999929
 30
0.0
 70
    32
  0
VERTEX
  5
10D3
  8
3
  6
HIDDEN2
 10
73.842500000000001
 20
-37.504299999999937
 30
0.0
 70
    32
  0
VERTEX
  5
10D4
  8
3
  6
HIDDEN2
 10
73.561199999999999
 20
-37.27379999999993
 30
0.0
 70
    32
  0
VERTEX
  5
10D5
  8
3
  6
HIDDEN2
 10
73.297899999999984
 20
-37.034799999999919
 30
0.0
 70
    32
  0
VERTEX
  5
10D6
  8
3
  6
HIDDEN2
 10
73.112000000000023
 20
-36.847228647323178
 30
0.0
 70
    32
  0
SEQEND
  5
10D7
  8
3
  6
HIDDEN2
  0
POLYLINE
  5
10D8
  8
3
  6
HIDDEN2
 66
     1
 10
0.0
 20
0.0
 30
0.0
 70
     8
  0
VERTEX
  5
10D9
  8
3
  6
HIDDEN2
 10
76.712000000000032
 20
-38.997606878824897
 30
0.0
 70
    32
  0
VERTEX
  5
10DA
  8
3
  6
HIDDEN2
 10
76.652600000000007
 20
-38.978499999999933
 30
0.0
 70
    32
  0
VERTEX
  5
10DB
  8
3
  6
HIDDEN2
 10
76.254699999999985
 20
-38.834399999999931
 30
0.0
 70
    32
  0
VERTEX
  5
10DC
  8
3
  6
HIDDEN2
 10
75.86839999999998
 20
-38.677999999999933
 30
0.0
 70
    32
  0
VERTEX
  5
10DD
  8
3
  6
HIDDEN2
 10
75.512000000000015
 20
-38.517577106178067
 30
0.0
 70
    32
  0
SEQEND
  5
10DE
  8
3
  6
HIDDEN2
  0
POLYLINE
  5
10DF
  8
3
  6
HIDDEN2
 66
     1
 10
0.0
 20
0.0
 30
0.0
 70
     8
  0
VERTEX
  5
10E0
  8
3
  6
HIDDEN2
 10
79.112000000000023
 20
-39.550793747198497
 30
0.0
 70
    32
  0
VERTEX
  5
10E1
  8
3
  6
HIDDEN2
 10
78.780699999999982
 20
-39.503199999999929
 30
0.0
 70
    32
  0
VERTEX
  5
10E2
  8
3
  6
HIDDEN2
 10
78.340000000000003
 20
-39.425299999999943
 30
0.0
 70
    32
  0
VERTEX
  5
10E3
  8
3
  6
HIDDEN2
 10
77.912000000000006
 20
-39.334909396591357
 30
0.0
 70
    32
  0
SEQEND
  5
10E4
  8
3
  6
HIDDEN2
  0
POLYLINE
  5
10E5
  8
3
  6
HIDDEN2
 66
     1
 10
0.0
 20
0.0
 30
0.0
 70
     8
  0
VERTEX
  5
10E6
  8
3
  6
HIDDEN2
 10
81.512000000000015
 20
-39.67401436403501
 30
0.0
 70
    32
  0
VERTEX
  5
10E7
  8
3
  6
HIDDEN2
 10
81.501699999999985
 20
-39.674499999999917
 30
0.0
 70
    32
  0
VERTEX
  5
10E8
  8
3
  6
HIDDEN2
 10
81.044499999999985
 20
-39.681699999999928
 30
0.0
 70
    32
  0
VERTEX
  5
10E9
  8
3
  6
HIDDEN2
 10
80.587400000000002
 20
-39.674499999999917
 30
0.0
 70
    32
  0
VERTEX
  5
10EA
  8
3
  6
HIDDEN2
 10
80.312000000000026
 20
-39.661517978513409
 30
0.0
 70
    32
  0
SEQEND
  5
10EB
  8
3
  6
HIDDEN2
  0
POLYLINE
  5
10EC
  8
3
  6
HIDDEN2
 66
     1
 10
0.0
 20
0.0
 30
0.0
 70
     8
  0
VERTEX
  5
10ED
  8
3
  6
HIDDEN2
 10
83.912000000000035
 20
-39.390896660525009
 30
0.0
 70
    32
  0
VERTEX
  5
10EE
  8
3
  6
HIDDEN2
 10
83.749099999999984
 20
-39.425299999999943
 30
0.0
 70
    32
  0
VERTEX
  5
10EF
  8
3
  6
HIDDEN2
 10
83.308300000000003
 20
-39.503199999999929
 30
0.0
 70
    32
  0
VERTEX
  5
10F0
  8
3
  6
HIDDEN2
 10
82.862099999999998
 20
-39.567299999999932
 30
0.0
 70
    32
  0
VERTEX
  5
10F1
  8
3
  6
HIDDEN2
 10
82.712000000000032
 20
-39.583925948945542
 30
0.0
 70
    32
  0
SEQEND
  5
10F2
  8
3
  6
HIDDEN2
  0
POLYLINE
  5
10F3
  8
3
  6
HIDDEN2
 66
     1
 10
0.0
 20
0.0
 30
0.0
 70
     8
  0
VERTEX
  5
10F4
  8
3
  6
HIDDEN2
 10
86.312000000000054
 20
-38.636893017656412
 30
0.0
 70
    32
  0
VERTEX
  5
10F5
  8
3
  6
HIDDEN2
 10
86.220699999999994
 20
-38.677999999999933
 30
0.0
 70
    32
  0
VERTEX
  5
10F6
  8
3
  6
HIDDEN2
 10
85.834299999999985
 20
-38.834399999999931
 30
0.0
 70
    32
  0
VERTEX
  5
10F7
  8
3
  6
HIDDEN2
 10
85.436400000000006
 20
-38.978499999999933
 30
0.0
 70
    32
  0
VERTEX
  5
10F8
  8
3
  6
HIDDEN2
 10
85.112000000000023
 20
-39.082873555337827
 30
0.0
 70
    32
  0
SEQEND
  5
10F9
  8
3
  6
HIDDEN2
  0
POLYLINE
  5
10FA
  8
3
  6
HIDDEN2
 66
     1
 10
0.0
 20
0.0
 30
0.0
 70
     8
  0
VERTEX
  5
10FB
  8
3
  6
HIDDEN2
 10
88.712000000000032
 20
-37.106690619065603
 30
0.0
 70
    32
  0
VERTEX
  5
10FC
  8
3
  6
HIDDEN2
 10
88.527900000000002
 20
-37.27379999999993
 30
0.0
 70
    32
  0
VERTEX
  5
10FD
  8
3
  6
HIDDEN2
 10
88.246499999999983
 20
-37.504299999999937
 30
0.0
 70
    32
  0
VERTEX
  5
10FE
  8
3
  6
HIDDEN2
 10
87.947800000000015
 20
-37.725599999999929
 30
0.0
 70
    32
  0
VERTEX
  5
10FF
  8
3
  6
HIDDEN2
 10
87.632499999999965
 20
-37.937299999999937
 30
0.0
 70
    32
  0
VERTEX
  5
1100
  8
3
  6
HIDDEN2
 10
87.512
 20
-38.010647826086853
 30
0.0
 70
    32
  0
SEQEND
  5
1101
  8
3
  6
HIDDEN2
  0
POLYLINE
  5
1102
  8
3
  6
HIDDEN2
 66
     1
 10
0.0
 20
0.0
 30
0.0
 70
     8
  0
VERTEX
  5
1103
  8
3
  6
HIDDEN2
 10
89.912000000000035
 20
-31.903957351916389
 30
0.0
 70
    32
  0
VERTEX
  5
1104
  8
3
  6
HIDDEN2
 10
89.960199999999986
 20
-31.997199999999928
 30
0.0
 70
    32
  0
VERTEX
  5
1105
  8
3
  6
HIDDEN2
 10
90.082099999999983
 20
-32.278899999999929
 30
0.0
 70
    32
  0
VERTEX
  5
1106
  8
3
  6
HIDDEN2
 10
90.182299999999984
 20
-32.564099999999932
 30
0.0
 70
    32
  0
VERTEX
  5
1107
  8
3
  6
HIDDEN2
 10
90.260499999999965
 20
-32.852099999999929
 30
0.0
 70
    32
  0
VERTEX
  5
1108
  8
3
  6
HIDDEN2
 10
90.316500000000005
 20
-33.142299999999928
 30
0.0
 70
    32
  0
VERTEX
  5
1109
  8
3
  6
HIDDEN2
 10
90.350099999999969
 20
-33.433799999999927
 30
0.0
 70
    32
  0
VERTEX
  5
110A
  8
3
  6
HIDDEN2
 10
90.361400000000003
 20
-33.725999999999928
 30
0.0
 70
    32
  0
VERTEX
  5
110B
  8
3
  6
HIDDEN2
 10
90.350099999999969
 20
-34.018199999999929
 30
0.0
 70
    32
  0
VERTEX
  5
110C
  8
3
  6
HIDDEN2
 10
90.316500000000005
 20
-34.309799999999932
 30
0.0
 70
    32
  0
VERTEX
  5
110D
  8
3
  6
HIDDEN2
 10
90.260499999999965
 20
-34.599899999999941
 30
0.0
 70
    32
  0
VERTEX
  5
110E
  8
3
  6
HIDDEN2
 10
90.182299999999984
 20
-34.887899999999931
 30
0.0
 70
    32
  0
VERTEX
  5
110F
  8
3
  6
HIDDEN2
 10
90.082099999999983
 20
-35.173099999999927
 30
0.0
 70
    32
  0
VERTEX
  5
1110
  8
3
  6
HIDDEN2
 10
89.960199999999986
 20
-35.454899999999917
 30
0.0
 70
    32
  0
VERTEX
  5
1111
  8
3
  6
HIDDEN2
 10
89.912000000000035
 20
-35.54810905923329
 30
0.0
 70
    32
  0
SEQEND
  5
1112
  8
3
  6
HIDDEN2
  0
POLYLINE
  5
1113
  8
3
  6
HIDDEN2
 66
     1
 10
0.0
 20
0.0
 30
0.0
 70
     8
  0
VERTEX
  5
1114
  8
3
  6
HIDDEN2
 10
87.512
 20
-29.441352173913
 30
0.0
 70
    32
  0
VERTEX
  5
1115
  8
3
  6
HIDDEN2
 10
87.632499999999965
 20
-29.51469999999993
 30
0.0
 70
    32
  0
VERTEX
  5
1116
  8
3
  6
HIDDEN2
 10
87.947800000000015
 20
-29.726399999999931
 30
0.0
 70
    32
  0
VERTEX
  5
1117
  8
3
  6
HIDDEN2
 10
88.246499999999983
 20
-29.94779999999993
 30
0.0
 70
    32
  0
VERTEX
  5
1118
  8
3
  6
HIDDEN2
 10
88.527900000000002
 20
-30.178199999999929
 30
0.0
 70
    32
  0
VERTEX
  5
1119
  8
3
  6
HIDDEN2
 10
88.712000000000032
 20
-30.34530938093426
 30
0.0
 70
    32
  0
SEQEND
  5
111A
  8
3
  6
HIDDEN2
  0
POLYLINE
  5
111B
  8
3
  6
HIDDEN2
 66
     1
 10
0.0
 20
0.0
 30
0.0
 70
     8
  0
VERTEX
  5
111C
  8
3
  6
HIDDEN2
 10
85.112000000000023
 20
-28.36914701273254
 30
0.0
 70
    32
  0
VERTEX
  5
111D
  8
3
  6
HIDDEN2
 10
85.436400000000006
 20
-28.47359999999993
 30
0.0
 70
    32
  0
VERTEX
  5
111E
  8
3
  6
HIDDEN2
 10
85.834299999999985
 20
-28.617599999999928
 30
0.0
 70
    32
  0
VERTEX
  5
111F
  8
3
  6
HIDDEN2
 10
86.220699999999994
 20
-28.77399999999993
 30
0.0
 70
    32
  0
VERTEX
  5
1120
  8
3
  6
HIDDEN2
 10
86.312000000000054
 20
-28.815131407169549
 30
0.0
 70
    32
  0
SEQEND
  5
1121
  8
3
  6
HIDDEN2
  0
POLYLINE
  5
1122
  8
3
  6
HIDDEN2
 66
     1
 10
0.0
 20
0.0
 30
0.0
 70
     8
  0
VERTEX
  5
1123
  8
3
  6
HIDDEN2
 10
82.712000000000032
 20
-27.86814073251934
 30
0.0
 70
    32
  0
VERTEX
  5
1124
  8
3
  6
HIDDEN2
 10
82.862099999999998
 20
-27.884799999999931
 30
0.0
 70
    32
  0
VERTEX
  5
1125
  8
3
  6
HIDDEN2
 10
83.308300000000003
 20
-27.948799999999931
 30
0.0
 70
    32
  0
VERTEX
  5
1126
  8
3
  6
HIDDEN2
 10
83.749099999999984
 20
-28.02679999999993
 30
0.0
 70
    32
  0
VERTEX
  5
1127
  8
3
  6
HIDDEN2
 10
83.912000000000035
 20
-28.06120333947484
 30
0.0
 70
    32
  0
SEQEND
  5
1128
  8
3
  6
HIDDEN2
  0
POLYLINE
  5
1129
  8
3
  6
HIDDEN2
 66
     1
 10
0.0
 20
0.0
 30
0.0
 70
     8
  0
VERTEX
  5
112A
  8
3
  6
HIDDEN2
 10
80.312000000000026
 20
-27.790482021486451
 30
0.0
 70
    32
  0
VERTEX
  5
112B
  8
3
  6
HIDDEN2
 10
80.587400000000002
 20
-27.777499999999929
 30
0.0
 70
    32
  0
VERTEX
  5
112C
  8
3
  6
HIDDEN2
 10
81.044499999999985
 20
-27.770299999999931
 30
0.0
 70
    32
  0
VERTEX
  5
112D
  8
3
  6
HIDDEN2
 10
81.501699999999985
 20
-27.777499999999929
 30
0.0
 70
    32
  0
VERTEX
  5
112E
  8
3
  6
HIDDEN2
 10
81.512000000000015
 20
-27.777985635964839
 30
0.0
 70
    32
  0
SEQEND
  5
112F
  8
3
  6
HIDDEN2
  0
POLYLINE
  5
1130
  8
3
  6
HIDDEN2
 66
     1
 10
0.0
 20
0.0
 30
0.0
 70
     8
  0
VERTEX
  5
1131
  8
3
  6
HIDDEN2
 10
77.912000000000006
 20
-28.117190603408488
 30
0.0
 70
    32
  0
VERTEX
  5
1132
  8
3
  6
HIDDEN2
 10
78.340000000000003
 20
-28.02679999999993
 30
0.0
 70
    32
  0
VERTEX
  5
1133
  8
3
  6
HIDDEN2
 10
78.780699999999982
 20
-27.948799999999931
 30
0.0
 70
    32
  0
VERTEX
  5
1134
  8
3
  6
HIDDEN2
 10
79.112000000000023
 20
-27.901280502016942
 30
0.0
 70
    32
  0
SEQEND
  5
1135
  8
3
  6
HIDDEN2
  0
POLYLINE
  5
1136
  8
3
  6
HIDDEN2
 66
     1
 10
0.0
 20
0.0
 30
0.0
 70
     8
  0
VERTEX
  5
1137
  8
3
  6
HIDDEN2
 10
75.512000000000015
 20
-28.934518213425971
 30
0.0
 70
    32
  0
VERTEX
  5
1138
  8
3
  6
HIDDEN2
 10
75.86839999999998
 20
-28.77399999999993
 30
0.0
 70
    32
  0
VERTEX
  5
1139
  8
3
  6
HIDDEN2
 10
76.254699999999985
 20
-28.617599999999928
 30
0.0
 70
    32
  0
VERTEX
  5
113A
  8
3
  6
HIDDEN2
 10
76.652600000000007
 20
-28.47359999999993
 30
0.0
 70
    32
  0
VERTEX
  5
113B
  8
3
  6
HIDDEN2
 10
76.712000000000032
 20
-28.454478580171269
 30
0.0
 70
    32
  0
SEQEND
  5
113C
  8
3
  6
HIDDEN2
  0
POLYLINE
  5
113D
  8
3
  6
HIDDEN2
 66
     1
 10
0.0
 20
0.0
 30
0.0
 70
     8
  0
VERTEX
  5
113E
  8
3
  6
HIDDEN2
 10
73.112000000000023
 20
-30.604847323252891
 30
0.0
 70
    32
  0
VERTEX
  5
113F
  8
3
  6
HIDDEN2
 10
73.297899999999984
 20
-30.41719999999993
 30
0.0
 70
    32
  0
VERTEX
  5
1140
  8
3
  6
HIDDEN2
 10
73.561199999999999
 20
-30.178199999999929
 30
0.0
 70
    32
  0
VERTEX
  5
1141
  8
3
  6
HIDDEN2
 10
73.842500000000001
 20
-29.94779999999993
 30
0.0
 70
    32
  0
VERTEX
  5
1142
  8
3
  6
HIDDEN2
 10
74.141199999999998
 20
-29.726399999999931
 30
0.0
 70
    32
  0
VERTEX
  5
1143
  8
3
  6
HIDDEN2
 10
74.312000000000026
 20
-29.611720773866079
 30
0.0
 70
    32
  0
SEQEND
  5
1144
  8
3
  6
HIDDEN2
  0
POLYLINE
  5
1145
  8
3
  6
HIDDEN2
 66
     1
 10
0.0
 20
0.0
 30
0.0
 70
     8
  0
VERTEX
  5
1146
  8
3
  6
HIDDEN2
 10
71.727699999999984
 20
-33.725999999999928
 30
0.0
 70
    32
  0
VERTEX
  5
1147
  8
3
  6
HIDDEN2
 10
71.738900000000001
 20
-33.433799999999927
 30
0.0
 70
    32
  0
VERTEX
  5
1148
  8
3
  6
HIDDEN2
 10
71.77249999999998
 20
-33.142299999999928
 30
0.0
 70
    32
  0
VERTEX
  5
1149
  8
3
  6
HIDDEN2
 10
71.828500000000005
 20
-32.852099999999929
 30
0.0
 70
    32
  0
VERTEX
  5
114A
  8
3
  6
HIDDEN2
 10
71.906700000000001
 20
-32.564099999999932
 30
0.0
 70
    32
  0
VERTEX
  5
114B
  8
3
  6
HIDDEN2
 10
71.912000000000006
 20
-32.549014570858198
 30
0.0
 70
    32
  0
SEQEND
  5
114C
  8
3
  6
HIDDEN2
  0
LINE
  5
114D
  8
4
  6
CENTER2
 10
69.828855860457026
 20
-34.471999940321453
 30
0.0
 11
92.237475832614535
 21
-34.471999940321453
 31
0.0
  0
LINE
  5
114E
  8
4
  6
CENTER2
 10
81.0
 20
-26.5818776726774
 30
0.0
 11
81.0
 21
-41.363930717114613
 31
0.0
  0
LINE
  5
114F
  8
1
  6
CONTINUOUS
 10
76.75
 20
-2.4537386399999992
 30
0.0
 11
81.0
 21
-4.9074772899999948
 31
0.0
  0
LINE
  5
1150
  8
1
  6
CONTINUOUS
 10
81.0
 20
-4.9074772899999948
 30
0.0
 11
85.25
 21
-2.4537386399999992
 31
0.0
  0
LINE
  5
1151
  8
1
  6
CONTINUOUS
 10
85.25
 20
-2.4537386399999992
 30
0.0
 11
85.25
 21
2.453738639999997
 31
0.0
  0
LINE
  5
1152
  8
1
  6
CONTINUOUS
 10
85.25
 20
2.453738639999997
 30
0.0
 11
81.0
 21
4.9074772899999957
 31
0.0
  0
LINE
  5
1153
  8
1
  6
CONTINUOUS
 10
81.0
 20
4.9074772899999957
 30
0.0
 11
76.75
 21
2.453738639999997
 31
0.0
  0
LINE
  5
1154
  8
1
  6
CONTINUOUS
 10
76.75
 20
2.453738639999997
 30
0.0
 11
76.75
 21
-2.4537386399999992
 31
0.0
  0
CIRCLE
  5
1393
  8
1
  6
CONTINUOUS
 10
19.0
 20
0.0
 30
0.0
 40
10.0
  0
CIRCLE
  5
1394
  8
1
  6
CONTINUOUS
 10
19.0
 20
0.0
 30
0.0
 40
9.25
  0
LINE
  5
1395
  8
4
  6
CENTER2
 10
19.0
 20
11.0
 30
0.0
 11
19.0
 21
-10.999999999999989
 31
0.0
  0
POLYLINE
  5
1396
  8
3
  6
HIDDEN2
 66
     1
 10
0.0
 20
0.0
 30
0.0
 70
     8
  0
VERTEX
  5
1397
  8
3
  6
HIDDEN2
 10
9.9120000000000061
 20
36.292704575163498
 30
0.0
 70
    32
  0
VERTEX
  5
1398
  8
3
  6
HIDDEN2
 10
9.7612000000000023
 20
36.074200000000083
 30
0.0
 70
    32
  0
VERTEX
  5
1399
  8
3
  6
HIDDEN2
 10
9.5845999999999805
 20
35.780200000000093
 30
0.0
 70
    32
  0
VERTEX
  5
139A
  8
3
  6
HIDDEN2
 10
9.4305999999999983
 20
35.481000000000087
 30
0.0
 70
    32
  0
VERTEX
  5
139B
  8
3
  6
HIDDEN2
 10
9.2997000000000014
 20
35.17720000000007
 30
0.0
 70
    32
  0
VERTEX
  5
139C
  8
3
  6
HIDDEN2
 10
9.1920999999999822
 20
34.869700000000101
 30
0.0
 70
    32
  0
VERTEX
  5
139D
  8
3
  6
HIDDEN2
 10
9.1081999999999823
 20
34.559200000000082
 30
0.0
 70
    32
  0
VERTEX
  5
139E
  8
3
  6
HIDDEN2
 10
9.04819999999998
 20
34.246400000000087
 30
0.0
 70
    32
  0
VERTEX
  5
139F
  8
3
  6
HIDDEN2
 10
9.0120000000000005
 20
33.932100000000091
 30
0.0
 70
    32
  0
VERTEX
  5
13A0
  8
3
  6
HIDDEN2
 10
9.0
 20
33.617100000000093
 30
0.0
 70
    32
  0
SEQEND
  5
13A1
  8
3
  6
HIDDEN2
  0
POLYLINE
  5
13A2
  8
3
  6
HIDDEN2
 66
     1
 10
0.0
 20
0.0
 30
0.0
 70
     8
  0
VERTEX
  5
13A3
  8
3
  6
HIDDEN2
 10
12.312000000000021
 20
38.38988878127531
 30
0.0
 70
    32
  0
VERTEX
  5
13A4
  8
3
  6
HIDDEN2
 10
12.2844
 20
38.374600000000079
 30
0.0
 70
    32
  0
VERTEX
  5
13A5
  8
3
  6
HIDDEN2
 10
11.928900000000001
 20
38.157300000000077
 30
0.0
 70
    32
  0
VERTEX
  5
13A6
  8
3
  6
HIDDEN2
 10
11.5905
 20
37.929100000000084
 30
0.0
 70
    32
  0
VERTEX
  5
13A7
  8
3
  6
HIDDEN2
 10
11.26990000000001
 20
37.690400000000068
 30
0.0
 70
    32
  0
VERTEX
  5
13A8
  8
3
  6
HIDDEN2
 10
11.11200000000002
 20
37.560524635761681
 30
0.0
 70
    32
  0
SEQEND
  5
13A9
  8
3
  6
HIDDEN2
  0
POLYLINE
  5
13AA
  8
3
  6
HIDDEN2
 66
     1
 10
0.0
 20
0.0
 30
0.0
 70
     8
  0
VERTEX
  5
13AB
  8
3
  6
HIDDEN2
 10
14.71200000000003
 20
39.417492062043891
 30
0.0
 70
    32
  0
VERTEX
  5
13AC
  8
3
  6
HIDDEN2
 10
14.286
 20
39.279800000000073
 30
0.0
 70
    32
  0
VERTEX
  5
13AD
  8
3
  6
HIDDEN2
 10
13.85899999999998
 20
39.12440000000008
 30
0.0
 70
    32
  0
VERTEX
  5
13AE
  8
3
  6
HIDDEN2
 10
13.512000000000009
 20
38.983324041475839
 30
0.0
 70
    32
  0
SEQEND
  5
13AF
  8
3
  6
HIDDEN2
  0
POLYLINE
  5
13B0
  8
3
  6
HIDDEN2
 66
     1
 10
0.0
 20
0.0
 30
0.0
 70
     8
  0
VERTEX
  5
13B1
  8
3
  6
HIDDEN2
 10
17.11200000000002
 20
39.921597559967019
 30
0.0
 70
    32
  0
VERTEX
  5
13B2
  8
3
  6
HIDDEN2
 10
17.049099999999981
 20
39.914600000000071
 30
0.0
 70
    32
  0
VERTEX
  5
13B3
  8
3
  6
HIDDEN2
 10
16.5702
 20
39.845500000000072
 30
0.0
 70
    32
  0
VERTEX
  5
13B4
  8
3
  6
HIDDEN2
 10
16.097200000000001
 20
39.761500000000069
 30
0.0
 70
    32
  0
VERTEX
  5
13B5
  8
3
  6
HIDDEN2
 10
15.912000000000001
 20
39.722203110920503
 30
0.0
 70
    32
  0
SEQEND
  5
13B6
  8
3
  6
HIDDEN2
  0
POLYLINE
  5
13B7
  8
3
  6
HIDDEN2
 66
     1
 10
0.0
 20
0.0
 30
0.0
 70
     8
  0
VERTEX
  5
13B8
  8
3
  6
HIDDEN2
 10
19.512000000000011
 20
40.029190480081787
 30
0.0
 70
    32
  0
VERTEX
  5
13B9
  8
3
  6
HIDDEN2
 10
19.4907
 20
40.030200000000072
 30
0.0
 70
    32
  0
VERTEX
  5
13BA
  8
3
  6
HIDDEN2
 10
19.0
 20
40.037900000000072
 30
0.0
 70
    32
  0
VERTEX
  5
13BB
  8
3
  6
HIDDEN2
 10
18.509299999999978
 20
40.030200000000072
 30
0.0
 70
    32
  0
VERTEX
  5
13BC
  8
3
  6
HIDDEN2
 10
18.312000000000019
 20
40.020848907048048
 30
0.0
 70
    32
  0
SEQEND
  5
13BD
  8
3
  6
HIDDEN2
  0
POLYLINE
  5
13BE
  8
3
  6
HIDDEN2
 66
     1
 10
0.0
 20
0.0
 30
0.0
 70
     8
  0
VERTEX
  5
13BF
  8
3
  6
HIDDEN2
 10
21.912000000000031
 20
39.759547886719659
 30
0.0
 70
    32
  0
VERTEX
  5
13C0
  8
3
  6
HIDDEN2
 10
21.902799999999999
 20
39.761500000000069
 30
0.0
 70
    32
  0
VERTEX
  5
13C1
  8
3
  6
HIDDEN2
 10
21.4298
 20
39.845500000000072
 30
0.0
 70
    32
  0
VERTEX
  5
13C2
  8
3
  6
HIDDEN2
 10
20.950900000000001
 20
39.914600000000071
 30
0.0
 70
    32
  0
VERTEX
  5
13C3
  8
3
  6
HIDDEN2
 10
20.712000000000032
 20
39.941177377998429
 30
0.0
 70
    32
  0
SEQEND
  5
13C4
  8
3
  6
HIDDEN2
  0
POLYLINE
  5
13C5
  8
3
  6
HIDDEN2
 66
     1
 10
0.0
 20
0.0
 30
0.0
 70
     8
  0
VERTEX
  5
13C6
  8
3
  6
HIDDEN2
 10
24.31200000000004
 20
39.054878418133661
 30
0.0
 70
    32
  0
VERTEX
  5
13C7
  8
3
  6
HIDDEN2
 10
24.141000000000009
 20
39.12440000000008
 30
0.0
 70
    32
  0
VERTEX
  5
13C8
  8
3
  6
HIDDEN2
 10
23.714000000000009
 20
39.279800000000073
 30
0.0
 70
    32
  0
VERTEX
  5
13C9
  8
3
  6
HIDDEN2
 10
23.275599999999979
 20
39.421500000000073
 30
0.0
 70
    32
  0
VERTEX
  5
13CA
  8
3
  6
HIDDEN2
 10
23.11200000000003
 20
39.468050178253179
 30
0.0
 70
    32
  0
SEQEND
  5
13CB
  8
3
  6
HIDDEN2
  0
POLYLINE
  5
13CC
  8
3
  6
HIDDEN2
 66
     1
 10
0.0
 20
0.0
 30
0.0
 70
     8
  0
VERTEX
  5
13CD
  8
3
  6
HIDDEN2
 10
26.712000000000032
 20
37.703876200873388
 30
0.0
 70
    32
  0
VERTEX
  5
13CE
  8
3
  6
HIDDEN2
 10
26.409499999999969
 20
37.929100000000084
 30
0.0
 70
    32
  0
VERTEX
  5
13CF
  8
3
  6
HIDDEN2
 10
26.071099999999991
 20
38.157300000000077
 30
0.0
 70
    32
  0
VERTEX
  5
13D0
  8
3
  6
HIDDEN2
 10
25.715599999999998
 20
38.374600000000079
 30
0.0
 70
    32
  0
VERTEX
  5
13D1
  8
3
  6
HIDDEN2
 10
25.512
 20
38.487382458972341
 30
0.0
 70
    32
  0
SEQEND
  5
13D2
  8
3
  6
HIDDEN2
  0
POLYLINE
  5
13D3
  8
3
  6
HIDDEN2
 66
     1
 10
0.0
 20
0.0
 30
0.0
 70
     8
  0
VERTEX
  5
13D4
  8
3
  6
HIDDEN2
 10
27.912000000000031
 20
30.70866520163132
 30
0.0
 70
    32
  0
VERTEX
  5
13D5
  8
3
  6
HIDDEN2
 10
28.03990000000001
 20
30.8718000000001
 30
0.0
 70
    32
  0
VERTEX
  5
13D6
  8
3
  6
HIDDEN2
 10
28.238800000000001
 20
31.1599000000001
 30
0.0
 70
    32
  0
VERTEX
  5
13D7
  8
3
  6
HIDDEN2
 10
28.415400000000009
 20
31.454000000000072
 30
0.0
 70
    32
  0
VERTEX
  5
13D8
  8
3
  6
HIDDEN2
 10
28.569399999999991
 20
31.753200000000088
 30
0.0
 70
    32
  0
VERTEX
  5
13D9
  8
3
  6
HIDDEN2
 10
28.700299999999981
 20
32.057000000000087
 30
0.0
 70
    32
  0
VERTEX
  5
13DA
  8
3
  6
HIDDEN2
 10
28.807900000000011
 20
32.364400000000103
 30
0.0
 70
    32
  0
VERTEX
  5
13DB
  8
3
  6
HIDDEN2
 10
28.891800000000011
 20
32.675000000000082
 30
0.0
 70
    32
  0
VERTEX
  5
13DC
  8
3
  6
HIDDEN2
 10
28.951800000000009
 20
32.987700000000082
 30
0.0
 70
    32
  0
VERTEX
  5
13DD
  8
3
  6
HIDDEN2
 10
28.987999999999989
 20
33.302000000000071
 30
0.0
 70
    32
  0
VERTEX
  5
13DE
  8
3
  6
HIDDEN2
 10
29.0
 20
33.617100000000093
 30
0.0
 70
    32
  0
VERTEX
  5
13DF
  8
3
  6
HIDDEN2
 10
28.987999999999989
 20
33.932100000000091
 30
0.0
 70
    32
  0
VERTEX
  5
13E0
  8
3
  6
HIDDEN2
 10
28.951800000000009
 20
34.246400000000087
 30
0.0
 70
    32
  0
VERTEX
  5
13E1
  8
3
  6
HIDDEN2
 10
28.891800000000011
 20
34.559200000000082
 30
0.0
 70
    32
  0
VERTEX
  5
13E2
  8
3
  6
HIDDEN2
 10
28.807900000000011
 20
34.869700000000101
 30
0.0
 70
    32
  0
VERTEX
  5
13E3
  8
3
  6
HIDDEN2
 10
28.700299999999981
 20
35.17720000000007
 30
0.0
 70
    32
  0
VERTEX
  5
13E4
  8
3
  6
HIDDEN2
 10
28.569399999999991
 20
35.481000000000087
 30
0.0
 70
    32
  0
VERTEX
  5
13E5
  8
3
  6
HIDDEN2
 10
28.415400000000009
 20
35.780200000000093
 30
0.0
 70
    32
  0
VERTEX
  5
13E6
  8
3
  6
HIDDEN2
 10
28.238800000000001
 20
36.074200000000083
 30
0.0
 70
    32
  0
VERTEX
  5
13E7
  8
3
  6
HIDDEN2
 10
28.03990000000001
 20
36.362400000000072
 30
0.0
 70
    32
  0
VERTEX
  5
13E8
  8
3
  6
HIDDEN2
 10
27.912000000000031
 20
36.525534798368852
 30
0.0
 70
    32
  0
SEQEND
  5
13E9
  8
3
  6
HIDDEN2
  0
POLYLINE
  5
13EA
  8
3
  6
HIDDEN2
 66
     1
 10
0.0
 20
0.0
 30
0.0
 70
     8
  0
VERTEX
  5
13EB
  8
3
  6
HIDDEN2
 10
25.512
 20
28.746817541027809
 30
0.0
 70
    32
  0
VERTEX
  5
13EC
  8
3
  6
HIDDEN2
 10
25.715599999999998
 20
28.859600000000089
 30
0.0
 70
    32
  0
VERTEX
  5
13ED
  8
3
  6
HIDDEN2
 10
26.071099999999991
 20
29.076900000000069
 30
0.0
 70
    32
  0
VERTEX
  5
13EE
  8
3
  6
HIDDEN2
 10
26.409499999999969
 20
29.305100000000071
 30
0.0
 70
    32
  0
VERTEX
  5
13EF
  8
3
  6
HIDDEN2
 10
26.712000000000032
 20
29.530229444791139
 30
0.0
 70
    32
  0
SEQEND
  5
13F0
  8
3
  6
HIDDEN2
  0
POLYLINE
  5
13F1
  8
3
  6
HIDDEN2
 66
     1
 10
0.0
 20
0.0
 30
0.0
 70
     8
  0
VERTEX
  5
13F2
  8
3
  6
HIDDEN2
 10
23.11200000000003
 20
27.766149821746971
 30
0.0
 70
    32
  0
VERTEX
  5
13F3
  8
3
  6
HIDDEN2
 10
23.275599999999979
 20
27.812700000000099
 30
0.0
 70
    32
  0
VERTEX
  5
13F4
  8
3
  6
HIDDEN2
 10
23.714000000000009
 20
27.954400000000089
 30
0.0
 70
    32
  0
VERTEX
  5
13F5
  8
3
  6
HIDDEN2
 10
24.141000000000009
 20
28.109700000000071
 30
0.0
 70
    32
  0
VERTEX
  5
13F6
  8
3
  6
HIDDEN2
 10
24.31200000000004
 20
28.179262816493939
 30
0.0
 70
    32
  0
SEQEND
  5
13F7
  8
3
  6
HIDDEN2
  0
POLYLINE
  5
13F8
  8
3
  6
HIDDEN2
 66
     1
 10
0.0
 20
0.0
 30
0.0
 70
     8
  0
VERTEX
  5
13F9
  8
3
  6
HIDDEN2
 10
20.712000000000032
 20
27.292973221670891
 30
0.0
 70
    32
  0
VERTEX
  5
13FA
  8
3
  6
HIDDEN2
 10
20.950900000000001
 20
27.319600000000069
 30
0.0
 70
    32
  0
VERTEX
  5
13FB
  8
3
  6
HIDDEN2
 10
21.4298
 20
27.388700000000082
 30
0.0
 70
    32
  0
VERTEX
  5
13FC
  8
3
  6
HIDDEN2
 10
21.902799999999999
 20
27.472700000000071
 30
0.0
 70
    32
  0
VERTEX
  5
13FD
  8
3
  6
HIDDEN2
 10
21.912000000000031
 20
27.474652113280499
 30
0.0
 70
    32
  0
SEQEND
  5
13FE
  8
3
  6
HIDDEN2
  0
POLYLINE
  5
13FF
  8
3
  6
HIDDEN2
 66
     1
 10
0.0
 20
0.0
 30
0.0
 70
     8
  0
VERTEX
  5
1400
  8
3
  6
HIDDEN2
 10
18.312000000000019
 20
27.213351092952081
 30
0.0
 70
    32
  0
VERTEX
  5
1401
  8
3
  6
HIDDEN2
 10
18.509299999999978
 20
27.204000000000089
 30
0.0
 70
    32
  0
VERTEX
  5
1402
  8
3
  6
HIDDEN2
 10
19.0
 20
27.196200000000069
 30
0.0
 70
    32
  0
VERTEX
  5
1403
  8
3
  6
HIDDEN2
 10
19.4907
 20
27.204000000000089
 30
0.0
 70
    32
  0
VERTEX
  5
1404
  8
3
  6
HIDDEN2
 10
19.512000000000011
 20
27.205009519918359
 30
0.0
 70
    32
  0
SEQEND
  5
1405
  8
3
  6
HIDDEN2
  0
POLYLINE
  5
1406
  8
3
  6
HIDDEN2
 66
     1
 10
0.0
 20
0.0
 30
0.0
 70
     8
  0
VERTEX
  5
1407
  8
3
  6
HIDDEN2
 10
15.912000000000001
 20
27.511996889079668
 30
0.0
 70
    32
  0
VERTEX
  5
1408
  8
3
  6
HIDDEN2
 10
16.097200000000001
 20
27.472700000000071
 30
0.0
 70
    32
  0
VERTEX
  5
1409
  8
3
  6
HIDDEN2
 10
16.5702
 20
27.388700000000082
 30
0.0
 70
    32
  0
VERTEX
  5
140A
  8
3
  6
HIDDEN2
 10
17.049099999999981
 20
27.319600000000069
 30
0.0
 70
    32
  0
VERTEX
  5
140B
  8
3
  6
HIDDEN2
 10
17.11200000000002
 20
27.312589433416129
 30
0.0
 70
    32
  0
SEQEND
  5
140C
  8
3
  6
HIDDEN2
  0
POLYLINE
  5
140D
  8
3
  6
HIDDEN2
 66
     1
 10
0.0
 20
0.0
 30
0.0
 70
     8
  0
VERTEX
  5
140E
  8
3
  6
HIDDEN2
 10
13.512000000000009
 20
28.250859633470061
 30
0.0
 70
    32
  0
VERTEX
  5
140F
  8
3
  6
HIDDEN2
 10
13.85899999999998
 20
28.109700000000071
 30
0.0
 70
    32
  0
VERTEX
  5
1410
  8
3
  6
HIDDEN2
 10
14.286
 20
27.954400000000089
 30
0.0
 70
    32
  0
VERTEX
  5
1411
  8
3
  6
HIDDEN2
 10
14.71200000000003
 20
27.81670793795627
 30
0.0
 70
    32
  0
SEQEND
  5
1412
  8
3
  6
HIDDEN2
  0
POLYLINE
  5
1413
  8
3
  6
HIDDEN2
 66
     1
 10
0.0
 20
0.0
 30
0.0
 70
     8
  0
VERTEX
  5
1414
  8
3
  6
HIDDEN2
 10
11.11200000000002
 20
29.67362764900669
 30
0.0
 70
    32
  0
VERTEX
  5
1415
  8
3
  6
HIDDEN2
 10
11.26990000000001
 20
29.543700000000069
 30
0.0
 70
    32
  0
VERTEX
  5
1416
  8
3
  6
HIDDEN2
 10
11.5905
 20
29.305100000000071
 30
0.0
 70
    32
  0
VERTEX
  5
1417
  8
3
  6
HIDDEN2
 10
11.928900000000001
 20
29.076900000000069
 30
0.0
 70
    32
  0
VERTEX
  5
1418
  8
3
  6
HIDDEN2
 10
12.2844
 20
28.859600000000089
 30
0.0
 70
    32
  0
VERTEX
  5
1419
  8
3
  6
HIDDEN2
 10
12.312000000000021
 20
28.844311218724851
 30
0.0
 70
    32
  0
SEQEND
  5
141A
  8
3
  6
HIDDEN2
  0
POLYLINE
  5
141B
  8
3
  6
HIDDEN2
 66
     1
 10
0.0
 20
0.0
 30
0.0
 70
     8
  0
VERTEX
  5
141C
  8
3
  6
HIDDEN2
 10
9.0
 20
33.617100000000093
 30
0.0
 70
    32
  0
VERTEX
  5
141D
  8
3
  6
HIDDEN2
 10
9.0120000000000005
 20
33.302000000000071
 30
0.0
 70
    32
  0
VERTEX
  5
141E
  8
3
  6
HIDDEN2
 10
9.04819999999998
 20
32.987700000000082
 30
0.0
 70
    32
  0
VERTEX
  5
141F
  8
3
  6
HIDDEN2
 10
9.1081999999999823
 20
32.675000000000082
 30
0.0
 70
    32
  0
VERTEX
  5
1420
  8
3
  6
HIDDEN2
 10
9.1920999999999822
 20
32.364400000000103
 30
0.0
 70
    32
  0
VERTEX
  5
1421
  8
3
  6
HIDDEN2
 10
9.2997000000000014
 20
32.057000000000087
 30
0.0
 70
    32
  0
VERTEX
  5
1422
  8
3
  6
HIDDEN2
 10
9.4305999999999983
 20
31.753200000000088
 30
0.0
 70
    32
  0
VERTEX
  5
1423
  8
3
  6
HIDDEN2
 10
9.5845999999999805
 20
31.454000000000072
 30
0.0
 70
    32
  0
VERTEX
  5
1424
  8
3
  6
HIDDEN2
 10
9.7612000000000023
 20
31.1599000000001
 30
0.0
 70
    32
  0
VERTEX
  5
1425
  8
3
  6
HIDDEN2
 10
9.9120000000000061
 20
30.94147124183014
 30
0.0
 70
    32
  0
SEQEND
  5
1426
  8
3
  6
HIDDEN2
  0
POLYLINE
  5
1427
  8
3
  6
HIDDEN2
 66
     1
 10
0.0
 20
0.0
 30
0.0
 70
     8
  0
VERTEX
  5
1428
  8
3
  6
HIDDEN2
 10
9.9120000000000061
 20
34.902985429141822
 30
0.0
 70
    32
  0
VERTEX
  5
1429
  8
3
  6
HIDDEN2
 10
9.9067000000000007
 20
34.887900000000087
 30
0.0
 70
    32
  0
VERTEX
  5
142A
  8
3
  6
HIDDEN2
 10
9.8285000000000053
 20
34.599900000000083
 30
0.0
 70
    32
  0
VERTEX
  5
142B
  8
3
  6
HIDDEN2
 10
9.7724999999999795
 20
34.309800000000102
 30
0.0
 70
    32
  0
VERTEX
  5
142C
  8
3
  6
HIDDEN2
 10
9.738900000000001
 20
34.018200000000093
 30
0.0
 70
    32
  0
VERTEX
  5
142D
  8
3
  6
HIDDEN2
 10
9.7276999999999845
 20
33.72600000000007
 30
0.0
 70
    32
  0
SEQEND
  5
142E
  8
3
  6
HIDDEN2
  0
POLYLINE
  5
142F
  8
3
  6
HIDDEN2
 66
     1
 10
0.0
 20
0.0
 30
0.0
 70
     8
  0
VERTEX
  5
1430
  8
3
  6
HIDDEN2
 10
12.312000000000021
 20
37.840279226133923
 30
0.0
 70
    32
  0
VERTEX
  5
1431
  8
3
  6
HIDDEN2
 10
12.1412
 20
37.725600000000071
 30
0.0
 70
    32
  0
VERTEX
  5
1432
  8
3
  6
HIDDEN2
 10
11.842499999999999
 20
37.504300000000072
 30
0.0
 70
    32
  0
VERTEX
  5
1433
  8
3
  6
HIDDEN2
 10
11.561199999999999
 20
37.27380000000008
 30
0.0
 70
    32
  0
VERTEX
  5
1434
  8
3
  6
HIDDEN2
 10
11.297899999999981
 20
37.034800000000082
 30
0.0
 70
    32
  0
VERTEX
  5
1435
  8
3
  6
HIDDEN2
 10
11.11200000000002
 20
36.847228647323341
 30
0.0
 70
    32
  0
SEQEND
  5
1436
  8
3
  6
HIDDEN2
  0
POLYLINE
  5
1437
  8
3
  6
HIDDEN2
 66
     1
 10
0.0
 20
0.0
 30
0.0
 70
     8
  0
VERTEX
  5
1438
  8
3
  6
HIDDEN2
 10
14.71200000000003
 20
38.997606878825039
 30
0.0
 70
    32
  0
VERTEX
  5
1439
  8
3
  6
HIDDEN2
 10
14.6526
 20
38.978500000000082
 30
0.0
 70
    32
  0
VERTEX
  5
143A
  8
3
  6
HIDDEN2
 10
14.25469999999998
 20
38.83440000000008
 30
0.0
 70
    32
  0
VERTEX
  5
143B
  8
3
  6
HIDDEN2
 10
13.86839999999998
 20
38.678000000000083
 30
0.0
 70
    32
  0
VERTEX
  5
143C
  8
3
  6
HIDDEN2
 10
13.512000000000009
 20
38.517577106178209
 30
0.0
 70
    32
  0
SEQEND
  5
143D
  8
3
  6
HIDDEN2
  0
POLYLINE
  5
143E
  8
3
  6
HIDDEN2
 66
     1
 10
0.0
 20
0.0
 30
0.0
 70
     8
  0
VERTEX
  5
143F
  8
3
  6
HIDDEN2
 10
17.11200000000002
 20
39.550793747198639
 30
0.0
 70
    32
  0
VERTEX
  5
1440
  8
3
  6
HIDDEN2
 10
16.780699999999982
 20
39.503200000000071
 30
0.0
 70
    32
  0
VERTEX
  5
1441
  8
3
  6
HIDDEN2
 10
16.34
 20
39.425300000000071
 30
0.0
 70
    32
  0
VERTEX
  5
1442
  8
3
  6
HIDDEN2
 10
15.912000000000001
 20
39.33490939659152
 30
0.0
 70
    32
  0
SEQEND
  5
1443
  8
3
  6
HIDDEN2
  0
POLYLINE
  5
1444
  8
3
  6
HIDDEN2
 66
     1
 10
0.0
 20
0.0
 30
0.0
 70
     8
  0
VERTEX
  5
1445
  8
3
  6
HIDDEN2
 10
19.512000000000011
 20
39.67401436403518
 30
0.0
 70
    32
  0
VERTEX
  5
1446
  8
3
  6
HIDDEN2
 10
19.501699999999978
 20
39.67450000000008
 30
0.0
 70
    32
  0
VERTEX
  5
1447
  8
3
  6
HIDDEN2
 10
19.044499999999982
 20
39.681700000000063
 30
0.0
 70
    32
  0
VERTEX
  5
1448
  8
3
  6
HIDDEN2
 10
18.587399999999999
 20
39.67450000000008
 30
0.0
 70
    32
  0
VERTEX
  5
1449
  8
3
  6
HIDDEN2
 10
18.312000000000019
 20
39.661517978513572
 30
0.0
 70
    32
  0
SEQEND
  5
144A
  8
3
  6
HIDDEN2
  0
POLYLINE
  5
144B
  8
3
  6
HIDDEN2
 66
     1
 10
0.0
 20
0.0
 30
0.0
 70
     8
  0
VERTEX
  5
144C
  8
3
  6
HIDDEN2
 10
21.912000000000031
 20
39.390896660525172
 30
0.0
 70
    32
  0
VERTEX
  5
144D
  8
3
  6
HIDDEN2
 10
21.749099999999981
 20
39.425300000000071
 30
0.0
 70
    32
  0
VERTEX
  5
144E
  8
3
  6
HIDDEN2
 10
21.308299999999999
 20
39.503200000000071
 30
0.0
 70
    32
  0
VERTEX
  5
144F
  8
3
  6
HIDDEN2
 10
20.862100000000002
 20
39.567300000000081
 30
0.0
 70
    32
  0
VERTEX
  5
1450
  8
3
  6
HIDDEN2
 10
20.712000000000032
 20
39.583925948945691
 30
0.0
 70
    32
  0
SEQEND
  5
1451
  8
3
  6
HIDDEN2
  0
POLYLINE
  5
1452
  8
3
  6
HIDDEN2
 66
     1
 10
0.0
 20
0.0
 30
0.0
 70
     8
  0
VERTEX
  5
1453
  8
3
  6
HIDDEN2
 10
24.31200000000004
 20
38.636893017656547
 30
0.0
 70
    32
  0
VERTEX
  5
1454
  8
3
  6
HIDDEN2
 10
24.220700000000001
 20
38.678000000000083
 30
0.0
 70
    32
  0
VERTEX
  5
1455
  8
3
  6
HIDDEN2
 10
23.834299999999981
 20
38.83440000000008
 30
0.0
 70
    32
  0
VERTEX
  5
1456
  8
3
  6
HIDDEN2
 10
23.43640000000001
 20
38.978500000000082
 30
0.0
 70
    32
  0
VERTEX
  5
1457
  8
3
  6
HIDDEN2
 10
23.11200000000003
 20
39.082873555337962
 30
0.0
 70
    32
  0
SEQEND
  5
1458
  8
3
  6
HIDDEN2
  0
POLYLINE
  5
1459
  8
3
  6
HIDDEN2
 66
     1
 10
0.0
 20
0.0
 30
0.0
 70
     8
  0
VERTEX
  5
145A
  8
3
  6
HIDDEN2
 10
26.712000000000032
 20
37.106690619065752
 30
0.0
 70
    32
  0
VERTEX
  5
145B
  8
3
  6
HIDDEN2
 10
26.527899999999999
 20
37.27380000000008
 30
0.0
 70
    32
  0
VERTEX
  5
145C
  8
3
  6
HIDDEN2
 10
26.24649999999999
 20
37.504300000000072
 30
0.0
 70
    32
  0
VERTEX
  5
145D
  8
3
  6
HIDDEN2
 10
25.947800000000001
 20
37.725600000000071
 30
0.0
 70
    32
  0
VERTEX
  5
145E
  8
3
  6
HIDDEN2
 10
25.632499999999961
 20
37.937300000000072
 30
0.0
 70
    32
  0
VERTEX
  5
145F
  8
3
  6
HIDDEN2
 10
25.512
 20
38.010647826087002
 30
0.0
 70
    32
  0
SEQEND
  5
1460
  8
3
  6
HIDDEN2
  0
POLYLINE
  5
1461
  8
3
  6
HIDDEN2
 66
     1
 10
0.0
 20
0.0
 30
0.0
 70
     8
  0
VERTEX
  5
1462
  8
3
  6
HIDDEN2
 10
27.912000000000031
 20
31.903957351916549
 30
0.0
 70
    32
  0
VERTEX
  5
1463
  8
3
  6
HIDDEN2
 10
27.96019999999999
 20
31.997200000000099
 30
0.0
 70
    32
  0
VERTEX
  5
1464
  8
3
  6
HIDDEN2
 10
28.082099999999979
 20
32.278900000000093
 30
0.0
 70
    32
  0
VERTEX
  5
1465
  8
3
  6
HIDDEN2
 10
28.18229999999998
 20
32.564100000000082
 30
0.0
 70
    32
  0
VERTEX
  5
1466
  8
3
  6
HIDDEN2
 10
28.260499999999968
 20
32.852100000000092
 30
0.0
 70
    32
  0
VERTEX
  5
1467
  8
3
  6
HIDDEN2
 10
28.316500000000008
 20
33.142300000000091
 30
0.0
 70
    32
  0
VERTEX
  5
1468
  8
3
  6
HIDDEN2
 10
28.350099999999991
 20
33.433800000000083
 30
0.0
 70
    32
  0
VERTEX
  5
1469
  8
3
  6
HIDDEN2
 10
28.3614
 20
33.72600000000007
 30
0.0
 70
    32
  0
VERTEX
  5
146A
  8
3
  6
HIDDEN2
 10
28.350099999999991
 20
34.018200000000093
 30
0.0
 70
    32
  0
VERTEX
  5
146B
  8
3
  6
HIDDEN2
 10
28.316500000000008
 20
34.309800000000102
 30
0.0
 70
    32
  0
VERTEX
  5
146C
  8
3
  6
HIDDEN2
 10
28.260499999999968
 20
34.599900000000083
 30
0.0
 70
    32
  0
VERTEX
  5
146D
  8
3
  6
HIDDEN2
 10
28.18229999999998
 20
34.887900000000087
 30
0.0
 70
    32
  0
VERTEX
  5
146E
  8
3
  6
HIDDEN2
 10
28.082099999999979
 20
35.173100000000083
 30
0.0
 70
    32
  0
VERTEX
  5
146F
  8
3
  6
HIDDEN2
 10
27.96019999999999
 20
35.45490000000008
 30
0.0
 70
    32
  0
VERTEX
  5
1470
  8
3
  6
HIDDEN2
 10
27.912000000000031
 20
35.548109059233433
 30
0.0
 70
    32
  0
SEQEND
  5
1471
  8
3
  6
HIDDEN2
  0
POLYLINE
  5
1472
  8
3
  6
HIDDEN2
 66
     1
 10
0.0
 20
0.0
 30
0.0
 70
     8
  0
VERTEX
  5
1473
  8
3
  6
HIDDEN2
 10
25.512
 20
29.441352173913149
 30
0.0
 70
    32
  0
VERTEX
  5
1474
  8
3
  6
HIDDEN2
 10
25.632499999999961
 20
29.514700000000069
 30
0.0
 70
    32
  0
VERTEX
  5
1475
  8
3
  6
HIDDEN2
 10
25.947800000000001
 20
29.726400000000101
 30
0.0
 70
    32
  0
VERTEX
  5
1476
  8
3
  6
HIDDEN2
 10
26.24649999999999
 20
29.947800000000068
 30
0.0
 70
    32
  0
VERTEX
  5
1477
  8
3
  6
HIDDEN2
 10
26.527899999999999
 20
30.178200000000071
 30
0.0
 70
    32
  0
VERTEX
  5
1478
  8
3
  6
HIDDEN2
 10
26.712000000000032
 20
30.34530938093441
 30
0.0
 70
    32
  0
SEQEND
  5
1479
  8
3
  6
HIDDEN2
  0
POLYLINE
  5
147A
  8
3
  6
HIDDEN2
 66
     1
 10
0.0
 20
0.0
 30
0.0
 70
     8
  0
VERTEX
  5
147B
  8
3
  6
HIDDEN2
 10
23.11200000000003
 20
28.369147012732711
 30
0.0
 70
    32
  0
VERTEX
  5
147C
  8
3
  6
HIDDEN2
 10
23.43640000000001
 20
28.473600000000101
 30
0.0
 70
    32
  0
VERTEX
  5
147D
  8
3
  6
HIDDEN2
 10
23.834299999999981
 20
28.617600000000071
 30
0.0
 70
    32
  0
VERTEX
  5
147E
  8
3
  6
HIDDEN2
 10
24.220700000000001
 20
28.7740000000001
 30
0.0
 70
    32
  0
VERTEX
  5
147F
  8
3
  6
HIDDEN2
 10
24.31200000000004
 20
28.815131407169709
 30
0.0
 70
    32
  0
SEQEND
  5
1480
  8
3
  6
HIDDEN2
  0
POLYLINE
  5
1481
  8
3
  6
HIDDEN2
 66
     1
 10
0.0
 20
0.0
 30
0.0
 70
     8
  0
VERTEX
  5
1482
  8
3
  6
HIDDEN2
 10
20.712000000000032
 20
27.86814073251951
 30
0.0
 70
    32
  0
VERTEX
  5
1483
  8
3
  6
HIDDEN2
 10
20.862100000000002
 20
27.88480000000008
 30
0.0
 70
    32
  0
VERTEX
  5
1484
  8
3
  6
HIDDEN2
 10
21.308299999999999
 20
27.94880000000007
 30
0.0
 70
    32
  0
VERTEX
  5
1485
  8
3
  6
HIDDEN2
 10
21.749099999999981
 20
28.026800000000069
 30
0.0
 70
    32
  0
VERTEX
  5
1486
  8
3
  6
HIDDEN2
 10
21.912000000000031
 20
28.061203339474979
 30
0.0
 70
    32
  0
SEQEND
  5
1487
  8
3
  6
HIDDEN2
  0
POLYLINE
  5
1488
  8
3
  6
HIDDEN2
 66
     1
 10
0.0
 20
0.0
 30
0.0
 70
     8
  0
VERTEX
  5
1489
  8
3
  6
HIDDEN2
 10
18.312000000000019
 20
27.790482021486589
 30
0.0
 70
    32
  0
VERTEX
  5
148A
  8
3
  6
HIDDEN2
 10
18.587399999999999
 20
27.777500000000089
 30
0.0
 70
    32
  0
VERTEX
  5
148B
  8
3
  6
HIDDEN2
 10
19.044499999999982
 20
27.770300000000081
 30
0.0
 70
    32
  0
VERTEX
  5
148C
  8
3
  6
HIDDEN2
 10
19.501699999999978
 20
27.777500000000089
 30
0.0
 70
    32
  0
VERTEX
  5
148D
  8
3
  6
HIDDEN2
 10
19.512000000000011
 20
27.777985635964988
 30
0.0
 70
    32
  0
SEQEND
  5
148E
  8
3
  6
HIDDEN2
  0
POLYLINE
  5
148F
  8
3
  6
HIDDEN2
 66
     1
 10
0.0
 20
0.0
 30
0.0
 70
     8
  0
VERTEX
  5
1490
  8
3
  6
HIDDEN2
 10
15.912000000000001
 20
28.117190603408641
 30
0.0
 70
    32
  0
VERTEX
  5
1491
  8
3
  6
HIDDEN2
 10
16.34
 20
28.026800000000069
 30
0.0
 70
    32
  0
VERTEX
  5
1492
  8
3
  6
HIDDEN2
 10
16.780699999999982
 20
27.94880000000007
 30
0.0
 70
    32
  0
VERTEX
  5
1493
  8
3
  6
HIDDEN2
 10
17.11200000000002
 20
27.901280502017109
 30
0.0
 70
    32
  0
SEQEND
  5
1494
  8
3
  6
HIDDEN2
  0
POLYLINE
  5
1495
  8
3
  6
HIDDEN2
 66
     1
 10
0.0
 20
0.0
 30
0.0
 70
     8
  0
VERTEX
  5
1496
  8
3
  6
HIDDEN2
 10
13.512000000000009
 20
28.93451821342612
 30
0.0
 70
    32
  0
VERTEX
  5
1497
  8
3
  6
HIDDEN2
 10
13.86839999999998
 20
28.7740000000001
 30
0.0
 70
    32
  0
VERTEX
  5
1498
  8
3
  6
HIDDEN2
 10
14.25469999999998
 20
28.617600000000071
 30
0.0
 70
    32
  0
VERTEX
  5
1499
  8
3
  6
HIDDEN2
 10
14.6526
 20
28.473600000000101
 30
0.0
 70
    32
  0
VERTEX
  5
149A
  8
3
  6
HIDDEN2
 10
14.71200000000003
 20
28.454478580171429
 30
0.0
 70
    32
  0
SEQEND
  5
149B
  8
3
  6
HIDDEN2
  0
POLYLINE
  5
149C
  8
3
  6
HIDDEN2
 66
     1
 10
0.0
 20
0.0
 30
0.0
 70
     8
  0
VERTEX
  5
149D
  8
3
  6
HIDDEN2
 10
11.11200000000002
 20
30.60484732325304
 30
0.0
 70
    32
  0
VERTEX
  5
149E
  8
3
  6
HIDDEN2
 10
11.297899999999981
 20
30.417200000000069
 30
0.0
 70
    32
  0
VERTEX
  5
149F
  8
3
  6
HIDDEN2
 10
11.561199999999999
 20
30.178200000000071
 30
0.0
 70
    32
  0
VERTEX
  5
14A0
  8
3
  6
HIDDEN2
 10
11.842499999999999
 20
29.947800000000068
 30
0.0
 70
    32
  0
VERTEX
  5
14A1
  8
3
  6
HIDDEN2
 10
12.1412
 20
29.726400000000101
 30
0.0
 70
    32
  0
VERTEX
  5
14A2
  8
3
  6
HIDDEN2
 10
12.312000000000021
 20
29.611720773866232
 30
0.0
 70
    32
  0
SEQEND
  5
14A3
  8
3
  6
HIDDEN2
  0
POLYLINE
  5
14A4
  8
3
  6
HIDDEN2
 66
     1
 10
0.0
 20
0.0
 30
0.0
 70
     8
  0
VERTEX
  5
14A5
  8
3
  6
HIDDEN2
 10
9.7276999999999845
 20
33.72600000000007
 30
0.0
 70
    32
  0
VERTEX
  5
14A6
  8
3
  6
HIDDEN2
 10
9.738900000000001
 20
33.433800000000083
 30
0.0
 70
    32
  0
VERTEX
  5
14A7
  8
3
  6
HIDDEN2
 10
9.7724999999999795
 20
33.142300000000091
 30
0.0
 70
    32
  0
VERTEX
  5
14A8
  8
3
  6
HIDDEN2
 10
9.8285000000000053
 20
32.852100000000092
 30
0.0
 70
    32
  0
VERTEX
  5
14A9
  8
3
  6
HIDDEN2
 10
9.9067000000000007
 20
32.564100000000082
 30
0.0
 70
    32
  0
VERTEX
  5
14AA
  8
3
  6
HIDDEN2
 10
9.9120000000000061
 20
32.549014570858361
 30
0.0
 70
    32
  0
SEQEND
  5
14AB
  8
3
  6
HIDDEN2
  0
LINE
  5
14AC
  8
4
  6
CENTER2
 10
7.8288558604570246
 20
34.471999940321602
 30
0.0
 11
30.23747583261455
 21
34.471999940321602
 31
0.0
  0
LINE
  5
14AD
  8
4
  6
CENTER2
 10
19.0
 20
26.58187767267756
 30
0.0
 11
19.0
 21
41.363930717114791
 31
0.0
  0
POLYLINE
  5
14AE
  8
3
  6
HIDDEN2
 66
     1
 10
0.0
 20
0.0
 30
0.0
 70
     8
  0
VERTEX
  5
14AF
  8
3
  6
HIDDEN2
 10
9.9120000000000061
 20
-36.292704575163341
 30
0.0
 70
    32
  0
VERTEX
  5
14B0
  8
3
  6
HIDDEN2
 10
9.7612000000000023
 20
-36.074199999999927
 30
0.0
 70
    32
  0
VERTEX
  5
14B1
  8
3
  6
HIDDEN2
 10
9.5845999999999805
 20
-35.780199999999923
 30
0.0
 70
    32
  0
VERTEX
  5
14B2
  8
3
  6
HIDDEN2
 10
9.4305999999999983
 20
-35.480999999999931
 30
0.0
 70
    32
  0
VERTEX
  5
14B3
  8
3
  6
HIDDEN2
 10
9.2997000000000014
 20
-35.177199999999928
 30
0.0
 70
    32
  0
VERTEX
  5
14B4
  8
3
  6
HIDDEN2
 10
9.1920999999999822
 20
-34.869699999999924
 30
0.0
 70
    32
  0
VERTEX
  5
14B5
  8
3
  6
HIDDEN2
 10
9.1081999999999823
 20
-34.559199999999919
 30
0.0
 70
    32
  0
VERTEX
  5
14B6
  8
3
  6
HIDDEN2
 10
9.04819999999998
 20
-34.24639999999993
 30
0.0
 70
    32
  0
VERTEX
  5
14B7
  8
3
  6
HIDDEN2
 10
9.0120000000000005
 20
-33.932099999999942
 30
0.0
 70
    32
  0
VERTEX
  5
14B8
  8
3
  6
HIDDEN2
 10
9.0
 20
-33.61709999999993
 30
0.0
 70
    32
  0
SEQEND
  5
14B9
  8
3
  6
HIDDEN2
  0
POLYLINE
  5
14BA
  8
3
  6
HIDDEN2
 66
     1
 10
0.0
 20
0.0
 30
0.0
 70
     8
  0
VERTEX
  5
14BB
  8
3
  6
HIDDEN2
 10
12.312000000000021
 20
-38.389888781275161
 30
0.0
 70
    32
  0
VERTEX
  5
14BC
  8
3
  6
HIDDEN2
 10
12.2844
 20
-38.374599999999937
 30
0.0
 70
    32
  0
VERTEX
  5
14BD
  8
3
  6
HIDDEN2
 10
11.928900000000001
 20
-38.157299999999928
 30
0.0
 70
    32
  0
VERTEX
  5
14BE
  8
3
  6
HIDDEN2
 10
11.5905
 20
-37.929099999999927
 30
0.0
 70
    32
  0
VERTEX
  5
14BF
  8
3
  6
HIDDEN2
 10
11.26990000000001
 20
-37.690399999999933
 30
0.0
 70
    32
  0
VERTEX
  5
14C0
  8
3
  6
HIDDEN2
 10
11.11200000000002
 20
-37.560524635761539
 30
0.0
 70
    32
  0
SEQEND
  5
14C1
  8
3
  6
HIDDEN2
  0
POLYLINE
  5
14C2
  8
3
  6
HIDDEN2
 66
     1
 10
0.0
 20
0.0
 30
0.0
 70
     8
  0
VERTEX
  5
14C3
  8
3
  6
HIDDEN2
 10
14.71200000000003
 20
-39.417492062043728
 30
0.0
 70
    32
  0
VERTEX
  5
14C4
  8
3
  6
HIDDEN2
 10
14.286
 20
-39.279799999999931
 30
0.0
 70
    32
  0
VERTEX
  5
14C5
  8
3
  6
HIDDEN2
 10
13.85899999999998
 20
-39.12439999999993
 30
0.0
 70
    32
  0
VERTEX
  5
14C6
  8
3
  6
HIDDEN2
 10
13.512000000000009
 20
-38.983324041475697
 30
0.0
 70
    32
  0
SEQEND
  5
14C7
  8
3
  6
HIDDEN2
  0
POLYLINE
  5
14C8
  8
3
  6
HIDDEN2
 66
     1
 10
0.0
 20
0.0
 30
0.0
 70
     8
  0
VERTEX
  5
14C9
  8
3
  6
HIDDEN2
 10
17.11200000000002
 20
-39.921597559966841
 30
0.0
 70
    32
  0
VERTEX
  5
14CA
  8
3
  6
HIDDEN2
 10
17.049099999999981
 20
-39.914599999999943
 30
0.0
 70
    32
  0
VERTEX
  5
14CB
  8
3
  6
HIDDEN2
 10
16.5702
 20
-39.84549999999993
 30
0.0
 70
    32
  0
VERTEX
  5
14CC
  8
3
  6
HIDDEN2
 10
16.097200000000001
 20
-39.761499999999927
 30
0.0
 70
    32
  0
VERTEX
  5
14CD
  8
3
  6
HIDDEN2
 10
15.912000000000001
 20
-39.722203110920319
 30
0.0
 70
    32
  0
SEQEND
  5
14CE
  8
3
  6
HIDDEN2
  0
POLYLINE
  5
14CF
  8
3
  6
HIDDEN2
 66
     1
 10
0.0
 20
0.0
 30
0.0
 70
     8
  0
VERTEX
  5
14D0
  8
3
  6
HIDDEN2
 10
19.512000000000011
 20
-40.029190480081617
 30
0.0
 70
    32
  0
VERTEX
  5
14D1
  8
3
  6
HIDDEN2
 10
19.4907
 20
-40.030199999999908
 30
0.0
 70
    32
  0
VERTEX
  5
14D2
  8
3
  6
HIDDEN2
 10
19.0
 20
-40.037899999999901
 30
0.0
 70
    32
  0
VERTEX
  5
14D3
  8
3
  6
HIDDEN2
 10
18.509299999999978
 20
-40.030199999999908
 30
0.0
 70
    32
  0
VERTEX
  5
14D4
  8
3
  6
HIDDEN2
 10
18.312000000000019
 20
-40.02084890704792
 30
0.0
 70
    32
  0
SEQEND
  5
14D5
  8
3
  6
HIDDEN2
  0
POLYLINE
  5
14D6
  8
3
  6
HIDDEN2
 66
     1
 10
0.0
 20
0.0
 30
0.0
 70
     8
  0
VERTEX
  5
14D7
  8
3
  6
HIDDEN2
 10
21.912000000000031
 20
-39.759547886719503
 30
0.0
 70
    32
  0
VERTEX
  5
14D8
  8
3
  6
HIDDEN2
 10
21.902799999999999
 20
-39.761499999999927
 30
0.0
 70
    32
  0
VERTEX
  5
14D9
  8
3
  6
HIDDEN2
 10
21.4298
 20
-39.84549999999993
 30
0.0
 70
    32
  0
VERTEX
  5
14DA
  8
3
  6
HIDDEN2
 10
20.950900000000001
 20
-39.914599999999943
 30
0.0
 70
    32
  0
VERTEX
  5
14DB
  8
3
  6
HIDDEN2
 10
20.712000000000032
 20
-39.941177377998272
 30
0.0
 70
    32
  0
SEQEND
  5
14DC
  8
3
  6
HIDDEN2
  0
POLYLINE
  5
14DD
  8
3
  6
HIDDEN2
 66
     1
 10
0.0
 20
0.0
 30
0.0
 70
     8
  0
VERTEX
  5
14DE
  8
3
  6
HIDDEN2
 10
24.31200000000004
 20
-39.054878418133498
 30
0.0
 70
    32
  0
VERTEX
  5
14DF
  8
3
  6
HIDDEN2
 10
24.141000000000009
 20
-39.12439999999993
 30
0.0
 70
    32
  0
VERTEX
  5
14E0
  8
3
  6
HIDDEN2
 10
23.714000000000009
 20
-39.279799999999931
 30
0.0
 70
    32
  0
VERTEX
  5
14E1
  8
3
  6
HIDDEN2
 10
23.275599999999979
 20
-39.421499999999931
 30
0.0
 70
    32
  0
VERTEX
  5
14E2
  8
3
  6
HIDDEN2
 10
23.11200000000003
 20
-39.468050178253037
 30
0.0
 70
    32
  0
SEQEND
  5
14E3
  8
3
  6
HIDDEN2
  0
POLYLINE
  5
14E4
  8
3
  6
HIDDEN2
 66
     1
 10
0.0
 20
0.0
 30
0.0
 70
     8
  0
VERTEX
  5
14E5
  8
3
  6
HIDDEN2
 10
26.712000000000032
 20
-37.703876200873253
 30
0.0
 70
    32
  0
VERTEX
  5
14E6
  8
3
  6
HIDDEN2
 10
26.409499999999969
 20
-37.929099999999927
 30
0.0
 70
    32
  0
VERTEX
  5
14E7
  8
3
  6
HIDDEN2
 10
26.071099999999991
 20
-38.157299999999928
 30
0.0
 70
    32
  0
VERTEX
  5
14E8
  8
3
  6
HIDDEN2
 10
25.715599999999998
 20
-38.374599999999937
 30
0.0
 70
    32
  0
VERTEX
  5
14E9
  8
3
  6
HIDDEN2
 10
25.512
 20
-38.487382458972192
 30
0.0
 70
    32
  0
SEQEND
  5
14EA
  8
3
  6
HIDDEN2
  0
POLYLINE
  5
14EB
  8
3
  6
HIDDEN2
 66
     1
 10
0.0
 20
0.0
 30
0.0
 70
     8
  0
VERTEX
  5
14EC
  8
3
  6
HIDDEN2
 10
27.912000000000031
 20
-30.70866520163117
 30
0.0
 70
    32
  0
VERTEX
  5
14ED
  8
3
  6
HIDDEN2
 10
28.03990000000001
 20
-30.871799999999929
 30
0.0
 70
    32
  0
VERTEX
  5
14EE
  8
3
  6
HIDDEN2
 10
28.238800000000001
 20
-31.159899999999929
 30
0.0
 70
    32
  0
VERTEX
  5
14EF
  8
3
  6
HIDDEN2
 10
28.415400000000009
 20
-31.45399999999993
 30
0.0
 70
    32
  0
VERTEX
  5
14F0
  8
3
  6
HIDDEN2
 10
28.569399999999991
 20
-31.753199999999929
 30
0.0
 70
    32
  0
VERTEX
  5
14F1
  8
3
  6
HIDDEN2
 10
28.700299999999981
 20
-32.056999999999931
 30
0.0
 70
    32
  0
VERTEX
  5
14F2
  8
3
  6
HIDDEN2
 10
28.807900000000011
 20
-32.364399999999932
 30
0.0
 70
    32
  0
VERTEX
  5
14F3
  8
3
  6
HIDDEN2
 10
28.891800000000011
 20
-32.674999999999933
 30
0.0
 70
    32
  0
VERTEX
  5
14F4
  8
3
  6
HIDDEN2
 10
28.951800000000009
 20
-32.987699999999933
 30
0.0
 70
    32
  0
VERTEX
  5
14F5
  8
3
  6
HIDDEN2
 10
28.987999999999989
 20
-33.301999999999943
 30
0.0
 70
    32
  0
VERTEX
  5
14F6
  8
3
  6
HIDDEN2
 10
29.0
 20
-33.61709999999993
 30
0.0
 70
    32
  0
VERTEX
  5
14F7
  8
3
  6
HIDDEN2
 10
28.987999999999989
 20
-33.932099999999942
 30
0.0
 70
    32
  0
VERTEX
  5
14F8
  8
3
  6
HIDDEN2
 10
28.951800000000009
 20
-34.24639999999993
 30
0.0
 70
    32
  0
VERTEX
  5
14F9
  8
3
  6
HIDDEN2
 10
28.891800000000011
 20
-34.559199999999919
 30
0.0
 70
    32
  0
VERTEX
  5
14FA
  8
3
  6
HIDDEN2
 10
28.807900000000011
 20
-34.869699999999924
 30
0.0
 70
    32
  0
VERTEX
  5
14FB
  8
3
  6
HIDDEN2
 10
28.700299999999981
 20
-35.177199999999928
 30
0.0
 70
    32
  0
VERTEX
  5
14FC
  8
3
  6
HIDDEN2
 10
28.569399999999991
 20
-35.480999999999931
 30
0.0
 70
    32
  0
VERTEX
  5
14FD
  8
3
  6
HIDDEN2
 10
28.415400000000009
 20
-35.780199999999923
 30
0.0
 70
    32
  0
VERTEX
  5
14FE
  8
3
  6
HIDDEN2
 10
28.238800000000001
 20
-36.074199999999927
 30
0.0
 70
    32
  0
VERTEX
  5
14FF
  8
3
  6
HIDDEN2
 10
28.03990000000001
 20
-36.36239999999993
 30
0.0
 70
    32
  0
VERTEX
  5
1500
  8
3
  6
HIDDEN2
 10
27.912000000000031
 20
-36.525534798368689
 30
0.0
 70
    32
  0
SEQEND
  5
1501
  8
3
  6
HIDDEN2
  0
POLYLINE
  5
1502
  8
3
  6
HIDDEN2
 66
     1
 10
0.0
 20
0.0
 30
0.0
 70
     8
  0
VERTEX
  5
1503
  8
3
  6
HIDDEN2
 10
25.512
 20
-28.74681754102766
 30
0.0
 70
    32
  0
VERTEX
  5
1504
  8
3
  6
HIDDEN2
 10
25.715599999999998
 20
-28.859599999999929
 30
0.0
 70
    32
  0
VERTEX
  5
1505
  8
3
  6
HIDDEN2
 10
26.071099999999991
 20
-29.076899999999931
 30
0.0
 70
    32
  0
VERTEX
  5
1506
  8
3
  6
HIDDEN2
 10
26.409499999999969
 20
-29.305099999999928
 30
0.0
 70
    32
  0
VERTEX
  5
1507
  8
3
  6
HIDDEN2
 10
26.712000000000032
 20
-29.530229444790979
 30
0.0
 70
    32
  0
SEQEND
  5
1508
  8
3
  6
HIDDEN2
  0
POLYLINE
  5
1509
  8
3
  6
HIDDEN2
 66
     1
 10
0.0
 20
0.0
 30
0.0
 70
     8
  0
VERTEX
  5
150A
  8
3
  6
HIDDEN2
 10
23.11200000000003
 20
-27.766149821746819
 30
0.0
 70
    32
  0
VERTEX
  5
150B
  8
3
  6
HIDDEN2
 10
23.275599999999979
 20
-27.812699999999928
 30
0.0
 70
    32
  0
VERTEX
  5
150C
  8
3
  6
HIDDEN2
 10
23.714000000000009
 20
-27.954399999999929
 30
0.0
 70
    32
  0
VERTEX
  5
150D
  8
3
  6
HIDDEN2
 10
24.141000000000009
 20
-28.109699999999929
 30
0.0
 70
    32
  0
VERTEX
  5
150E
  8
3
  6
HIDDEN2
 10
24.31200000000004
 20
-28.1792628164938
 30
0.0
 70
    32
  0
SEQEND
  5
150F
  8
3
  6
HIDDEN2
  0
POLYLINE
  5
1510
  8
3
  6
HIDDEN2
 66
     1
 10
0.0
 20
0.0
 30
0.0
 70
     8
  0
VERTEX
  5
1511
  8
3
  6
HIDDEN2
 10
20.712000000000032
 20
-27.292973221670731
 30
0.0
 70
    32
  0
VERTEX
  5
1512
  8
3
  6
HIDDEN2
 10
20.950900000000001
 20
-27.31959999999993
 30
0.0
 70
    32
  0
VERTEX
  5
1513
  8
3
  6
HIDDEN2
 10
21.4298
 20
-27.388699999999929
 30
0.0
 70
    32
  0
VERTEX
  5
1514
  8
3
  6
HIDDEN2
 10
21.902799999999999
 20
-27.472699999999929
 30
0.0
 70
    32
  0
VERTEX
  5
1515
  8
3
  6
HIDDEN2
 10
21.912000000000031
 20
-27.474652113280349
 30
0.0
 70
    32
  0
SEQEND
  5
1516
  8
3
  6
HIDDEN2
  0
POLYLINE
  5
1517
  8
3
  6
HIDDEN2
 66
     1
 10
0.0
 20
0.0
 30
0.0
 70
     8
  0
VERTEX
  5
1518
  8
3
  6
HIDDEN2
 10
18.312000000000019
 20
-27.213351092951932
 30
0.0
 70
    32
  0
VERTEX
  5
1519
  8
3
  6
HIDDEN2
 10
18.509299999999978
 20
-27.20399999999993
 30
0.0
 70
    32
  0
VERTEX
  5
151A
  8
3
  6
HIDDEN2
 10
19.0
 20
-27.19619999999993
 30
0.0
 70
    32
  0
VERTEX
  5
151B
  8
3
  6
HIDDEN2
 10
19.4907
 20
-27.20399999999993
 30
0.0
 70
    32
  0
VERTEX
  5
151C
  8
3
  6
HIDDEN2
 10
19.512000000000011
 20
-27.20500951991821
 30
0.0
 70
    32
  0
SEQEND
  5
151D
  8
3
  6
HIDDEN2
  0
POLYLINE
  5
151E
  8
3
  6
HIDDEN2
 66
     1
 10
0.0
 20
0.0
 30
0.0
 70
     8
  0
VERTEX
  5
151F
  8
3
  6
HIDDEN2
 10
15.912000000000001
 20
-27.511996889079519
 30
0.0
 70
    32
  0
VERTEX
  5
1520
  8
3
  6
HIDDEN2
 10
16.097200000000001
 20
-27.472699999999929
 30
0.0
 70
    32
  0
VERTEX
  5
1521
  8
3
  6
HIDDEN2
 10
16.5702
 20
-27.388699999999929
 30
0.0
 70
    32
  0
VERTEX
  5
1522
  8
3
  6
HIDDEN2
 10
17.049099999999981
 20
-27.31959999999993
 30
0.0
 70
    32
  0
VERTEX
  5
1523
  8
3
  6
HIDDEN2
 10
17.11200000000002
 20
-27.312589433415969
 30
0.0
 70
    32
  0
SEQEND
  5
1524
  8
3
  6
HIDDEN2
  0
POLYLINE
  5
1525
  8
3
  6
HIDDEN2
 66
     1
 10
0.0
 20
0.0
 30
0.0
 70
     8
  0
VERTEX
  5
1526
  8
3
  6
HIDDEN2
 10
13.512000000000009
 20
-28.250859633469911
 30
0.0
 70
    32
  0
VERTEX
  5
1527
  8
3
  6
HIDDEN2
 10
13.85899999999998
 20
-28.109699999999929
 30
0.0
 70
    32
  0
VERTEX
  5
1528
  8
3
  6
HIDDEN2
 10
14.286
 20
-27.954399999999929
 30
0.0
 70
    32
  0
VERTEX
  5
1529
  8
3
  6
HIDDEN2
 10
14.71200000000003
 20
-27.816707937956132
 30
0.0
 70
    32
  0
SEQEND
  5
152A
  8
3
  6
HIDDEN2
  0
POLYLINE
  5
152B
  8
3
  6
HIDDEN2
 66
     1
 10
0.0
 20
0.0
 30
0.0
 70
     8
  0
VERTEX
  5
152C
  8
3
  6
HIDDEN2
 10
11.11200000000002
 20
-29.673627649006551
 30
0.0
 70
    32
  0
VERTEX
  5
152D
  8
3
  6
HIDDEN2
 10
11.26990000000001
 20
-29.54369999999993
 30
0.0
 70
    32
  0
VERTEX
  5
152E
  8
3
  6
HIDDEN2
 10
11.5905
 20
-29.305099999999928
 30
0.0
 70
    32
  0
VERTEX
  5
152F
  8
3
  6
HIDDEN2
 10
11.928900000000001
 20
-29.076899999999931
 30
0.0
 70
    32
  0
VERTEX
  5
1530
  8
3
  6
HIDDEN2
 10
12.2844
 20
-28.859599999999929
 30
0.0
 70
    32
  0
VERTEX
  5
1531
  8
3
  6
HIDDEN2
 10
12.312000000000021
 20
-28.844311218724702
 30
0.0
 70
    32
  0
SEQEND
  5
1532
  8
3
  6
HIDDEN2
  0
POLYLINE
  5
1533
  8
3
  6
HIDDEN2
 66
     1
 10
0.0
 20
0.0
 30
0.0
 70
     8
  0
VERTEX
  5
1534
  8
3
  6
HIDDEN2
 10
9.0
 20
-33.61709999999993
 30
0.0
 70
    32
  0
VERTEX
  5
1535
  8
3
  6
HIDDEN2
 10
9.0120000000000005
 20
-33.301999999999943
 30
0.0
 70
    32
  0
VERTEX
  5
1536
  8
3
  6
HIDDEN2
 10
9.04819999999998
 20
-32.987699999999933
 30
0.0
 70
    32
  0
VERTEX
  5
1537
  8
3
  6
HIDDEN2
 10
9.1081999999999823
 20
-32.674999999999933
 30
0.0
 70
    32
  0
VERTEX
  5
1538
  8
3
  6
HIDDEN2
 10
9.1920999999999822
 20
-32.364399999999932
 30
0.0
 70
    32
  0
VERTEX
  5
1539
  8
3
  6
HIDDEN2
 10
9.2997000000000014
 20
-32.056999999999931
 30
0.0
 70
    32
  0
VERTEX
  5
153A
  8
3
  6
HIDDEN2
 10
9.4305999999999983
 20
-31.753199999999929
 30
0.0
 70
    32
  0
VERTEX
  5
153B
  8
3
  6
HIDDEN2
 10
9.5845999999999805
 20
-31.45399999999993
 30
0.0
 70
    32
  0
VERTEX
  5
153C
  8
3
  6
HIDDEN2
 10
9.7612000000000023
 20
-31.159899999999929
 30
0.0
 70
    32
  0
VERTEX
  5
153D
  8
3
  6
HIDDEN2
 10
9.9120000000000061
 20
-30.94147124182998
 30
0.0
 70
    32
  0
SEQEND
  5
153E
  8
3
  6
HIDDEN2
  0
POLYLINE
  5
153F
  8
3
  6
HIDDEN2
 66
     1
 10
0.0
 20
0.0
 30
0.0
 70
     8
  0
VERTEX
  5
1540
  8
3
  6
HIDDEN2
 10
9.9120000000000061
 20
-34.902985429141673
 30
0.0
 70
    32
  0
VERTEX
  5
1541
  8
3
  6
HIDDEN2
 10
9.9067000000000007
 20
-34.887899999999931
 30
0.0
 70
    32
  0
VERTEX
  5
1542
  8
3
  6
HIDDEN2
 10
9.8285000000000053
 20
-34.599899999999941
 30
0.0
 70
    32
  0
VERTEX
  5
1543
  8
3
  6
HIDDEN2
 10
9.7724999999999795
 20
-34.309799999999932
 30
0.0
 70
    32
  0
VERTEX
  5
1544
  8
3
  6
HIDDEN2
 10
9.738900000000001
 20
-34.018199999999929
 30
0.0
 70
    32
  0
VERTEX
  5
1545
  8
3
  6
HIDDEN2
 10
9.7276999999999845
 20
-33.725999999999928
 30
0.0
 70
    32
  0
SEQEND
  5
1546
  8
3
  6
HIDDEN2
  0
POLYLINE
  5
1547
  8
3
  6
HIDDEN2
 66
     1
 10
0.0
 20
0.0
 30
0.0
 70
     8
  0
VERTEX
  5
1548
  8
3
  6
HIDDEN2
 10
12.312000000000021
 20
-37.840279226133767
 30
0.0
 70
    32
  0
VERTEX
  5
1549
  8
3
  6
HIDDEN2
 10
12.1412
 20
-37.725599999999929
 30
0.0
 70
    32
  0
VERTEX
  5
154A
  8
3
  6
HIDDEN2
 10
11.842499999999999
 20
-37.504299999999937
 30
0.0
 70
    32
  0
VERTEX
  5
154B
  8
3
  6
HIDDEN2
 10
11.561199999999999
 20
-37.27379999999993
 30
0.0
 70
    32
  0
VERTEX
  5
154C
  8
3
  6
HIDDEN2
 10
11.297899999999981
 20
-37.034799999999919
 30
0.0
 70
    32
  0
VERTEX
  5
154D
  8
3
  6
HIDDEN2
 10
11.11200000000002
 20
-36.847228647323178
 30
0.0
 70
    32
  0
SEQEND
  5
154E
  8
3
  6
HIDDEN2
  0
POLYLINE
  5
154F
  8
3
  6
HIDDEN2
 66
     1
 10
0.0
 20
0.0
 30
0.0
 70
     8
  0
VERTEX
  5
1550
  8
3
  6
HIDDEN2
 10
14.71200000000003
 20
-38.997606878824897
 30
0.0
 70
    32
  0
VERTEX
  5
1551
  8
3
  6
HIDDEN2
 10
14.6526
 20
-38.978499999999933
 30
0.0
 70
    32
  0
VERTEX
  5
1552
  8
3
  6
HIDDEN2
 10
14.25469999999998
 20
-38.834399999999931
 30
0.0
 70
    32
  0
VERTEX
  5
1553
  8
3
  6
HIDDEN2
 10
13.86839999999998
 20
-38.677999999999933
 30
0.0
 70
    32
  0
VERTEX
  5
1554
  8
3
  6
HIDDEN2
 10
13.512000000000009
 20
-38.517577106178067
 30
0.0
 70
    32
  0
SEQEND
  5
1555
  8
3
  6
HIDDEN2
  0
POLYLINE
  5
1556
  8
3
  6
HIDDEN2
 66
     1
 10
0.0
 20
0.0
 30
0.0
 70
     8
  0
VERTEX
  5
1557
  8
3
  6
HIDDEN2
 10
17.11200000000002
 20
-39.550793747198497
 30
0.0
 70
    32
  0
VERTEX
  5
1558
  8
3
  6
HIDDEN2
 10
16.780699999999982
 20
-39.503199999999929
 30
0.0
 70
    32
  0
VERTEX
  5
1559
  8
3
  6
HIDDEN2
 10
16.34
 20
-39.425299999999943
 30
0.0
 70
    32
  0
VERTEX
  5
155A
  8
3
  6
HIDDEN2
 10
15.912000000000001
 20
-39.334909396591357
 30
0.0
 70
    32
  0
SEQEND
  5
155B
  8
3
  6
HIDDEN2
  0
POLYLINE
  5
155C
  8
3
  6
HIDDEN2
 66
     1
 10
0.0
 20
0.0
 30
0.0
 70
     8
  0
VERTEX
  5
155D
  8
3
  6
HIDDEN2
 10
19.512000000000011
 20
-39.67401436403501
 30
0.0
 70
    32
  0
VERTEX
  5
155E
  8
3
  6
HIDDEN2
 10
19.501699999999978
 20
-39.674499999999917
 30
0.0
 70
    32
  0
VERTEX
  5
155F
  8
3
  6
HIDDEN2
 10
19.044499999999982
 20
-39.681699999999928
 30
0.0
 70
    32
  0
VERTEX
  5
1560
  8
3
  6
HIDDEN2
 10
18.587399999999999
 20
-39.674499999999917
 30
0.0
 70
    32
  0
VERTEX
  5
1561
  8
3
  6
HIDDEN2
 10
18.312000000000019
 20
-39.661517978513409
 30
0.0
 70
    32
  0
SEQEND
  5
1562
  8
3
  6
HIDDEN2
  0
POLYLINE
  5
1563
  8
3
  6
HIDDEN2
 66
     1
 10
0.0
 20
0.0
 30
0.0
 70
     8
  0
VERTEX
  5
1564
  8
3
  6
HIDDEN2
 10
21.912000000000031
 20
-39.390896660525009
 30
0.0
 70
    32
  0
VERTEX
  5
1565
  8
3
  6
HIDDEN2
 10
21.749099999999981
 20
-39.425299999999943
 30
0.0
 70
    32
  0
VERTEX
  5
1566
  8
3
  6
HIDDEN2
 10
21.308299999999999
 20
-39.503199999999929
 30
0.0
 70
    32
  0
VERTEX
  5
1567
  8
3
  6
HIDDEN2
 10
20.862100000000002
 20
-39.567299999999932
 30
0.0
 70
    32
  0
VERTEX
  5
1568
  8
3
  6
HIDDEN2
 10
20.712000000000032
 20
-39.583925948945542
 30
0.0
 70
    32
  0
SEQEND
  5
1569
  8
3
  6
HIDDEN2
  0
POLYLINE
  5
156A
  8
3
  6
HIDDEN2
 66
     1
 10
0.0
 20
0.0
 30
0.0
 70
     8
  0
VERTEX
  5
156B
  8
3
  6
HIDDEN2
 10
24.31200000000004
 20
-38.636893017656412
 30
0.0
 70
    32
  0
VERTEX
  5
156C
  8
3
  6
HIDDEN2
 10
24.220700000000001
 20
-38.677999999999933
 30
0.0
 70
    32
  0
VERTEX
  5
156D
  8
3
  6
HIDDEN2
 10
23.834299999999981
 20
-38.834399999999931
 30
0.0
 70
    32
  0
VERTEX
  5
156E
  8
3
  6
HIDDEN2
 10
23.43640000000001
 20
-38.978499999999933
 30
0.0
 70
    32
  0
VERTEX
  5
156F
  8
3
  6
HIDDEN2
 10
23.11200000000003
 20
-39.082873555337827
 30
0.0
 70
    32
  0
SEQEND
  5
1570
  8
3
  6
HIDDEN2
  0
POLYLINE
  5
1571
  8
3
  6
HIDDEN2
 66
     1
 10
0.0
 20
0.0
 30
0.0
 70
     8
  0
VERTEX
  5
1572
  8
3
  6
HIDDEN2
 10
26.712000000000032
 20
-37.106690619065603
 30
0.0
 70
    32
  0
VERTEX
  5
1573
  8
3
  6
HIDDEN2
 10
26.527899999999999
 20
-37.27379999999993
 30
0.0
 70
    32
  0
VERTEX
  5
1574
  8
3
  6
HIDDEN2
 10
26.24649999999999
 20
-37.504299999999937
 30
0.0
 70
    32
  0
VERTEX
  5
1575
  8
3
  6
HIDDEN2
 10
25.947800000000001
 20
-37.725599999999929
 30
0.0
 70
    32
  0
VERTEX
  5
1576
  8
3
  6
HIDDEN2
 10
25.632499999999961
 20
-37.937299999999937
 30
0.0
 70
    32
  0
VERTEX
  5
1577
  8
3
  6
HIDDEN2
 10
25.512
 20
-38.010647826086853
 30
0.0
 70
    32
  0
SEQEND
  5
1578
  8
3
  6
HIDDEN2
  0
POLYLINE
  5
1579
  8
3
  6
HIDDEN2
 66
     1
 10
0.0
 20
0.0
 30
0.0
 70
     8
  0
VERTEX
  5
157A
  8
3
  6
HIDDEN2
 10
27.912000000000031
 20
-31.903957351916389
 30
0.0
 70
    32
  0
VERTEX
  5
157B
  8
3
  6
HIDDEN2
 10
27.96019999999999
 20
-31.997199999999928
 30
0.0
 70
    32
  0
VERTEX
  5
157C
  8
3
  6
HIDDEN2
 10
28.082099999999979
 20
-32.278899999999929
 30
0.0
 70
    32
  0
VERTEX
  5
157D
  8
3
  6
HIDDEN2
 10
28.18229999999998
 20
-32.564099999999932
 30
0.0
 70
    32
  0
VERTEX
  5
157E
  8
3
  6
HIDDEN2
 10
28.260499999999968
 20
-32.852099999999929
 30
0.0
 70
    32
  0
VERTEX
  5
157F
  8
3
  6
HIDDEN2
 10
28.316500000000008
 20
-33.142299999999928
 30
0.0
 70
    32
  0
VERTEX
  5
1580
  8
3
  6
HIDDEN2
 10
28.350099999999991
 20
-33.433799999999927
 30
0.0
 70
    32
  0
VERTEX
  5
1581
  8
3
  6
HIDDEN2
 10
28.3614
 20
-33.725999999999928
 30
0.0
 70
    32
  0
VERTEX
  5
1582
  8
3
  6
HIDDEN2
 10
28.350099999999991
 20
-34.018199999999929
 30
0.0
 70
    32
  0
VERTEX
  5
1583
  8
3
  6
HIDDEN2
 10
28.316500000000008
 20
-34.309799999999932
 30
0.0
 70
    32
  0
VERTEX
  5
1584
  8
3
  6
HIDDEN2
 10
28.260499999999968
 20
-34.599899999999941
 30
0.0
 70
    32
  0
VERTEX
  5
1585
  8
3
  6
HIDDEN2
 10
28.18229999999998
 20
-34.887899999999931
 30
0.0
 70
    32
  0
VERTEX
  5
1586
  8
3
  6
HIDDEN2
 10
28.082099999999979
 20
-35.173099999999927
 30
0.0
 70
    32
  0
VERTEX
  5
1587
  8
3
  6
HIDDEN2
 10
27.96019999999999
 20
-35.454899999999917
 30
0.0
 70
    32
  0
VERTEX
  5
1588
  8
3
  6
HIDDEN2
 10
27.912000000000031
 20
-35.54810905923329
 30
0.0
 70
    32
  0
SEQEND
  5
1589
  8
3
  6
HIDDEN2
  0
POLYLINE
  5
158A
  8
3
  6
HIDDEN2
 66
     1
 10
0.0
 20
0.0
 30
0.0
 70
     8
  0
VERTEX
  5
158B
  8
3
  6
HIDDEN2
 10
25.512
 20
-29.441352173913
 30
0.0
 70
    32
  0
VERTEX
  5
158C
  8
3
  6
HIDDEN2
 10
25.632499999999961
 20
-29.51469999999993
 30
0.0
 70
    32
  0
VERTEX
  5
158D
  8
3
  6
HIDDEN2
 10
25.947800000000001
 20
-29.726399999999931
 30
0.0
 70
    32
  0
VERTEX
  5
158E
  8
3
  6
HIDDEN2
 10
26.24649999999999
 20
-29.94779999999993
 30
0.0
 70
    32
  0
VERTEX
  5
158F
  8
3
  6
HIDDEN2
 10
26.527899999999999
 20
-30.178199999999929
 30
0.0
 70
    32
  0
VERTEX
  5
1590
  8
3
  6
HIDDEN2
 10
26.712000000000032
 20
-30.34530938093426
 30
0.0
 70
    32
  0
SEQEND
  5
1591
  8
3
  6
HIDDEN2
  0
POLYLINE
  5
1592
  8
3
  6
HIDDEN2
 66
     1
 10
0.0
 20
0.0
 30
0.0
 70
     8
  0
VERTEX
  5
1593
  8
3
  6
HIDDEN2
 10
23.11200000000003
 20
-28.36914701273254
 30
0.0
 70
    32
  0
VERTEX
  5
1594
  8
3
  6
HIDDEN2
 10
23.43640000000001
 20
-28.47359999999993
 30
0.0
 70
    32
  0
VERTEX
  5
1595
  8
3
  6
HIDDEN2
 10
23.834299999999981
 20
-28.617599999999928
 30
0.0
 70
    32
  0
VERTEX
  5
1596
  8
3
  6
HIDDEN2
 10
24.220700000000001
 20
-28.77399999999993
 30
0.0
 70
    32
  0
VERTEX
  5
1597
  8
3
  6
HIDDEN2
 10
24.31200000000004
 20
-28.815131407169549
 30
0.0
 70
    32
  0
SEQEND
  5
1598
  8
3
  6
HIDDEN2
  0
POLYLINE
  5
1599
  8
3
  6
HIDDEN2
 66
     1
 10
0.0
 20
0.0
 30
0.0
 70
     8
  0
VERTEX
  5
159A
  8
3
  6
HIDDEN2
 10
20.712000000000032
 20
-27.86814073251934
 30
0.0
 70
    32
  0
VERTEX
  5
159B
  8
3
  6
HIDDEN2
 10
20.862100000000002
 20
-27.884799999999931
 30
0.0
 70
    32
  0
VERTEX
  5
159C
  8
3
  6
HIDDEN2
 10
21.308299999999999
 20
-27.948799999999931
 30
0.0
 70
    32
  0
VERTEX
  5
159D
  8
3
  6
HIDDEN2
 10
21.749099999999981
 20
-28.02679999999993
 30
0.0
 70
    32
  0
VERTEX
  5
159E
  8
3
  6
HIDDEN2
 10
21.912000000000031
 20
-28.06120333947484
 30
0.0
 70
    32
  0
SEQEND
  5
159F
  8
3
  6
HIDDEN2
  0
POLYLINE
  5
15A0
  8
3
  6
HIDDEN2
 66
     1
 10
0.0
 20
0.0
 30
0.0
 70
     8
  0
VERTEX
  5
15A1
  8
3
  6
HIDDEN2
 10
18.312000000000019
 20
-27.790482021486451
 30
0.0
 70
    32
  0
VERTEX
  5
15A2
  8
3
  6
HIDDEN2
 10
18.587399999999999
 20
-27.777499999999929
 30
0.0
 70
    32
  0
VERTEX
  5
15A3
  8
3
  6
HIDDEN2
 10
19.044499999999982
 20
-27.770299999999931
 30
0.0
 70
    32
  0
VERTEX
  5
15A4
  8
3
  6
HIDDEN2
 10
19.501699999999978
 20
-27.777499999999929
 30
0.0
 70
    32
  0
VERTEX
  5
15A5
  8
3
  6
HIDDEN2
 10
19.512000000000011
 20
-27.777985635964839
 30
0.0
 70
    32
  0
SEQEND
  5
15A6
  8
3
  6
HIDDEN2
  0
POLYLINE
  5
15A7
  8
3
  6
HIDDEN2
 66
     1
 10
0.0
 20
0.0
 30
0.0
 70
     8
  0
VERTEX
  5
15A8
  8
3
  6
HIDDEN2
 10
15.912000000000001
 20
-28.117190603408488
 30
0.0
 70
    32
  0
VERTEX
  5
15A9
  8
3
  6
HIDDEN2
 10
16.34
 20
-28.02679999999993
 30
0.0
 70
    32
  0
VERTEX
  5
15AA
  8
3
  6
HIDDEN2
 10
16.780699999999982
 20
-27.948799999999931
 30
0.0
 70
    32
  0
VERTEX
  5
15AB
  8
3
  6
HIDDEN2
 10
17.11200000000002
 20
-27.901280502016942
 30
0.0
 70
    32
  0
SEQEND
  5
15AC
  8
3
  6
HIDDEN2
  0
POLYLINE
  5
15AD
  8
3
  6
HIDDEN2
 66
     1
 10
0.0
 20
0.0
 30
0.0
 70
     8
  0
VERTEX
  5
15AE
  8
3
  6
HIDDEN2
 10
13.512000000000009
 20
-28.934518213425971
 30
0.0
 70
    32
  0
VERTEX
  5
15AF
  8
3
  6
HIDDEN2
 10
13.86839999999998
 20
-28.77399999999993
 30
0.0
 70
    32
  0
VERTEX
  5
15B0
  8
3
  6
HIDDEN2
 10
14.25469999999998
 20
-28.617599999999928
 30
0.0
 70
    32
  0
VERTEX
  5
15B1
  8
3
  6
HIDDEN2
 10
14.6526
 20
-28.47359999999993
 30
0.0
 70
    32
  0
VERTEX
  5
15B2
  8
3
  6
HIDDEN2
 10
14.71200000000003
 20
-28.454478580171269
 30
0.0
 70
    32
  0
SEQEND
  5
15B3
  8
3
  6
HIDDEN2
  0
POLYLINE
  5
15B4
  8
3
  6
HIDDEN2
 66
     1
 10
0.0
 20
0.0
 30
0.0
 70
     8
  0
VERTEX
  5
15B5
  8
3
  6
HIDDEN2
 10
11.11200000000002
 20
-30.604847323252891
 30
0.0
 70
    32
  0
VERTEX
  5
15B6
  8
3
  6
HIDDEN2
 10
11.297899999999981
 20
-30.41719999999993
 30
0.0
 70
    32
  0
VERTEX
  5
15B7
  8
3
  6
HIDDEN2
 10
11.561199999999999
 20
-30.178199999999929
 30
0.0
 70
    32
  0
VERTEX
  5
15B8
  8
3
  6
HIDDEN2
 10
11.842499999999999
 20
-29.94779999999993
 30
0.0
 70
    32
  0
VERTEX
  5
15B9
  8
3
  6
HIDDEN2
 10
12.1412
 20
-29.726399999999931
 30
0.0
 70
    32
  0
VERTEX
  5
15BA
  8
3
  6
HIDDEN2
 10
12.312000000000021
 20
-29.611720773866079
 30
0.0
 70
    32
  0
SEQEND
  5
15BB
  8
3
  6
HIDDEN2
  0
POLYLINE
  5
15BC
  8
3
  6
HIDDEN2
 66
     1
 10
0.0
 20
0.0
 30
0.0
 70
     8
  0
VERTEX
  5
15BD
  8
3
  6
HIDDEN2
 10
9.7276999999999845
 20
-33.725999999999928
 30
0.0
 70
    32
  0
VERTEX
  5
15BE
  8
3
  6
HIDDEN2
 10
9.738900000000001
 20
-33.433799999999927
 30
0.0
 70
    32
  0
VERTEX
  5
15BF
  8
3
  6
HIDDEN2
 10
9.7724999999999795
 20
-33.142299999999928
 30
0.0
 70
    32
  0
VERTEX
  5
15C0
  8
3
  6
HIDDEN2
 10
9.8285000000000053
 20
-32.852099999999929
 30
0.0
 70
    32
  0
VERTEX
  5
15C1
  8
3
  6
HIDDEN2
 10
9.9067000000000007
 20
-32.564099999999932
 30
0.0
 70
    32
  0
VERTEX
  5
15C2
  8
3
  6
HIDDEN2
 10
9.9120000000000061
 20
-32.549014570858198
 30
0.0
 70
    32
  0
SEQEND
  5
15C3
  8
3
  6
HIDDEN2
  0
LINE
  5
15C4
  8
4
  6
CENTER2
 10
7.8288558604570246
 20
-34.471999940321453
 30
0.0
 11
30.23747583261455
 21
-34.471999940321453
 31
0.0
  0
LINE
  5
15C5
  8
4
  6
CENTER2
 10
19.0
 20
-26.5818776726774
 30
0.0
 11
19.0
 21
-41.363930717114613
 31
0.0
  0
LINE
  5
15C6
  8
1
  6
CONTINUOUS
 10
14.75
 20
-2.4537386399999992
 30
0.0
 11
19.0
 21
-4.9074772899999948
 31
0.0
  0
LINE
  5
15C7
  8
1
  6
CONTINUOUS
 10
19.0
 20
-4.9074772899999948
 30
0.0
 11
23.25
 21
-2.4537386399999992
 31
0.0
  0
LINE
  5
15C8
  8
1
  6
CONTINUOUS
 10
23.25
 20
-2.4537386399999992
 30
0.0
 11
23.25
 21
2.453738639999997
 31
0.0
  0
LINE
  5
15C9
  8
1
  6
CONTINUOUS
 10
23.25
 20
2.453738639999997
 30
0.0
 11
19.0
 21
4.9074772899999957
 31
0.0
  0
LINE
  5
15CA
  8
1
  6
CONTINUOUS
 10
19.0
 20
4.9074772899999957
 30
0.0
 11
14.75
 21
2.453738639999997
 31
0.0
  0
LINE
  5
15CB
  8
1
  6
CONTINUOUS
 10
14.75
 20
2.453738639999997
 30
0.0
 11
14.75
 21
-2.4537386399999992
 31
0.0
  0
LINE
  5
37BA
  8
2
  6
CONTINUOUS
 10
0.0000000000000001
 20
45.0
 30
0.0
 11
0.0000000000000011
 21
61.5
 31
0.0
  0
LINE
  5
37BB
  8
2
  6
CONTINUOUS
 10
100.0
 20
45.000000000005109
 30
0.0
 11
100.0
 21
61.5
 31
0.0
  0
LINE
  5
37BC
  8
2
  6
CONTINUOUS
 10
2.0
 20
60.0
 30
0.0
 11
98.0
 21
60.0
 31
0.0
  0
LINE
  5
37C0
  8
2
  6
CONTINUOUS
 10
98.0
 20
60.333333333333343
 30
0.0
 11
100.0
 21
60.0
 31
0.0
  0
LINE
  5
37C1
  8
2
  6
CONTINUOUS
 10
98.0
 20
59.666666666666657
 30
0.0
 11
100.0
 21
60.0
 31
0.0
  0
LINE
  5
37C2
  8
2
  6
CONTINUOUS
 10
100.0
 20
60.0
 30
0.0
 11
98.0
 21
60.0
 31
0.0
  0
LINE
  5
37C3
  8
2
  6
CONTINUOUS
 10
2.0
 20
59.666666666666657
 30
0.0
 11
0.000000000000001
 21
60.0
 31
0.0
  0
LINE
  5
37C4
  8
2
  6
CONTINUOUS
 10
2.0
 20
60.333333333333343
 30
0.0
 11
0.000000000000001
 21
60.0
 31
0.0
  0
LINE
  5
37C5
  8
2
  6
CONTINUOUS
 10
0.000000000000001
 20
60.0
 30
0.0
 11
2.0
 21
60.0
 31
0.0
  0
TEXT
  5
37C6
  8
2
  6
CONTINUOUS
 10
47.61999999999999
 20
60.801952817803553
 30
0.0
 40
2.7999999999999989
  1
100
 41
0.85
  0
LINE
  5
37D4
  8
NOCUT
  6
CONTINUOUS
 10
0.0
 20
0.0
 30
0.0
 11
100.0
 21
0.0
 31
0.0
  0
LINE
  5
37D5
  8
NOCUT
  6
CONTINUOUS
 10
0.0
 20
-44.0
 30
0.0
 11
0.0
 21
0.0
 31
0.0
  0
LINE
  5
37D6
  8
NOCUT
  6
CONTINUOUS
 10
100.0
 20
0.0
 30
0.0
 11
100.0
 21
-44.000000000005109
 31
0.0
  0
LINE
  5
37D7
  8
NOCUT
  6
CONTINUOUS
 10
0.999999999994884
 20
-45.0
 30
0.0
 11
99.0
 21
-45.0
 31
0.0
  0
LINE
  5
37D8
  8
NOCUT
  6
CONTINUOUS
 10
99.0
 20
-45.0
 30
0.0
 11
100.0
 21
-44.000000000005109
 31
0.0
1001
GENIUS_GENFIL_13
1070
     1
1040
1.0
1040
0.999999999994884
1040
1.0
1040
44.999999999707242
1000
~T
  0
LINE
  5
37D9
  8
NOCUT
  6
CONTINUOUS
 10
0.0
 20
-44.0
 30
0.0
 11
0.999999999994884
 21
-45.0
 31
0.0
1001
GENIUS_GENFIL_13
1070
     1
1040
1.0
1040
0.9999999999948983
1040
1.0
1040
44.99999999970764
1000
~T
  0
TEXT
  5
37DA
  8
6
  6
CONTINUOUS
 10
-4.4598114897000007
 20
80.406919313900005
 30
0.0
 40
3.5
  1
BIG DAISHOWA
 41
0.85
  0
TEXT
  5
37DB
  8
6
  6
CONTINUOUS
 10
-4.4598114897000007
 20
75.156919313900005
 30
0.0
 40
3.5
  1
CKN77N-100ALT
 41
0.85
  0
ENDSEC
  0
EOF
