  0
SECTION
  2
HEADER
  9
$ACADVER
  1
AC1009
  9
$INSBASE
 10
0.0
 20
0.0
 30
0.0
  9
$EXTMIN
 10
-66.45981148958758
 20
-49.288325750359888
 30
0.0
  9
$EXTMAX
 10
194.8474831811547
 20
68.906919313899976
 30
0.0
  9
$LIMMIN
 10
0.0
 20
0.0
  9
$LIMMAX
 10
420.0
 20
297.0
  9
$ORTHOMODE
 70
     0
  9
$REGENMODE
 70
     1
  9
$FILLMODE
 70
     1
  9
$QTEXTMODE
 70
     0
  9
$MIRRTEXT
 70
     0
  9
$DRAGMODE
 70
     2
  9
$LTSCALE
 40
23.100000000000001
  9
$OSMODE
 70
    37
  9
$ATTMODE
 70
     1
  9
$TEXTSIZE
 40
0.2
  9
$TRACEWID
 40
0.05
  9
$TEXTSTYLE
  7
STANDARD
  9
$CLAYER
  8
0
  9
$CELTYPE
  6
BYLAYER
  9
$CECOLOR
 62
   256
  9
$DIMSCALE
 40
1.0
  9
$DIMASZ
 40
3.5
  9
$DIMEXO
 40
1.0
  9
$DIMDLI
 40
15.960000000000001
  9
$DIMRND
 40
0.0
  9
$DIMDLE
 40
0.0
  9
$DIMEXE
 40
1.5
  9
$DIMTP
 40
0.01
  9
$DIMTM
 40
0.01
  9
$DIMTXT
 40
3.5
  9
$DIMCEN
 40
3.779999999999998
  9
$DIMTSZ
 40
0.0
  9
$DIMTOL
 70
     1
  9
$DIMLIM
 70
     0
  9
$DIMTIH
 70
     1
  9
$DIMTOH
 70
     1
  9
$DIMSE1
 70
     0
  9
$DIMSE2
 70
     0
  9
$DIMTAD
 70
     0
  9
$DIMZIN
 70
     0
  9
$DIMBLK
  1
_FILLED
  9
$DIMASO
 70
     1
  9
$DIMSHO
 70
     1
  9
$DIMPOST
  1

  9
$DIMAPOST
  1

  9
$DIMALT
 70
     0
  9
$DIMALTD
 70
     2
  9
$DIMALTF
 40
25.399999999999999
  9
$DIMLFAC
 40
1.0
  9
$DIMTOFL
 70
     0
  9
$DIMTVP
 40
0.0
  9
$DIMTIX
 70
     0
  9
$DIMSOXD
 70
     0
  9
$DIMSAH
 70
     0
  9
$DIMBLK1
  1

  9
$DIMBLK2
  1

  9
$DIMSTYLE
  2
STANDARD
  9
$DIMCLRD
 70
     0
  9
$DIMCLRE
 70
     0
  9
$DIMCLRT
 70
     0
  9
$DIMTFAC
 40
1.0
  9
$DIMGAP
 40
0.625
  9
$LUNITS
 70
     2
  9
$LUPREC
 70
     2
  9
$SKETCHINC
 40
0.1
  9
$FILLETRAD
 40
0.0
  9
$AUNITS
 70
     0
  9
$AUPREC
 70
     0
  9
$MENU
  1
.
  9
$ELEVATION
 40
0.0
  9
$PELEVATION
 40
0.0
  9
$THICKNESS
 40
0.0
  9
$LIMCHECK
 70
     0
  9
$BLIPMODE
 70
     0
  9
$CHAMFERA
 40
0.0
  9
$CHAMFERB
 40
0.0
  9
$SKPOLY
 70
     0
  9
$TDCREATE
 40
2458360.6444212971
  9
$TDUPDATE
 40
2460791.7206885312
  9
$TDINDWG
 40
0.0242775
  9
$TDUSRTIMER
 40
0.0242773958
  9
$USRTIMER
 70
     1
  9
$ANGBASE
 50
0.0
  9
$ANGDIR
 70
     0
  9
$PDMODE
 70
     3
  9
$PDSIZE
 40
8.0
  9
$PLINEWID
 40
0.0
  9
$COORDS
 70
     1
  9
$SPLFRAME
 70
     0
  9
$SPLINETYPE
 70
     6
  9
$SPLINESEGS
 70
     8
  9
$ATTDIA
 70
     1
  9
$ATTREQ
 70
     1
  9
$HANDLING
 70
     1
  9
$HANDSEED
  5
9D8E
  9
$SURFTAB1
 70
     6
  9
$SURFTAB2
 70
     6
  9
$SURFTYPE
 70
     6
  9
$SURFU
 70
     6
  9
$SURFV
 70
     6
  9
$UCSNAME
  2

  9
$UCSORG
 10
0.0
 20
0.0
 30
0.0
  9
$UCSXDIR
 10
1.0
 20
0.0
 30
0.0
  9
$UCSYDIR
 10
0.0
 20
1.0
 30
0.0
  9
$PUCSNAME
  2

  9
$PUCSORG
 10
0.0
 20
0.0
 30
0.0
  9
$PUCSXDIR
 10
1.0
 20
0.0
 30
0.0
  9
$PUCSYDIR
 10
0.0
 20
1.0
 30
0.0
  9
$USERI1
 70
     0
  9
$USERI2
 70
     0
  9
$USERI3
 70
     0
  9
$USERI4
 70
     0
  9
$USERI5
 70
     0
  9
$USERR1
 40
0.0
  9
$USERR2
 40
0.0
  9
$USERR3
 40
0.0
  9
$USERR4
 40
0.0
  9
$USERR5
 40
0.0
  9
$WORLDVIEW
 70
     1
  9
$SHADEDGE
 70
     3
  9
$SHADEDIF
 70
    70
  9
$TILEMODE
 70
     1
  9
$MAXACTVP
 70
    64
  9
$PLIMCHECK
 70
     0
  9
$PEXTMIN
 10
1.0000000000000000E+020
 20
1.0000000000000000E+020
 30
1.0000000000000000E+020
  9
$PEXTMAX
 10
-1.0000000000000000E+020
 20
-1.0000000000000000E+020
 30
-1.0000000000000000E+020
  9
$PLIMMIN
 10
0.0
 20
0.0
  9
$PLIMMAX
 10
12.0
 20
9.0
  9
$UNITMODE
 70
     0
  9
$VISRETAIN
 70
     1
  9
$PLINEGEN
 70
     0
  9
$PSLTSCALE
 70
     1
  0
ENDSEC
  0
SECTION
  2
TABLES
  0
TABLE
  2
VPORT
 70
     1
  0
VPORT
  2
*ACTIVE
 70
     0
 10
0.0
 20
0.0
 11
1.0
 21
1.0
 12
54.746364036681463
 22
6.2641528858360678
 13
0.0
 23
0.0
 14
1.0
 24
1.0
 15
0.0
 25
0.0
 16
0.0
 26
0.0
 36
1.0
 17
0.0
 27
0.0
 37
0.0
 40
184.71214314624709
 41
1.8807106598984771
 42
50.0
 43
0.0
 44
0.0
 50
0.0
 51
0.0
 71
     0
 72
   100
 73
     1
 74
     1
 75
     1
 76
     1
 77
     0
 78
     0
  0
ENDTAB
  0
TABLE
  2
LTYPE
 70
    25
  0
LTYPE
  2
CONTINUOUS
 70
     0
  3
Solid line
 72
    65
 73
     0
 40
0.0
  0
LTYPE
  2
CENTER
 70
     0
  3
____ _ ____ _ ____ _ ____ _ ____ _ ____ _ ____
 72
    65
 73
     4
 40
0.6
 49
0.375
 49
-0.075
 49
0.075
 49
-0.075
  0
LTYPE
  2
DASHED
 70
     0
  3
- - - - - - - - - - - - - - - - - - - -
 72
    65
 73
     2
 40
0.2
 49
0.1
 49
-0.1
  0
LTYPE
  2
AM_ISO02W050
 70
     0
  3
__ __ __ __ __ __ __ __ __ __ __ __ __ __ __
 72
    65
 73
     2
 40
7.5
 49
6.0
 49
-1.5
  0
LTYPE
  2
AM_ISO08W050
 70
     0
  3
____ . ____ . ____ . ____ . ____ . ____ . ____
 72
    65
 73
     4
 40
18.0
 49
12.0
 49
-1.5
 49
3.0
 49
-1.5
  0
LTYPE
  2
AM_ISO09W050
 70
     0
  3
_____ . . _____ . . _____ . . ____ .. ____
 72
    65
 73
     6
 40
22.5
 49
12.0
 49
-1.5
 49
3.0
 49
-1.5
 49
3.0
 49
-1.5
  0
LTYPE
  2
AMCONSTR
 70
     0
  3
_______________________
 72
    65
 73
     2
 40
9999.0
 49
9999.0
 49
0.0
  0
LTYPE
  2
AM_ISO08W050X2
 70
     0
  3
__ . __ . __ . __ . __ . __
 72
    65
 73
     4
 40
9.0
 49
6.0
 49
-0.75
 49
1.5
 49
-0.75
  0
LTYPE
  2
AM_ISO02W050X2
 70
     0
  3
 _ _ _ _ _ _ _ _ _ _ _ _
 72
    65
 73
     2
 40
3.75
 49
3.0
 49
-0.75
  0
LTYPE
  2
AMZIGZAG
 70
     0
  3
/\/-/\/-/\/-/\/-/\/-/\/
 72
    65
 73
     2
 40
11.0001
 49
0.0001
 49
-11.0
  0
LTYPE
  2
HIDDEN
 70
     0
  3
Hidden __ __ __ __ __ __ __ __ __ __ __ __ __ _
 72
    65
 73
     2
 40
0.375
 49
0.25
 49
-0.125
  0
LTYPE
  2
PHANTOM2
 70
     0
  3
Phantom (.5x) ___ _ _ ___ _ _ ___ _ _ ___ _ _
 72
    65
 73
     6
 40
1.25
 49
0.625
 49
-0.125
 49
0.125
 49
-0.125
 49
0.125
 49
-0.125
  0
LTYPE
  2
CENTER2
 70
     0
  3
Center (.5x) ___ _ ___ _ ___ _ ___ _ ___ _ ___
 72
    65
 73
     4
 40
1.125
 49
0.75
 49
-0.125
 49
0.125
 49
-0.125
  0
LTYPE
  2
HIDDEN2
 70
     0
  3
Hidden (.5x) _ _ _ _ _ _ _ _ _ _ _ _ _ _ _ _ _
 72
    65
 73
     2
 40
0.1875
 49
0.125
 49
-0.0625
  0
LTYPE
  2
AMZIGZAG2
 70
     0
  3
/\/-/\/-/\/-/\/-/\/-/\/
 72
    65
 73
     2
 40
0.4401
 49
0.0001
 49
-0.4400000000000003
  0
LTYPE
  2
ACANSTGB
 70
     0
  3
__ . . __ . .
 72
    65
 73
     6
 40
0.35433070866
 49
0.15748031496
 49
-0.03937007874
 49
0.03937007874
 49
-0.03937007874
 49
0.03937007874
 49
-0.03937007874
  0
LTYPE
  2
ACANSTGL
 70
     0
  3
_ _ _ _ _
 72
    65
 73
     2
 40
0.11811023622
 49
0.07874015748
 49
-0.03937007874
  0
LTYPE
  2
ACJISTGB
 70
     0
  3
__ . . __ . .
 72
    65
 73
     6
 40
9.0
 49
4.0
 49
-1.0
 49
1.0
 49
-1.0
 49
1.0
 49
-1.0
  0
LTYPE
  2
ACJISTGL
 70
     0
  3
_ _ _ _ _
 72
    65
 73
     2
 40
3.0
 49
2.0
 49
-1.0
  0
LTYPE
  2
ACJISWELD
 70
     0
  3
_ _ _ _ _
 72
    65
 73
     2
 40
2.0
 49
2.0
 49
-1.0
  0
ENDTAB
  0
TABLE
  2
LAYER
 70
    19
  0
LAYER
  2
0
 70
     0
 62
     7
  6
CONTINUOUS
  0
LAYER
  2
1
 70
     0
 62
     4
  6
CONTINUOUS
  0
LAYER
  2
2
 70
     0
 62
     7
  6
CONTINUOUS
  0
LAYER
  2
3
 70
     0
 62
     1
  6
DASHED
  0
LAYER
  2
4
 70
     0
 62
     2
  6
CENTER
  0
LAYER
  2
6
 70
     0
 62
     5
  6
CONTINUOUS
  0
LAYER
  2
NOCUT
 70
     0
 62
     7
  6
CONTINUOUS
  0
LAYER
  2
DEFPOINTS
 70
     0
 62
     7
  6
CONTINUOUS
  0
ENDTAB
  0
TABLE
  2
STYLE
 70
     9
  0
STYLE
  2
STANDARD
 70
     0
 40
0.0
 41
0.85
 50
0.0
 71
     0
 42
0.2
  3
txt
  4

  0
STYLE
  2
ACANSGDT
 70
     0
 40
0.0
 41
1.0
 50
0.0
 71
     0
 42
0.2
  3
amgdt.shx
  4

  0
STYLE
  2
ACJISGDT
 70
     0
 40
0.0
 41
1.0
 50
0.0
 71
     0
 42
3.0
  3
amgdt.shx
  4
extfont.shx
  0
ENDTAB
  0
TABLE
  2
VIEW
 70
     0
  0
ENDTAB
  0
TABLE
  2
UCS
 70
     0
  0
ENDTAB
  0
TABLE
  2
APPID
 70
    28
  0
APPID
  2
ACAD
 70
     0
  0
APPID
  2
ACADANNOTATIVE
 70
     0
  0
APPID
  2
MCAD_NO_VIS
 70
     0
  0
APPID
  2
ACAD_TEMP_GRAPHIC
 70
     0
  0
APPID
  2
ACATTRIBSERVICES
 70
     0
  0
APPID
  2
DESIGNERASSEMBLIES
 70
     0
  0
APPID
  2
ACAD_DSTYLE_DIMJAG
 70
     0
  0
APPID
  2
ACAD_DSTYLE_DIMBREAK
 70
     0
  0
APPID
  2
ACAD_NAV_VCDISPLAY
 70
     0
  0
APPID
  2
ACAD_MLEADERVER
 70
     0
  0
APPID
  2
ACAD_DSTYLE_DIMARC_LENGTH_
 70
     0
  0
APPID
  2
ACAD_DSTYLE_DIM_LINETYPE
 70
     0
  0
APPID
  2
ACAD_DSTYLE_DIM_EXT1_LINETYPE
 70
     0
  0
APPID
  2
ACAD_DSTYLE_DIM_EXT2_LINETYPE
 70
     0
  0
APPID
  2
ACAECLAYERSTANDARD
 70
     0
  0
APPID
  2
GENIUS_GENODEF_13
 70
     0
  0
APPID
  2
GENIUS_GENOREF_13
 70
     0
  0
APPID
  2
GENIUS_GENOBJ-N-FIL_13
 70
     0
  0
APPID
  2
GENIUS_GENFIL_13
 70
     0
  0
APPID
  2
GENIUS_GENOBJ-N-CEN_13
 70
     0
  0
APPID
  2
GENIUS_GENCEN_19
 70
     0
  0
APPID
  2
ACAD_PSEXT
 70
     0
  0
APPID
  2
PLOTTRANSPARENCY
 70
     0
  0
APPID
  2
ASK_MEN_XD
 70
     0
  0
APPID
  2
ACAD_EXEMPT_FROM_CAD_STANDARDS
 70
     0
  0
APPID
  2
GRPNAME
 70
     0
  0
APPID
  2
GENIUS_GENDTOL_13
 70
     0
  0
APPID
  2
ACAD_DSTYLE_DIMINSPECT
 70
     0
  0
ENDTAB
  0
TABLE
  2
DIMSTYLE
 70
    21
  0
DIMSTYLE
  2
STANDARD
 70
     0
  3

  4

  5

  6

  7

 40
1.0
 41
3.5
 42
1.0
 43
0.38
 44
1.5
 45
0.0
 46
0.0
 47
0.01
 48
0.01
140
3.5
141
0.09
142
0.0
143
25.399999999999999
144
1.0
145
0.0
146
1.0
147
0.625
 71
     1
 72
     0
 73
     0
 74
     0
 75
     0
 76
     0
 77
     1
 78
     8
170
     0
171
     1
172
     0
173
     0
174
     0
175
     0
176
     0
177
     0
178
     0
  0
DIMSTYLE
  2
AM_ANSI
 70
     0
  3

  4
mm
  5

  6

  7

 40
1.0
 41
0.12
 42
0.05
 43
0.5
 44
0.1
 45
0.0
 46
0.0
 47
0.1
 48
0.1
140
0.12
141
0.0
142
0.0
143
25.399999999999999
144
1.0
145
0.0
146
0.71
147
0.06
 71
     0
 72
     0
 73
     1
 74
     1
 75
     0
 76
     0
 77
     0
 78
     7
170
     0
171
     2
172
     0
173
     0
174
     0
175
     0
176
   256
177
   256
178
     2
  0
DIMSTYLE
  2
AM_ANSI$3
 70
     0
  3

  4
mm
  5

  6

  7

 40
1.0
 41
0.12
 42
0.05
 43
0.5
 44
0.1
 45
0.0
 46
0.0
 47
0.1
 48
0.1
140
0.12
141
0.0
142
0.0
143
25.399999999999999
144
1.0
145
0.0
146
0.71
147
0.06
 71
     0
 72
     0
 73
     1
 74
     1
 75
     0
 76
     0
 77
     0
 78
     7
170
     0
171
     2
172
     0
173
     0
174
     0
175
     0
176
   256
177
   256
178
     2
  0
DIMSTYLE
  2
AM_ANSI$4
 70
     0
  3

  4
mm
  5

  6

  7

 40
1.0
 41
0.12
 42
0.05
 43
0.5
 44
0.1
 45
0.0
 46
0.0
 47
0.1
 48
0.1
140
0.12
141
0.0
142
0.0
143
25.399999999999999
144
1.0
145
0.0
146
0.71
147
0.06
 71
     0
 72
     0
 73
     1
 74
     1
 75
     0
 76
     0
 77
     0
 78
     7
170
     0
171
     2
172
     0
173
     0
174
     0
175
     0
176
   256
177
   256
178
     2
  0
DIMSTYLE
  2
AM_ANSI$7
 70
     0
  3

  4
mm
  5

  6

  7

 40
1.0
 41
0.12
 42
0.05
 43
0.5
 44
0.1
 45
0.0
 46
0.0
 47
0.1
 48
0.1
140
0.12
141
0.0
142
0.0
143
25.399999999999999
144
1.0
145
0.0
146
0.71
147
0.06
 71
     0
 72
     0
 73
     1
 74
     1
 75
     0
 76
     0
 77
     0
 78
     7
170
     0
171
     2
172
     0
173
     0
174
     0
175
     0
176
   256
177
   256
178
     2
  0
DIMSTYLE
  2
AM_ANSI$SF
 70
     0
  3

  4
mm
  5

  6

  7

 40
1.0
 41
0.12
 42
0.05
 43
0.5
 44
0.1
 45
0.0
 46
0.0
 47
0.1
 48
0.1
140
0.12
141
0.0
142
0.0
143
25.399999999999999
144
1.0
145
0.0
146
0.71
147
0.06
 71
     0
 72
     0
 73
     1
 74
     1
 75
     1
 76
     1
 77
     0
 78
     7
170
     0
171
     2
172
     0
173
     0
174
     0
175
     0
176
   256
177
   256
178
     2
  0
DIMSTYLE
  2
AM_ANSI$SH
 70
     0
  3

  4
mm
  5

  6

  7

 40
1.0
 41
0.12
 42
0.05
 43
0.5
 44
0.1
 45
0.0
 46
0.0
 47
0.1
 48
0.1
140
0.12
141
0.0
142
0.0
143
25.399999999999999
144
1.0
145
0.0
146
0.71
147
0.06
 71
     0
 72
     0
 73
     1
 74
     1
 75
     1
 76
     1
 77
     0
 78
     7
170
     0
171
     2
172
     0
173
     1
174
     0
175
     0
176
   256
177
   256
178
     2
  0
DIMSTYLE
  2
BIGT_TEST
 70
     0
  3

  4

  5
OPEN
  6

  7

 40
1.0
 41
2.2299999999999991
 42
0.5
 43
7.0
 44
1.0
 45
0.0
 46
0.0
 47
0.0
 48
0.01
140
2.7999999999999989
141
0.0
142
0.0
143
25.399999999999999
144
1.0
145
0.0
146
1.0
147
1.0
 71
     0
 72
     0
 73
     0
 74
     0
 75
     0
 76
     0
 77
     3
 78
     9
170
     0
171
     2
172
     1
173
     0
174
     1
175
     0
176
     3
177
     3
178
    40
  0
ENDTAB
  0
ENDSEC
  0
SECTION
  2
BLOCKS
  0
BLOCK
  8
0
  2
$MODEL_SPACE
 70
     0
 10
0.0
 20
0.0
 30
0.0
  3
$MODEL_SPACE
  1

  0
ENDBLK
  5
ABC
  8
0
  0
BLOCK
 67
     1
  8
0
  2
$PAPER_SPACE
 70
     0
 10
0.0
 20
0.0
 30
0.0
  3
$PAPER_SPACE
  1

  0
ENDBLK
  5
AB8
 67
     1
  8
0
  0
BLOCK
  8
0
  2
_FILLED
 70
     0
 10
0.0
 20
0.0
 30
0.0
  3
_FILLED
  1

  0
SOLID
  5
215
  8
0
  6
BYBLOCK
 62
     0
 10
0.0
 20
0.0
 30
0.0
 11
-1.0
 21
0.2142857143
 31
0.0
 12
-1.0
 22
-0.2142857143
 32
0.0
 13
-1.0
 23
-0.2142857143
 33
0.0
  0
ENDBLK
  5
216
  8
0
  6
BYBLOCK
 62
     0
  0
BLOCK
  8
0
  2
_ACMFILLEDHALF
 70
     0
 10
0.0
 20
0.0
 30
0.0
  3
_ACMFILLEDHALF
  1

  0
TRACE
  5
679
  8
0
 62
     0
 10
-0.8
 20
0.0
 30
0.0
 11
-1.0
 21
0.166666666
 31
0.0
 12
0.0
 22
0.0
 32
0.0
 13
0.0
 23
0.0
 33
0.0
  0
LINE
  5
67A
  8
0
 62
     0
 10
-1.0
 20
0.0
 30
0.0
 11
-0.8
 21
0.0
 31
0.0
  0
ENDBLK
  5
678
  8
0
  0
BLOCK
  8
0
  2
_OPEN
 70
     0
 10
0.0
 20
0.0
 30
0.0
  3
_OPEN
  1

  0
LINE
  5
B80
  8
0
  6
BYBLOCK
 62
     0
 10
-1.0
 20
0.1666666666666666
 30
0.0
 11
0.0
 21
0.0
 31
0.0
  0
LINE
  5
B81
  8
0
  6
BYBLOCK
 62
     0
 10
-1.0
 20
-0.1666666666666666
 30
0.0
 11
0.0
 21
0.0
 31
0.0
  0
LINE
  5
B82
  8
0
  6
BYBLOCK
 62
     0
 10
0.0
 20
0.0
 30
0.0
 11
-1.0
 21
0.0
 31
0.0
  0
ENDBLK
  5
B83
  8
0
  0
BLOCK
  8
0
  2
_OPEN30
 70
     0
 10
0.0
 20
0.0
 30
0.0
  3
_OPEN30
  1

  0
LINE
  5
B86
  8
0
  6
BYBLOCK
 62
     0
 10
-1.0
 20
0.26794919
 30
0.0
 11
0.0
 21
0.0
 31
0.0
  0
LINE
  5
B87
  8
0
  6
BYBLOCK
 62
     0
 10
0.0
 20
0.0
 30
0.0
 11
-1.0
 21
-0.26794919
 31
0.0
  0
LINE
  5
B88
  8
0
  6
BYBLOCK
 62
     0
 10
0.0
 20
0.0
 30
0.0
 11
-1.0
 21
0.0
 31
0.0
  0
ENDBLK
  5
B89
  8
0
  0
ENDSEC
  0
SECTION
  2
ENTITIES
  0
LINE
  5
84D
  8
4
  6
CENTER2
 10
0.0
 20
0.0
 30
0.0
 11
80.000000000000014
 21
0.0
 31
0.0
  0
LINE
  5
84E
  8
0
 10
3.0
 20
3.0
 30
0.0
 11
-3.0
 21
-3.0
 31
0.0
  0
LINE
  5
84F
  8
0
 10
-3.0
 20
3.0
 30
0.0
 11
3.0
 21
-3.0
 31
0.0
  0
LINE
  5
850
  8
0
 10
82.0
 20
2.0
 30
0.0
 11
78.0
 21
-2.0
 31
0.0
  0
LINE
  5
851
  8
0
 10
78.0
 20
2.0
 30
0.0
 11
82.0
 21
-2.0
 31
0.0
  0
CIRCLE
  5
852
  8
0
 10
0.0
 20
0.0
 30
0.0
 40
2.5
  0
CIRCLE
  5
853
  8
0
 10
80.0
 20
0.0
 30
0.0
 40
1.5
  0
LINE
  5
C69
  8
1
  6
CONTINUOUS
 10
79.0
 20
32.0
 30
0.0
 11
1.0
 21
32.0
 31
0.0
  0
LINE
  5
C6A
  8
3
  6
HIDDEN2
 10
0.0
 20
18.0
 30
0.0
 11
80.0
 21
18.0
 31
0.0
  0
LINE
  5
C76
  8
1
  6
CONTINUOUS
 10
1.0
 20
32.0
 30
0.0
 11
0.0
 21
31.000000000005119
 31
0.0
1001
GENIUS_GENFIL_13
1070
     1
1040
1.0
1040
0.999999999994884
1040
1.0
1040
44.999999999707242
1000
~T
1001
GENIUS_GENOREF_13
1005
0
  0
LINE
  5
C77
  8
1
  6
CONTINUOUS
 10
79.0
 20
32.0
 30
0.0
 11
80.0
 21
31.000000000005119
 31
0.0
1001
GENIUS_GENFIL_13
1070
     1
1040
1.0
1040
0.999999999994884
1040
1.0
1040
44.999999999707242
1000
~T
1001
GENIUS_GENOREF_13
1005
0
  0
LINE
  5
C79
  8
1
  6
CONTINUOUS
 10
79.0
 20
-32.0
 30
0.0
 11
1.0
 21
-32.0
 31
0.0
  0
LINE
  5
C7A
  8
1
  6
CONTINUOUS
 10
0.0
 20
-31.000000000005119
 30
0.0
 11
0.0
 21
31.000000000005119
 31
0.0
  0
LINE
  5
C7B
  8
1
  6
CONTINUOUS
 10
80.0
 20
-31.000000000005119
 30
0.0
 11
80.0
 21
31.000000000005119
 31
0.0
  0
LINE
  5
C7C
  8
1
  6
CONTINUOUS
 10
1.0
 20
-32.0
 30
0.0
 11
0.0
 21
-31.000000000005119
 31
0.0
1001
GENIUS_GENFIL_13
1070
     1
1040
1.0
1040
0.999999999994884
1040
1.0
1040
44.999999999707242
1000
~T
  0
LINE
  5
C7D
  8
1
  6
CONTINUOUS
 10
79.0
 20
-32.0
 30
0.0
 11
80.0
 21
-31.000000000005119
 31
0.0
1001
GENIUS_GENFIL_13
1070
     1
1040
1.0
1040
0.999999999994884
1040
1.0
1040
44.999999999707242
1000
~T
  0
CIRCLE
  5
CD3
  8
1
  6
CONTINUOUS
 10
4.9000000000002037
 20
0.0
 30
0.0
 40
2.5
  0
CIRCLE
  5
CD4
  8
1
  6
CONTINUOUS
 10
75.099999999999795
 20
0.0
 30
0.0
 40
2.5000000000001128
  0
LINE
  5
CDE
  8
4
  6
CENTER2
 10
75.099999999999795
 20
2.820801455173608
 30
0.0
 11
75.099999999999795
 21
-2.9218446201350612
 31
0.0
  0
LINE
  5
CDF
  8
4
  6
CENTER2
 10
4.9000000000002037
 20
2.820801455173608
 30
0.0
 11
4.9000000000002037
 21
-2.8463094776316771
 31
0.0
  0
CIRCLE
  5
2A33
  8
1
  6
CONTINUOUS
 10
16.0
 20
-0.0000000000000134
 30
0.0
 40
6.0
  0
CIRCLE
  5
2A34
  8
1
  6
CONTINUOUS
 10
16.0
 20
-0.0000000000000134
 30
0.0
 40
5.5
  0
LINE
  5
2A35
  8
4
  6
CENTER2
 10
16.0
 20
6.9999999999999831
 30
0.0
 11
16.0
 21
-7.0000000000000124
 31
0.0
1001
GRPNAME
1000
PASTMD01
  0
LINE
  5
2A36
  8
4
  6
CENTER2
 10
16.0
 20
19.940657918790851
 30
0.0
 11
16.0
 21
28.648090802874659
 31
0.0
  0
LINE
  5
2A37
  8
4
  6
CENTER2
 10
9.5835026440156525
 20
24.513422179806781
 30
0.0
 11
22.71548561213978
 21
24.513422179806781
 31
0.0
  0
POLYLINE
  5
2A38
  8
3
  6
HIDDEN2
 66
     1
 10
0.0
 20
0.0
 30
0.0
 70
     8
  0
VERTEX
  5
2A39
  8
3
  6
HIDDEN2
 10
10.818049999999991
 20
26.009145933838731
 30
0.0
 70
    32
  0
VERTEX
  5
2A3A
  8
3
  6
HIDDEN2
 10
10.708500000000001
 20
25.885100000000001
 30
0.0
 70
    32
  0
VERTEX
  5
2A3B
  8
3
  6
HIDDEN2
 10
10.576099999999981
 20
25.7163
 30
0.0
 70
    32
  0
VERTEX
  5
2A3C
  8
3
  6
HIDDEN2
 10
10.456699999999991
 20
25.543600000000001
 30
0.0
 70
    32
  0
VERTEX
  5
2A3D
  8
3
  6
HIDDEN2
 10
10.3507
 20
25.3674
 30
0.0
 70
    32
  0
VERTEX
  5
2A3E
  8
3
  6
HIDDEN2
 10
10.2584
 20
25.187999999999999
 30
0.0
 70
    32
  0
VERTEX
  5
2A3F
  8
3
  6
HIDDEN2
 10
10.17979999999999
 20
25.0059
 30
0.0
 70
    32
  0
VERTEX
  5
2A40
  8
3
  6
HIDDEN2
 10
10.11529999999998
 20
24.8216
 30
0.0
 70
    32
  0
VERTEX
  5
2A41
  8
3
  6
HIDDEN2
 10
10.0649
 20
24.6355
 30
0.0
 70
    32
  0
VERTEX
  5
2A42
  8
3
  6
HIDDEN2
 10
10.0289
 20
24.448
 30
0.0
 70
    32
  0
VERTEX
  5
2A43
  8
3
  6
HIDDEN2
 10
10.00719999999999
 20
24.259599999999999
 30
0.0
 70
    32
  0
VERTEX
  5
2A44
  8
3
  6
HIDDEN2
 10
10.0
 20
24.070699999999999
 30
0.0
 70
    32
  0
SEQEND
  5
2A45
  8
3
  6
HIDDEN2
  0
POLYLINE
  5
2A46
  8
3
  6
HIDDEN2
 66
     1
 10
0.0
 20
0.0
 30
0.0
 70
     8
  0
VERTEX
  5
2A47
  8
3
  6
HIDDEN2
 10
10.818049999999991
 20
25.295581463990541
 30
0.0
 70
    32
  0
VERTEX
  5
2A48
  8
3
  6
HIDDEN2
 10
10.736800000000001
 20
25.135000000000002
 30
0.0
 70
    32
  0
VERTEX
  5
2A49
  8
3
  6
HIDDEN2
 10
10.6648
 20
24.9651
 30
0.0
 70
    32
  0
VERTEX
  5
2A4A
  8
3
  6
HIDDEN2
 10
10.605700000000001
 20
24.793099999999999
 30
0.0
 70
    32
  0
VERTEX
  5
2A4B
  8
3
  6
HIDDEN2
 10
10.5595
 20
24.619399999999999
 30
0.0
 70
    32
  0
VERTEX
  5
2A4C
  8
3
  6
HIDDEN2
 10
10.5265
 20
24.444400000000002
 30
0.0
 70
    32
  0
VERTEX
  5
2A4D
  8
3
  6
HIDDEN2
 10
10.50659999999997
 20
24.268599999999999
 30
0.0
 70
    32
  0
VERTEX
  5
2A4E
  8
3
  6
HIDDEN2
 10
10.5
 20
24.092400000000001
 30
0.0
 70
    32
  0
SEQEND
  5
2A4F
  8
3
  6
HIDDEN2
  0
POLYLINE
  5
2A50
  8
3
  6
HIDDEN2
 66
     1
 10
0.0
 20
0.0
 30
0.0
 70
     8
  0
VERTEX
  5
2A51
  8
3
  6
HIDDEN2
 10
12.418049999999971
 20
26.816471404109581
 30
0.0
 70
    32
  0
VERTEX
  5
2A52
  8
3
  6
HIDDEN2
 10
12.306399999999989
 20
26.753599999999999
 30
0.0
 70
    32
  0
VERTEX
  5
2A53
  8
3
  6
HIDDEN2
 10
12.110900000000001
 20
26.632000000000001
 30
0.0
 70
    32
  0
VERTEX
  5
2A54
  8
3
  6
HIDDEN2
 10
11.924799999999991
 20
26.504300000000001
 30
0.0
 70
    32
  0
VERTEX
  5
2A55
  8
3
  6
HIDDEN2
 10
11.748399999999981
 20
26.370899999999999
 30
0.0
 70
    32
  0
VERTEX
  5
2A56
  8
3
  6
HIDDEN2
 10
11.61804999999999
 20
26.26175150602409
 30
0.0
 70
    32
  0
SEQEND
  5
2A57
  8
3
  6
HIDDEN2
  0
POLYLINE
  5
2A58
  8
3
  6
HIDDEN2
 66
     1
 10
0.0
 20
0.0
 30
0.0
 70
     8
  0
VERTEX
  5
2A59
  8
3
  6
HIDDEN2
 10
12.418049999999971
 20
27.15822166236002
 30
0.0
 70
    32
  0
VERTEX
  5
2A5A
  8
3
  6
HIDDEN2
 10
12.1936
 20
27.0459
 30
0.0
 70
    32
  0
VERTEX
  5
2A5B
  8
3
  6
HIDDEN2
 10
11.97059999999998
 20
26.922499999999999
 30
0.0
 70
    32
  0
VERTEX
  5
2A5C
  8
3
  6
HIDDEN2
 10
11.75739999999999
 20
26.792300000000001
 30
0.0
 70
    32
  0
VERTEX
  5
2A5D
  8
3
  6
HIDDEN2
 10
11.61804999999999
 20
26.698370827178731
 30
0.0
 70
    32
  0
SEQEND
  5
2A5E
  8
3
  6
HIDDEN2
  0
POLYLINE
  5
2A5F
  8
3
  6
HIDDEN2
 66
     1
 10
0.0
 20
0.0
 30
0.0
 70
     8
  0
VERTEX
  5
2A60
  8
3
  6
HIDDEN2
 10
14.01804999999997
 20
27.441519769749899
 30
0.0
 70
    32
  0
VERTEX
  5
2A61
  8
3
  6
HIDDEN2
 10
13.895200000000001
 20
27.410599999999999
 30
0.0
 70
    32
  0
VERTEX
  5
2A62
  8
3
  6
HIDDEN2
 10
13.648400000000001
 20
27.339099999999998
 30
0.0
 70
    32
  0
VERTEX
  5
2A63
  8
3
  6
HIDDEN2
 10
13.40729999999999
 20
27.259899999999998
 30
0.0
 70
    32
  0
VERTEX
  5
2A64
  8
3
  6
HIDDEN2
 10
13.21804999999998
 20
27.189887973605781
 30
0.0
 70
    32
  0
SEQEND
  5
2A65
  8
3
  6
HIDDEN2
  0
POLYLINE
  5
2A66
  8
3
  6
HIDDEN2
 66
     1
 10
0.0
 20
0.0
 30
0.0
 70
     8
  0
VERTEX
  5
2A67
  8
3
  6
HIDDEN2
 10
14.01804999999997
 20
27.70293161659513
 30
0.0
 70
    32
  0
VERTEX
  5
2A68
  8
3
  6
HIDDEN2
 10
13.9787
 20
27.694600000000001
 30
0.0
 70
    32
  0
VERTEX
  5
2A69
  8
3
  6
HIDDEN2
 10
13.70389999999998
 20
27.6266
 30
0.0
 70
    32
  0
VERTEX
  5
2A6A
  8
3
  6
HIDDEN2
 10
13.434699999999999
 20
27.550000000000001
 30
0.0
 70
    32
  0
VERTEX
  5
2A6B
  8
3
  6
HIDDEN2
 10
13.21804999999998
 20
27.480088996579251
 30
0.0
 70
    32
  0
SEQEND
  5
2A6C
  8
3
  6
HIDDEN2
  0
POLYLINE
  5
2A6D
  8
3
  6
HIDDEN2
 66
     1
 10
0.0
 20
0.0
 30
0.0
 70
     8
  0
VERTEX
  5
2A6E
  8
3
  6
HIDDEN2
 10
15.618049999999981
 20
27.910756503234591
 30
0.0
 70
    32
  0
VERTEX
  5
2A6F
  8
3
  6
HIDDEN2
 10
15.411899999999999
 20
27.901
 30
0.0
 70
    32
  0
VERTEX
  5
2A70
  8
3
  6
HIDDEN2
 10
15.1196
 20
27.8779
 30
0.0
 70
    32
  0
VERTEX
  5
2A71
  8
3
  6
HIDDEN2
 10
14.829499999999999
 20
27.845600000000001
 30
0.0
 70
    32
  0
VERTEX
  5
2A72
  8
3
  6
HIDDEN2
 10
14.818049999999969
 20
27.8439506263048
 30
0.0
 70
    32
  0
SEQEND
  5
2A73
  8
3
  6
HIDDEN2
  0
POLYLINE
  5
2A74
  8
3
  6
HIDDEN2
 66
     1
 10
0.0
 20
0.0
 30
0.0
 70
     8
  0
VERTEX
  5
2A75
  8
3
  6
HIDDEN2
 10
15.618049999999981
 20
27.674230590638931
 30
0.0
 70
    32
  0
VERTEX
  5
2A76
  8
3
  6
HIDDEN2
 10
15.460900000000001
 20
27.666699999999999
 30
0.0
 70
    32
  0
VERTEX
  5
2A77
  8
3
  6
HIDDEN2
 10
15.192999999999991
 20
27.645099999999999
 30
0.0
 70
    32
  0
VERTEX
  5
2A78
  8
3
  6
HIDDEN2
 10
14.927
 20
27.614999999999998
 30
0.0
 70
    32
  0
VERTEX
  5
2A79
  8
3
  6
HIDDEN2
 10
14.818049999999969
 20
27.598992539863321
 30
0.0
 70
    32
  0
SEQEND
  5
2A7A
  8
3
  6
HIDDEN2
  0
POLYLINE
  5
2A7B
  8
3
  6
HIDDEN2
 66
     1
 10
0.0
 20
0.0
 30
0.0
 70
     8
  0
VERTEX
  5
2A7C
  8
3
  6
HIDDEN2
 10
17.21804999999997
 20
27.593688553530761
 30
0.0
 70
    32
  0
VERTEX
  5
2A7D
  8
3
  6
HIDDEN2
 10
17.073
 20
27.614999999999998
 30
0.0
 70
    32
  0
VERTEX
  5
2A7E
  8
3
  6
HIDDEN2
 10
16.806999999999999
 20
27.645099999999999
 30
0.0
 70
    32
  0
VERTEX
  5
2A7F
  8
3
  6
HIDDEN2
 10
16.539099999999991
 20
27.666699999999999
 30
0.0
 70
    32
  0
VERTEX
  5
2A80
  8
3
  6
HIDDEN2
 10
16.418049999999969
 20
27.672500687221401
 30
0.0
 70
    32
  0
SEQEND
  5
2A81
  8
3
  6
HIDDEN2
  0
POLYLINE
  5
2A82
  8
3
  6
HIDDEN2
 66
     1
 10
0.0
 20
0.0
 30
0.0
 70
     8
  0
VERTEX
  5
2A83
  8
3
  6
HIDDEN2
 10
17.21804999999997
 20
27.838750417536541
 30
0.0
 70
    32
  0
VERTEX
  5
2A84
  8
3
  6
HIDDEN2
 10
17.17049999999999
 20
27.845600000000001
 30
0.0
 70
    32
  0
VERTEX
  5
2A85
  8
3
  6
HIDDEN2
 10
16.880400000000002
 20
27.8779
 30
0.0
 70
    32
  0
VERTEX
  5
2A86
  8
3
  6
HIDDEN2
 10
16.588100000000001
 20
27.901
 30
0.0
 70
    32
  0
VERTEX
  5
2A87
  8
3
  6
HIDDEN2
 10
16.418049999999969
 20
27.909047991147428
 30
0.0
 70
    32
  0
SEQEND
  5
2A88
  8
3
  6
HIDDEN2
  0
POLYLINE
  5
2A89
  8
3
  6
HIDDEN2
 66
     1
 10
0.0
 20
0.0
 30
0.0
 70
     8
  0
VERTEX
  5
2A8A
  8
3
  6
HIDDEN2
 10
18.81804999999996
 20
27.17653297147724
 30
0.0
 70
    32
  0
VERTEX
  5
2A8B
  8
3
  6
HIDDEN2
 10
18.592700000000001
 20
27.259899999999998
 30
0.0
 70
    32
  0
VERTEX
  5
2A8C
  8
3
  6
HIDDEN2
 10
18.351600000000001
 20
27.339099999999998
 30
0.0
 70
    32
  0
VERTEX
  5
2A8D
  8
3
  6
HIDDEN2
 10
18.104800000000001
 20
27.410599999999999
 30
0.0
 70
    32
  0
VERTEX
  5
2A8E
  8
3
  6
HIDDEN2
 10
18.01804999999997
 20
27.432433862643911
 30
0.0
 70
    32
  0
SEQEND
  5
2A8F
  8
3
  6
HIDDEN2
  0
POLYLINE
  5
2A90
  8
3
  6
HIDDEN2
 66
     1
 10
0.0
 20
0.0
 30
0.0
 70
     8
  0
VERTEX
  5
2A91
  8
3
  6
HIDDEN2
 10
18.81804999999996
 20
27.4684398517674
 30
0.0
 70
    32
  0
VERTEX
  5
2A92
  8
3
  6
HIDDEN2
 10
18.565300000000001
 20
27.550000000000001
 30
0.0
 70
    32
  0
VERTEX
  5
2A93
  8
3
  6
HIDDEN2
 10
18.296099999999999
 20
27.6266
 30
0.0
 70
    32
  0
VERTEX
  5
2A94
  8
3
  6
HIDDEN2
 10
18.0213
 20
27.694600000000001
 30
0.0
 70
    32
  0
VERTEX
  5
2A95
  8
3
  6
HIDDEN2
 10
18.01804999999997
 20
27.695288125894141
 30
0.0
 70
    32
  0
SEQEND
  5
2A96
  8
3
  6
HIDDEN2
  0
POLYLINE
  5
2A97
  8
3
  6
HIDDEN2
 66
     1
 10
0.0
 20
0.0
 30
0.0
 70
     8
  0
VERTEX
  5
2A98
  8
3
  6
HIDDEN2
 10
20.418049999999951
 20
26.23148299035374
 30
0.0
 70
    32
  0
VERTEX
  5
2A99
  8
3
  6
HIDDEN2
 10
20.4176
 20
26.2319
 30
0.0
 70
    32
  0
VERTEX
  5
2A9A
  8
3
  6
HIDDEN2
 10
20.2516
 20
26.370899999999999
 30
0.0
 70
    32
  0
VERTEX
  5
2A9B
  8
3
  6
HIDDEN2
 10
20.075199999999999
 20
26.504300000000001
 30
0.0
 70
    32
  0
VERTEX
  5
2A9C
  8
3
  6
HIDDEN2
 10
19.889099999999988
 20
26.632000000000001
 30
0.0
 70
    32
  0
VERTEX
  5
2A9D
  8
3
  6
HIDDEN2
 10
19.693600000000011
 20
26.753599999999999
 30
0.0
 70
    32
  0
VERTEX
  5
2A9E
  8
3
  6
HIDDEN2
 10
19.618049999999961
 20
26.796143077299451
 30
0.0
 70
    32
  0
SEQEND
  5
2A9F
  8
3
  6
HIDDEN2
  0
POLYLINE
  5
2AA0
  8
3
  6
HIDDEN2
 66
     1
 10
0.0
 20
0.0
 30
0.0
 70
     8
  0
VERTEX
  5
2AA1
  8
3
  6
HIDDEN2
 10
20.418049999999951
 20
26.67403754308226
 30
0.0
 70
    32
  0
VERTEX
  5
2AA2
  8
3
  6
HIDDEN2
 10
20.24260000000001
 20
26.792300000000001
 30
0.0
 70
    32
  0
VERTEX
  5
2AA3
  8
3
  6
HIDDEN2
 10
20.029399999999999
 20
26.922499999999999
 30
0.0
 70
    32
  0
VERTEX
  5
2AA4
  8
3
  6
HIDDEN2
 10
19.8064
 20
27.0459
 30
0.0
 70
    32
  0
VERTEX
  5
2AA5
  8
3
  6
HIDDEN2
 10
19.618049999999961
 20
27.140156115417771
 30
0.0
 70
    32
  0
SEQEND
  5
2AA6
  8
3
  6
HIDDEN2
  0
POLYLINE
  5
2AA7
  8
3
  6
HIDDEN2
 66
     1
 10
0.0
 20
0.0
 30
0.0
 70
     8
  0
VERTEX
  5
2AA8
  8
3
  6
HIDDEN2
 10
21.218049999999931
 20
22.960566115702392
 30
0.0
 70
    32
  0
VERTEX
  5
2AA9
  8
3
  6
HIDDEN2
 10
21.263199999999991
 20
23.049800000000001
 30
0.0
 70
    32
  0
VERTEX
  5
2AAA
  8
3
  6
HIDDEN2
 10
21.3352
 20
23.2197
 30
0.0
 70
    32
  0
VERTEX
  5
2AAB
  8
3
  6
HIDDEN2
 10
21.394300000000001
 20
23.3917
 30
0.0
 70
    32
  0
VERTEX
  5
2AAC
  8
3
  6
HIDDEN2
 10
21.4405
 20
23.5654
 30
0.0
 70
    32
  0
VERTEX
  5
2AAD
  8
3
  6
HIDDEN2
 10
21.473500000000001
 20
23.740400000000001
 30
0.0
 70
    32
  0
VERTEX
  5
2AAE
  8
3
  6
HIDDEN2
 10
21.493400000000001
 20
23.9162
 30
0.0
 70
    32
  0
VERTEX
  5
2AAF
  8
3
  6
HIDDEN2
 10
21.5
 20
24.092400000000001
 30
0.0
 70
    32
  0
VERTEX
  5
2AB0
  8
3
  6
HIDDEN2
 10
21.493400000000001
 20
24.268599999999999
 30
0.0
 70
    32
  0
VERTEX
  5
2AB1
  8
3
  6
HIDDEN2
 10
21.473500000000001
 20
24.444400000000002
 30
0.0
 70
    32
  0
VERTEX
  5
2AB2
  8
3
  6
HIDDEN2
 10
21.4405
 20
24.619399999999999
 30
0.0
 70
    32
  0
VERTEX
  5
2AB3
  8
3
  6
HIDDEN2
 10
21.394300000000001
 20
24.793099999999999
 30
0.0
 70
    32
  0
VERTEX
  5
2AB4
  8
3
  6
HIDDEN2
 10
21.3352
 20
24.9651
 30
0.0
 70
    32
  0
VERTEX
  5
2AB5
  8
3
  6
HIDDEN2
 10
21.263199999999991
 20
25.135000000000002
 30
0.0
 70
    32
  0
VERTEX
  5
2AB6
  8
3
  6
HIDDEN2
 10
21.218049999999931
 20
25.224233884297611
 30
0.0
 70
    32
  0
SEQEND
  5
2AB7
  8
3
  6
HIDDEN2
  0
POLYLINE
  5
2AB8
  8
3
  6
HIDDEN2
 66
     1
 10
0.0
 20
0.0
 30
0.0
 70
     8
  0
VERTEX
  5
2AB9
  8
3
  6
HIDDEN2
 10
21.218049999999931
 20
22.173230909717379
 30
0.0
 70
    32
  0
VERTEX
  5
2ABA
  8
3
  6
HIDDEN2
 10
21.291499999999999
 20
22.256399999999999
 30
0.0
 70
    32
  0
VERTEX
  5
2ABB
  8
3
  6
HIDDEN2
 10
21.4239
 20
22.4252
 30
0.0
 70
    32
  0
VERTEX
  5
2ABC
  8
3
  6
HIDDEN2
 10
21.543299999999999
 20
22.597899999999999
 30
0.0
 70
    32
  0
VERTEX
  5
2ABD
  8
3
  6
HIDDEN2
 10
21.6493
 20
22.774100000000001
 30
0.0
 70
    32
  0
VERTEX
  5
2ABE
  8
3
  6
HIDDEN2
 10
21.741599999999991
 20
22.953499999999998
 30
0.0
 70
    32
  0
VERTEX
  5
2ABF
  8
3
  6
HIDDEN2
 10
21.8202
 20
23.1356
 30
0.0
 70
    32
  0
VERTEX
  5
2AC0
  8
3
  6
HIDDEN2
 10
21.884699999999999
 20
23.319900000000001
 30
0.0
 70
    32
  0
VERTEX
  5
2AC1
  8
3
  6
HIDDEN2
 10
21.935099999999998
 20
23.506
 30
0.0
 70
    32
  0
VERTEX
  5
2AC2
  8
3
  6
HIDDEN2
 10
21.9711
 20
23.6935
 30
0.0
 70
    32
  0
VERTEX
  5
2AC3
  8
3
  6
HIDDEN2
 10
21.992799999999999
 20
23.881900000000002
 30
0.0
 70
    32
  0
VERTEX
  5
2AC4
  8
3
  6
HIDDEN2
 10
22.0
 20
24.070699999999999
 30
0.0
 70
    32
  0
VERTEX
  5
2AC5
  8
3
  6
HIDDEN2
 10
21.992799999999999
 20
24.259599999999999
 30
0.0
 70
    32
  0
VERTEX
  5
2AC6
  8
3
  6
HIDDEN2
 10
21.9711
 20
24.448
 30
0.0
 70
    32
  0
VERTEX
  5
2AC7
  8
3
  6
HIDDEN2
 10
21.935099999999998
 20
24.6355
 30
0.0
 70
    32
  0
VERTEX
  5
2AC8
  8
3
  6
HIDDEN2
 10
21.884699999999999
 20
24.8216
 30
0.0
 70
    32
  0
VERTEX
  5
2AC9
  8
3
  6
HIDDEN2
 10
21.8202
 20
25.0059
 30
0.0
 70
    32
  0
VERTEX
  5
2ACA
  8
3
  6
HIDDEN2
 10
21.741599999999991
 20
25.187999999999999
 30
0.0
 70
    32
  0
VERTEX
  5
2ACB
  8
3
  6
HIDDEN2
 10
21.6493
 20
25.3674
 30
0.0
 70
    32
  0
VERTEX
  5
2ACC
  8
3
  6
HIDDEN2
 10
21.543299999999999
 20
25.543600000000001
 30
0.0
 70
    32
  0
VERTEX
  5
2ACD
  8
3
  6
HIDDEN2
 10
21.4239
 20
25.7163
 30
0.0
 70
    32
  0
VERTEX
  5
2ACE
  8
3
  6
HIDDEN2
 10
21.291499999999999
 20
25.885100000000001
 30
0.0
 70
    32
  0
VERTEX
  5
2ACF
  8
3
  6
HIDDEN2
 10
21.218049999999931
 20
25.968269090282622
 30
0.0
 70
    32
  0
SEQEND
  5
2AD0
  8
3
  6
HIDDEN2
  0
POLYLINE
  5
2AD1
  8
3
  6
HIDDEN2
 66
     1
 10
0.0
 20
0.0
 30
0.0
 70
     8
  0
VERTEX
  5
2AD2
  8
3
  6
HIDDEN2
 10
19.618049999999961
 20
21.388656922700569
 30
0.0
 70
    32
  0
VERTEX
  5
2AD3
  8
3
  6
HIDDEN2
 10
19.693600000000011
 20
21.4312
 30
0.0
 70
    32
  0
VERTEX
  5
2AD4
  8
3
  6
HIDDEN2
 10
19.889099999999988
 20
21.552800000000001
 30
0.0
 70
    32
  0
VERTEX
  5
2AD5
  8
3
  6
HIDDEN2
 10
20.075199999999999
 20
21.680399999999999
 30
0.0
 70
    32
  0
VERTEX
  5
2AD6
  8
3
  6
HIDDEN2
 10
20.2516
 20
21.8139
 30
0.0
 70
    32
  0
VERTEX
  5
2AD7
  8
3
  6
HIDDEN2
 10
20.4176
 20
21.9529
 30
0.0
 70
    32
  0
VERTEX
  5
2AD8
  8
3
  6
HIDDEN2
 10
20.418049999999951
 20
21.953317009646241
 30
0.0
 70
    32
  0
SEQEND
  5
2AD9
  8
3
  6
HIDDEN2
  0
POLYLINE
  5
2ADA
  8
3
  6
HIDDEN2
 66
     1
 10
0.0
 20
0.0
 30
0.0
 70
     8
  0
VERTEX
  5
2ADB
  8
3
  6
HIDDEN2
 10
19.618049999999961
 20
21.001343884582241
 30
0.0
 70
    32
  0
VERTEX
  5
2ADC
  8
3
  6
HIDDEN2
 10
19.8064
 20
21.095600000000001
 30
0.0
 70
    32
  0
VERTEX
  5
2ADD
  8
3
  6
HIDDEN2
 10
20.029399999999999
 20
21.219000000000001
 30
0.0
 70
    32
  0
VERTEX
  5
2ADE
  8
3
  6
HIDDEN2
 10
20.24260000000001
 20
21.3492
 30
0.0
 70
    32
  0
VERTEX
  5
2ADF
  8
3
  6
HIDDEN2
 10
20.418049999999951
 20
21.467376070901
 30
0.0
 70
    32
  0
SEQEND
  5
2AE0
  8
3
  6
HIDDEN2
  0
POLYLINE
  5
2AE1
  8
3
  6
HIDDEN2
 66
     1
 10
0.0
 20
0.0
 30
0.0
 70
     8
  0
VERTEX
  5
2AE2
  8
3
  6
HIDDEN2
 10
18.01804999999997
 20
20.752366137356081
 30
0.0
 70
    32
  0
VERTEX
  5
2AE3
  8
3
  6
HIDDEN2
 10
18.104800000000001
 20
20.7742
 30
0.0
 70
    32
  0
VERTEX
  5
2AE4
  8
3
  6
HIDDEN2
 10
18.351600000000001
 20
20.845700000000001
 30
0.0
 70
    32
  0
VERTEX
  5
2AE5
  8
3
  6
HIDDEN2
 10
18.592700000000001
 20
20.924900000000001
 30
0.0
 70
    32
  0
VERTEX
  5
2AE6
  8
3
  6
HIDDEN2
 10
18.81804999999996
 20
21.008267028522759
 30
0.0
 70
    32
  0
SEQEND
  5
2AE7
  8
3
  6
HIDDEN2
  0
POLYLINE
  5
2AE8
  8
3
  6
HIDDEN2
 66
     1
 10
0.0
 20
0.0
 30
0.0
 70
     8
  0
VERTEX
  5
2AE9
  8
3
  6
HIDDEN2
 10
18.01804999999997
 20
20.44621187410586
 30
0.0
 70
    32
  0
VERTEX
  5
2AEA
  8
3
  6
HIDDEN2
 10
18.0213
 20
20.446899999999999
 30
0.0
 70
    32
  0
VERTEX
  5
2AEB
  8
3
  6
HIDDEN2
 10
18.296099999999999
 20
20.514900000000001
 30
0.0
 70
    32
  0
VERTEX
  5
2AEC
  8
3
  6
HIDDEN2
 10
18.565300000000001
 20
20.5915
 30
0.0
 70
    32
  0
VERTEX
  5
2AED
  8
3
  6
HIDDEN2
 10
18.81804999999996
 20
20.673060148232601
 30
0.0
 70
    32
  0
SEQEND
  5
2AEE
  8
3
  6
HIDDEN2
  0
POLYLINE
  5
2AEF
  8
3
  6
HIDDEN2
 66
     1
 10
0.0
 20
0.0
 30
0.0
 70
     8
  0
VERTEX
  5
2AF0
  8
3
  6
HIDDEN2
 10
16.418049999999969
 20
20.232452008852569
 30
0.0
 70
    32
  0
VERTEX
  5
2AF1
  8
3
  6
HIDDEN2
 10
16.588100000000001
 20
20.240500000000001
 30
0.0
 70
    32
  0
VERTEX
  5
2AF2
  8
3
  6
HIDDEN2
 10
16.880400000000002
 20
20.2636
 30
0.0
 70
    32
  0
VERTEX
  5
2AF3
  8
3
  6
HIDDEN2
 10
17.17049999999999
 20
20.2959
 30
0.0
 70
    32
  0
VERTEX
  5
2AF4
  8
3
  6
HIDDEN2
 10
17.21804999999997
 20
20.302749582463449
 30
0.0
 70
    32
  0
SEQEND
  5
2AF5
  8
3
  6
HIDDEN2
  0
POLYLINE
  5
2AF6
  8
3
  6
HIDDEN2
 66
     1
 10
0.0
 20
0.0
 30
0.0
 70
     8
  0
VERTEX
  5
2AF7
  8
3
  6
HIDDEN2
 10
16.418049999999969
 20
20.512254346211002
 30
0.0
 70
    32
  0
VERTEX
  5
2AF8
  8
3
  6
HIDDEN2
 10
16.539099999999991
 20
20.5181
 30
0.0
 70
    32
  0
VERTEX
  5
2AF9
  8
3
  6
HIDDEN2
 10
16.806999999999999
 20
20.5397
 30
0.0
 70
    32
  0
VERTEX
  5
2AFA
  8
3
  6
HIDDEN2
 10
17.073
 20
20.569800000000001
 30
0.0
 70
    32
  0
VERTEX
  5
2AFB
  8
3
  6
HIDDEN2
 10
17.21804999999997
 20
20.591111446469249
 30
0.0
 70
    32
  0
SEQEND
  5
2AFC
  8
3
  6
HIDDEN2
  0
POLYLINE
  5
2AFD
  8
3
  6
HIDDEN2
 66
     1
 10
0.0
 20
0.0
 30
0.0
 70
     8
  0
VERTEX
  5
2AFE
  8
3
  6
HIDDEN2
 10
14.818049999999969
 20
20.297549373695201
 30
0.0
 70
    32
  0
VERTEX
  5
2AFF
  8
3
  6
HIDDEN2
 10
14.829499999999999
 20
20.2959
 30
0.0
 70
    32
  0
VERTEX
  5
2B00
  8
3
  6
HIDDEN2
 10
15.1196
 20
20.2636
 30
0.0
 70
    32
  0
VERTEX
  5
2B01
  8
3
  6
HIDDEN2
 10
15.411899999999999
 20
20.240500000000001
 30
0.0
 70
    32
  0
VERTEX
  5
2B02
  8
3
  6
HIDDEN2
 10
15.618049999999981
 20
20.23074349676541
 30
0.0
 70
    32
  0
SEQEND
  5
2B03
  8
3
  6
HIDDEN2
  0
POLYLINE
  5
2B04
  8
3
  6
HIDDEN2
 66
     1
 10
0.0
 20
0.0
 30
0.0
 70
     8
  0
VERTEX
  5
2B05
  8
3
  6
HIDDEN2
 10
14.818049999999969
 20
20.585807460136682
 30
0.0
 70
    32
  0
VERTEX
  5
2B06
  8
3
  6
HIDDEN2
 10
14.927
 20
20.569800000000001
 30
0.0
 70
    32
  0
VERTEX
  5
2B07
  8
3
  6
HIDDEN2
 10
15.192999999999991
 20
20.5397
 30
0.0
 70
    32
  0
VERTEX
  5
2B08
  8
3
  6
HIDDEN2
 10
15.460900000000001
 20
20.5181
 30
0.0
 70
    32
  0
VERTEX
  5
2B09
  8
3
  6
HIDDEN2
 10
15.618049999999981
 20
20.51051103268945
 30
0.0
 70
    32
  0
SEQEND
  5
2B0A
  8
3
  6
HIDDEN2
  0
POLYLINE
  5
2B0B
  8
3
  6
HIDDEN2
 66
     1
 10
0.0
 20
0.0
 30
0.0
 70
     8
  0
VERTEX
  5
2B0C
  8
3
  6
HIDDEN2
 10
13.21804999999998
 20
20.661411003420749
 30
0.0
 70
    32
  0
VERTEX
  5
2B0D
  8
3
  6
HIDDEN2
 10
13.434699999999999
 20
20.5915
 30
0.0
 70
    32
  0
VERTEX
  5
2B0E
  8
3
  6
HIDDEN2
 10
13.70389999999998
 20
20.514900000000001
 30
0.0
 70
    32
  0
VERTEX
  5
2B0F
  8
3
  6
HIDDEN2
 10
13.9787
 20
20.446899999999999
 30
0.0
 70
    32
  0
VERTEX
  5
2B10
  8
3
  6
HIDDEN2
 10
14.01804999999997
 20
20.438568383404871
 30
0.0
 70
    32
  0
SEQEND
  5
2B11
  8
3
  6
HIDDEN2
  0
POLYLINE
  5
2B12
  8
3
  6
HIDDEN2
 66
     1
 10
0.0
 20
0.0
 30
0.0
 70
     8
  0
VERTEX
  5
2B13
  8
3
  6
HIDDEN2
 10
13.21804999999998
 20
20.994912026394221
 30
0.0
 70
    32
  0
VERTEX
  5
2B14
  8
3
  6
HIDDEN2
 10
13.40729999999999
 20
20.924900000000001
 30
0.0
 70
    32
  0
VERTEX
  5
2B15
  8
3
  6
HIDDEN2
 10
13.648400000000001
 20
20.845700000000001
 30
0.0
 70
    32
  0
VERTEX
  5
2B16
  8
3
  6
HIDDEN2
 10
13.895200000000001
 20
20.7742
 30
0.0
 70
    32
  0
VERTEX
  5
2B17
  8
3
  6
HIDDEN2
 10
14.01804999999997
 20
20.7432802302501
 30
0.0
 70
    32
  0
SEQEND
  5
2B18
  8
3
  6
HIDDEN2
  0
POLYLINE
  5
2B19
  8
3
  6
HIDDEN2
 66
     1
 10
0.0
 20
0.0
 30
0.0
 70
     8
  0
VERTEX
  5
2B1A
  8
3
  6
HIDDEN2
 10
10.0
 20
24.070699999999999
 30
0.0
 70
    32
  0
VERTEX
  5
2B1B
  8
3
  6
HIDDEN2
 10
10.00719999999999
 20
23.881900000000002
 30
0.0
 70
    32
  0
VERTEX
  5
2B1C
  8
3
  6
HIDDEN2
 10
10.0289
 20
23.6935
 30
0.0
 70
    32
  0
VERTEX
  5
2B1D
  8
3
  6
HIDDEN2
 10
10.0649
 20
23.506
 30
0.0
 70
    32
  0
VERTEX
  5
2B1E
  8
3
  6
HIDDEN2
 10
10.11529999999998
 20
23.319900000000001
 30
0.0
 70
    32
  0
VERTEX
  5
2B1F
  8
3
  6
HIDDEN2
 10
10.17979999999999
 20
23.1356
 30
0.0
 70
    32
  0
VERTEX
  5
2B20
  8
3
  6
HIDDEN2
 10
10.2584
 20
22.953499999999998
 30
0.0
 70
    32
  0
VERTEX
  5
2B21
  8
3
  6
HIDDEN2
 10
10.3507
 20
22.774100000000001
 30
0.0
 70
    32
  0
VERTEX
  5
2B22
  8
3
  6
HIDDEN2
 10
10.456699999999991
 20
22.597899999999999
 30
0.0
 70
    32
  0
VERTEX
  5
2B23
  8
3
  6
HIDDEN2
 10
10.576099999999981
 20
22.4252
 30
0.0
 70
    32
  0
VERTEX
  5
2B24
  8
3
  6
HIDDEN2
 10
10.708500000000001
 20
22.256399999999999
 30
0.0
 70
    32
  0
VERTEX
  5
2B25
  8
3
  6
HIDDEN2
 10
10.818049999999991
 20
22.13235406616127
 30
0.0
 70
    32
  0
SEQEND
  5
2B26
  8
3
  6
HIDDEN2
  0
POLYLINE
  5
2B27
  8
3
  6
HIDDEN2
 66
     1
 10
0.0
 20
0.0
 30
0.0
 70
     8
  0
VERTEX
  5
2B28
  8
3
  6
HIDDEN2
 10
11.61804999999999
 20
21.443060561299859
 30
0.0
 70
    32
  0
VERTEX
  5
2B29
  8
3
  6
HIDDEN2
 10
11.75739999999999
 20
21.3492
 30
0.0
 70
    32
  0
VERTEX
  5
2B2A
  8
3
  6
HIDDEN2
 10
11.97059999999998
 20
21.219000000000001
 30
0.0
 70
    32
  0
VERTEX
  5
2B2B
  8
3
  6
HIDDEN2
 10
12.1936
 20
21.095600000000001
 30
0.0
 70
    32
  0
VERTEX
  5
2B2C
  8
3
  6
HIDDEN2
 10
12.418049999999971
 20
20.98327833763997
 30
0.0
 70
    32
  0
SEQEND
  5
2B2D
  8
3
  6
HIDDEN2
  0
POLYLINE
  5
2B2E
  8
3
  6
HIDDEN2
 66
     1
 10
0.0
 20
0.0
 30
0.0
 70
     8
  0
VERTEX
  5
2B2F
  8
3
  6
HIDDEN2
 10
10.5
 20
24.092400000000001
 30
0.0
 70
    32
  0
VERTEX
  5
2B30
  8
3
  6
HIDDEN2
 10
10.50659999999997
 20
23.9162
 30
0.0
 70
    32
  0
VERTEX
  5
2B31
  8
3
  6
HIDDEN2
 10
10.5265
 20
23.740400000000001
 30
0.0
 70
    32
  0
VERTEX
  5
2B32
  8
3
  6
HIDDEN2
 10
10.5595
 20
23.5654
 30
0.0
 70
    32
  0
VERTEX
  5
2B33
  8
3
  6
HIDDEN2
 10
10.605700000000001
 20
23.3917
 30
0.0
 70
    32
  0
VERTEX
  5
2B34
  8
3
  6
HIDDEN2
 10
10.6648
 20
23.2197
 30
0.0
 70
    32
  0
VERTEX
  5
2B35
  8
3
  6
HIDDEN2
 10
10.736800000000001
 20
23.049800000000001
 30
0.0
 70
    32
  0
VERTEX
  5
2B36
  8
3
  6
HIDDEN2
 10
10.818049999999991
 20
22.889218536009459
 30
0.0
 70
    32
  0
SEQEND
  5
2B37
  8
3
  6
HIDDEN2
  0
POLYLINE
  5
2B38
  8
3
  6
HIDDEN2
 66
     1
 10
0.0
 20
0.0
 30
0.0
 70
     8
  0
VERTEX
  5
2B39
  8
3
  6
HIDDEN2
 10
11.61804999999999
 20
21.923048493975902
 30
0.0
 70
    32
  0
VERTEX
  5
2B3A
  8
3
  6
HIDDEN2
 10
11.748399999999981
 20
21.8139
 30
0.0
 70
    32
  0
VERTEX
  5
2B3B
  8
3
  6
HIDDEN2
 10
11.924799999999991
 20
21.680399999999999
 30
0.0
 70
    32
  0
VERTEX
  5
2B3C
  8
3
  6
HIDDEN2
 10
12.110900000000001
 20
21.552800000000001
 30
0.0
 70
    32
  0
VERTEX
  5
2B3D
  8
3
  6
HIDDEN2
 10
12.306399999999989
 20
21.4312
 30
0.0
 70
    32
  0
VERTEX
  5
2B3E
  8
3
  6
HIDDEN2
 10
12.418049999999971
 20
21.368328595890421
 30
0.0
 70
    32
  0
SEQEND
  5
2B3F
  8
3
  6
HIDDEN2
  0
POLYLINE
  5
2B40
  8
3
  6
HIDDEN2
 66
     1
 10
0.0
 20
0.0
 30
0.0
 70
     8
  0
VERTEX
  5
2B41
  8
3
  6
HIDDEN2
 10
10.81804999999993
 20
-26.009145933838749
 30
0.0
 70
    32
  0
VERTEX
  5
2B42
  8
3
  6
HIDDEN2
 10
10.70849999999993
 20
-25.885100000000019
 30
0.0
 70
    32
  0
VERTEX
  5
2B43
  8
3
  6
HIDDEN2
 10
10.576099999999951
 20
-25.716300000000022
 30
0.0
 70
    32
  0
VERTEX
  5
2B44
  8
3
  6
HIDDEN2
 10
10.456699999999939
 20
-25.543600000000019
 30
0.0
 70
    32
  0
VERTEX
  5
2B45
  8
3
  6
HIDDEN2
 10
10.350699999999939
 20
-25.367400000000021
 30
0.0
 70
    32
  0
VERTEX
  5
2B46
  8
3
  6
HIDDEN2
 10
10.258399999999961
 20
-25.188000000000009
 30
0.0
 70
    32
  0
VERTEX
  5
2B47
  8
3
  6
HIDDEN2
 10
10.17979999999995
 20
-25.005900000000018
 30
0.0
 70
    32
  0
VERTEX
  5
2B48
  8
3
  6
HIDDEN2
 10
10.11529999999995
 20
-24.821600000000021
 30
0.0
 70
    32
  0
VERTEX
  5
2B49
  8
3
  6
HIDDEN2
 10
10.064899999999961
 20
-24.635500000000011
 30
0.0
 70
    32
  0
VERTEX
  5
2B4A
  8
3
  6
HIDDEN2
 10
10.02889999999995
 20
-24.448000000000022
 30
0.0
 70
    32
  0
VERTEX
  5
2B4B
  8
3
  6
HIDDEN2
 10
10.007199999999941
 20
-24.25960000000002
 30
0.0
 70
    32
  0
VERTEX
  5
2B4C
  8
3
  6
HIDDEN2
 10
9.9999999999999272
 20
-24.070700000000009
 30
0.0
 70
    32
  0
SEQEND
  5
2B4D
  8
3
  6
HIDDEN2
  0
POLYLINE
  5
2B4E
  8
3
  6
HIDDEN2
 66
     1
 10
0.0
 20
0.0
 30
0.0
 70
     8
  0
VERTEX
  5
2B4F
  8
3
  6
HIDDEN2
 10
12.41804999999993
 20
-27.158221662360042
 30
0.0
 70
    32
  0
VERTEX
  5
2B50
  8
3
  6
HIDDEN2
 10
12.193599999999931
 20
-27.045900000000021
 30
0.0
 70
    32
  0
VERTEX
  5
2B51
  8
3
  6
HIDDEN2
 10
11.97059999999993
 20
-26.922500000000021
 30
0.0
 70
    32
  0
VERTEX
  5
2B52
  8
3
  6
HIDDEN2
 10
11.757399999999929
 20
-26.792300000000019
 30
0.0
 70
    32
  0
VERTEX
  5
2B53
  8
3
  6
HIDDEN2
 10
11.618049999999929
 20
-26.698370827178749
 30
0.0
 70
    32
  0
SEQEND
  5
2B54
  8
3
  6
HIDDEN2
  0
POLYLINE
  5
2B55
  8
3
  6
HIDDEN2
 66
     1
 10
0.0
 20
0.0
 30
0.0
 70
     8
  0
VERTEX
  5
2B56
  8
3
  6
HIDDEN2
 10
14.01804999999993
 20
-27.702931616595158
 30
0.0
 70
    32
  0
VERTEX
  5
2B57
  8
3
  6
HIDDEN2
 10
13.978699999999931
 20
-27.694600000000019
 30
0.0
 70
    32
  0
VERTEX
  5
2B58
  8
3
  6
HIDDEN2
 10
13.70389999999993
 20
-27.626600000000021
 30
0.0
 70
    32
  0
VERTEX
  5
2B59
  8
3
  6
HIDDEN2
 10
13.43469999999993
 20
-27.550000000000029
 30
0.0
 70
    32
  0
VERTEX
  5
2B5A
  8
3
  6
HIDDEN2
 10
13.218049999999931
 20
-27.480088996579269
 30
0.0
 70
    32
  0
SEQEND
  5
2B5B
  8
3
  6
HIDDEN2
  0
POLYLINE
  5
2B5C
  8
3
  6
HIDDEN2
 66
     1
 10
0.0
 20
0.0
 30
0.0
 70
     8
  0
VERTEX
  5
2B5D
  8
3
  6
HIDDEN2
 10
15.61804999999992
 20
-27.910756503234619
 30
0.0
 70
    32
  0
VERTEX
  5
2B5E
  8
3
  6
HIDDEN2
 10
15.41189999999995
 20
-27.901000000000021
 30
0.0
 70
    32
  0
VERTEX
  5
2B5F
  8
3
  6
HIDDEN2
 10
15.119599999999931
 20
-27.877900000000029
 30
0.0
 70
    32
  0
VERTEX
  5
2B60
  8
3
  6
HIDDEN2
 10
14.82949999999995
 20
-27.845600000000029
 30
0.0
 70
    32
  0
VERTEX
  5
2B61
  8
3
  6
HIDDEN2
 10
14.81804999999992
 20
-27.843950626304821
 30
0.0
 70
    32
  0
SEQEND
  5
2B62
  8
3
  6
HIDDEN2
  0
POLYLINE
  5
2B63
  8
3
  6
HIDDEN2
 66
     1
 10
0.0
 20
0.0
 30
0.0
 70
     8
  0
VERTEX
  5
2B64
  8
3
  6
HIDDEN2
 10
17.218049999999899
 20
-27.83875041753657
 30
0.0
 70
    32
  0
VERTEX
  5
2B65
  8
3
  6
HIDDEN2
 10
17.170499999999929
 20
-27.845600000000029
 30
0.0
 70
    32
  0
VERTEX
  5
2B66
  8
3
  6
HIDDEN2
 10
16.880399999999948
 20
-27.877900000000029
 30
0.0
 70
    32
  0
VERTEX
  5
2B67
  8
3
  6
HIDDEN2
 10
16.58809999999993
 20
-27.901000000000032
 30
0.0
 70
    32
  0
VERTEX
  5
2B68
  8
3
  6
HIDDEN2
 10
16.418049999999919
 20
-27.90904799114746
 30
0.0
 70
    32
  0
SEQEND
  5
2B69
  8
3
  6
HIDDEN2
  0
POLYLINE
  5
2B6A
  8
3
  6
HIDDEN2
 66
     1
 10
0.0
 20
0.0
 30
0.0
 70
     8
  0
VERTEX
  5
2B6B
  8
3
  6
HIDDEN2
 10
18.818049999999921
 20
-27.468439851767432
 30
0.0
 70
    32
  0
VERTEX
  5
2B6C
  8
3
  6
HIDDEN2
 10
18.565299999999951
 20
-27.550000000000029
 30
0.0
 70
    32
  0
VERTEX
  5
2B6D
  8
3
  6
HIDDEN2
 10
18.296099999999949
 20
-27.626600000000028
 30
0.0
 70
    32
  0
VERTEX
  5
2B6E
  8
3
  6
HIDDEN2
 10
18.021299999999929
 20
-27.69460000000004
 30
0.0
 70
    32
  0
VERTEX
  5
2B6F
  8
3
  6
HIDDEN2
 10
18.018049999999921
 20
-27.695288125894169
 30
0.0
 70
    32
  0
SEQEND
  5
2B70
  8
3
  6
HIDDEN2
  0
POLYLINE
  5
2B71
  8
3
  6
HIDDEN2
 66
     1
 10
0.0
 20
0.0
 30
0.0
 70
     8
  0
VERTEX
  5
2B72
  8
3
  6
HIDDEN2
 10
20.418049999999919
 20
-26.674037543082289
 30
0.0
 70
    32
  0
VERTEX
  5
2B73
  8
3
  6
HIDDEN2
 10
20.242599999999982
 20
-26.792300000000029
 30
0.0
 70
    32
  0
VERTEX
  5
2B74
  8
3
  6
HIDDEN2
 10
20.029399999999949
 20
-26.922500000000039
 30
0.0
 70
    32
  0
VERTEX
  5
2B75
  8
3
  6
HIDDEN2
 10
19.806399999999929
 20
-27.045900000000039
 30
0.0
 70
    32
  0
VERTEX
  5
2B76
  8
3
  6
HIDDEN2
 10
19.618049999999901
 20
-27.140156115417788
 30
0.0
 70
    32
  0
SEQEND
  5
2B77
  8
3
  6
HIDDEN2
  0
POLYLINE
  5
2B78
  8
3
  6
HIDDEN2
 66
     1
 10
0.0
 20
0.0
 30
0.0
 70
     8
  0
VERTEX
  5
2B79
  8
3
  6
HIDDEN2
 10
21.218049999999931
 20
-22.173230909717422
 30
0.0
 70
    32
  0
VERTEX
  5
2B7A
  8
3
  6
HIDDEN2
 10
21.29149999999996
 20
-22.256400000000031
 30
0.0
 70
    32
  0
VERTEX
  5
2B7B
  8
3
  6
HIDDEN2
 10
21.423899999999978
 20
-22.425200000000039
 30
0.0
 70
    32
  0
VERTEX
  5
2B7C
  8
3
  6
HIDDEN2
 10
21.543299999999981
 20
-22.597900000000038
 30
0.0
 70
    32
  0
VERTEX
  5
2B7D
  8
3
  6
HIDDEN2
 10
21.649299999999929
 20
-22.77410000000004
 30
0.0
 70
    32
  0
VERTEX
  5
2B7E
  8
3
  6
HIDDEN2
 10
21.741599999999931
 20
-22.95350000000003
 30
0.0
 70
    32
  0
VERTEX
  5
2B7F
  8
3
  6
HIDDEN2
 10
21.820199999999971
 20
-23.135600000000039
 30
0.0
 70
    32
  0
VERTEX
  5
2B80
  8
3
  6
HIDDEN2
 10
21.88469999999996
 20
-23.31990000000004
 30
0.0
 70
    32
  0
VERTEX
  5
2B81
  8
3
  6
HIDDEN2
 10
21.935099999999942
 20
-23.506000000000039
 30
0.0
 70
    32
  0
VERTEX
  5
2B82
  8
3
  6
HIDDEN2
 10
21.971099999999961
 20
-23.693500000000039
 30
0.0
 70
    32
  0
VERTEX
  5
2B83
  8
3
  6
HIDDEN2
 10
21.99279999999996
 20
-23.881900000000041
 30
0.0
 70
    32
  0
VERTEX
  5
2B84
  8
3
  6
HIDDEN2
 10
21.99999999999995
 20
-24.070700000000041
 30
0.0
 70
    32
  0
VERTEX
  5
2B85
  8
3
  6
HIDDEN2
 10
21.99279999999996
 20
-24.259600000000031
 30
0.0
 70
    32
  0
VERTEX
  5
2B86
  8
3
  6
HIDDEN2
 10
21.971099999999961
 20
-24.448000000000039
 30
0.0
 70
    32
  0
VERTEX
  5
2B87
  8
3
  6
HIDDEN2
 10
21.935099999999942
 20
-24.635500000000039
 30
0.0
 70
    32
  0
VERTEX
  5
2B88
  8
3
  6
HIDDEN2
 10
21.88469999999996
 20
-24.821600000000039
 30
0.0
 70
    32
  0
VERTEX
  5
2B89
  8
3
  6
HIDDEN2
 10
21.820199999999971
 20
-25.00590000000004
 30
0.0
 70
    32
  0
VERTEX
  5
2B8A
  8
3
  6
HIDDEN2
 10
21.741599999999931
 20
-25.188000000000041
 30
0.0
 70
    32
  0
VERTEX
  5
2B8B
  8
3
  6
HIDDEN2
 10
21.649299999999929
 20
-25.367400000000028
 30
0.0
 70
    32
  0
VERTEX
  5
2B8C
  8
3
  6
HIDDEN2
 10
21.543299999999959
 20
-25.54360000000004
 30
0.0
 70
    32
  0
VERTEX
  5
2B8D
  8
3
  6
HIDDEN2
 10
21.423899999999961
 20
-25.716300000000039
 30
0.0
 70
    32
  0
VERTEX
  5
2B8E
  8
3
  6
HIDDEN2
 10
21.291499999999932
 20
-25.88510000000004
 30
0.0
 70
    32
  0
VERTEX
  5
2B8F
  8
3
  6
HIDDEN2
 10
21.218049999999899
 20
-25.96826909028265
 30
0.0
 70
    32
  0
SEQEND
  5
2B90
  8
3
  6
HIDDEN2
  0
POLYLINE
  5
2B91
  8
3
  6
HIDDEN2
 66
     1
 10
0.0
 20
0.0
 30
0.0
 70
     8
  0
VERTEX
  5
2B92
  8
3
  6
HIDDEN2
 10
19.618049999999929
 20
-21.001343884582269
 30
0.0
 70
    32
  0
VERTEX
  5
2B93
  8
3
  6
HIDDEN2
 10
19.806399999999961
 20
-21.095600000000029
 30
0.0
 70
    32
  0
VERTEX
  5
2B94
  8
3
  6
HIDDEN2
 10
20.029399999999981
 20
-21.21900000000003
 30
0.0
 70
    32
  0
VERTEX
  5
2B95
  8
3
  6
HIDDEN2
 10
20.242599999999982
 20
-21.349200000000032
 30
0.0
 70
    32
  0
VERTEX
  5
2B96
  8
3
  6
HIDDEN2
 10
20.418049999999919
 20
-21.467376070901039
 30
0.0
 70
    32
  0
SEQEND
  5
2B97
  8
3
  6
HIDDEN2
  0
POLYLINE
  5
2B98
  8
3
  6
HIDDEN2
 66
     1
 10
0.0
 20
0.0
 30
0.0
 70
     8
  0
VERTEX
  5
2B99
  8
3
  6
HIDDEN2
 10
18.018049999999931
 20
-20.446211874105892
 30
0.0
 70
    32
  0
VERTEX
  5
2B9A
  8
3
  6
HIDDEN2
 10
18.021299999999961
 20
-20.446900000000031
 30
0.0
 70
    32
  0
VERTEX
  5
2B9B
  8
3
  6
HIDDEN2
 10
18.296099999999981
 20
-20.514900000000019
 30
0.0
 70
    32
  0
VERTEX
  5
2B9C
  8
3
  6
HIDDEN2
 10
18.565299999999961
 20
-20.591500000000021
 30
0.0
 70
    32
  0
VERTEX
  5
2B9D
  8
3
  6
HIDDEN2
 10
18.818049999999928
 20
-20.673060148232629
 30
0.0
 70
    32
  0
SEQEND
  5
2B9E
  8
3
  6
HIDDEN2
  0
POLYLINE
  5
2B9F
  8
3
  6
HIDDEN2
 66
     1
 10
0.0
 20
0.0
 30
0.0
 70
     8
  0
VERTEX
  5
2BA0
  8
3
  6
HIDDEN2
 10
16.41804999999993
 20
-20.23245200885259
 30
0.0
 70
    32
  0
VERTEX
  5
2BA1
  8
3
  6
HIDDEN2
 10
16.588099999999962
 20
-20.240500000000029
 30
0.0
 70
    32
  0
VERTEX
  5
2BA2
  8
3
  6
HIDDEN2
 10
16.880399999999959
 20
-20.263600000000029
 30
0.0
 70
    32
  0
VERTEX
  5
2BA3
  8
3
  6
HIDDEN2
 10
17.170499999999961
 20
-20.295900000000032
 30
0.0
 70
    32
  0
VERTEX
  5
2BA4
  8
3
  6
HIDDEN2
 10
17.218049999999931
 20
-20.302749582463491
 30
0.0
 70
    32
  0
SEQEND
  5
2BA5
  8
3
  6
HIDDEN2
  0
POLYLINE
  5
2BA6
  8
3
  6
HIDDEN2
 66
     1
 10
0.0
 20
0.0
 30
0.0
 70
     8
  0
VERTEX
  5
2BA7
  8
3
  6
HIDDEN2
 10
14.81804999999993
 20
-20.297549373695219
 30
0.0
 70
    32
  0
VERTEX
  5
2BA8
  8
3
  6
HIDDEN2
 10
14.829499999999969
 20
-20.295900000000021
 30
0.0
 70
    32
  0
VERTEX
  5
2BA9
  8
3
  6
HIDDEN2
 10
15.119599999999959
 20
-20.263600000000029
 30
0.0
 70
    32
  0
VERTEX
  5
2BAA
  8
3
  6
HIDDEN2
 10
15.41189999999996
 20
-20.240500000000029
 30
0.0
 70
    32
  0
VERTEX
  5
2BAB
  8
3
  6
HIDDEN2
 10
15.618049999999929
 20
-20.230743496765431
 30
0.0
 70
    32
  0
SEQEND
  5
2BAC
  8
3
  6
HIDDEN2
  0
POLYLINE
  5
2BAD
  8
3
  6
HIDDEN2
 66
     1
 10
0.0
 20
0.0
 30
0.0
 70
     8
  0
VERTEX
  5
2BAE
  8
3
  6
HIDDEN2
 10
13.218049999999931
 20
-20.661411003420781
 30
0.0
 70
    32
  0
VERTEX
  5
2BAF
  8
3
  6
HIDDEN2
 10
13.43469999999996
 20
-20.591500000000021
 30
0.0
 70
    32
  0
VERTEX
  5
2BB0
  8
3
  6
HIDDEN2
 10
13.70389999999993
 20
-20.514900000000019
 30
0.0
 70
    32
  0
VERTEX
  5
2BB1
  8
3
  6
HIDDEN2
 10
13.978699999999931
 20
-20.446900000000021
 30
0.0
 70
    32
  0
VERTEX
  5
2BB2
  8
3
  6
HIDDEN2
 10
14.01804999999993
 20
-20.438568383404888
 30
0.0
 70
    32
  0
SEQEND
  5
2BB3
  8
3
  6
HIDDEN2
  0
POLYLINE
  5
2BB4
  8
3
  6
HIDDEN2
 66
     1
 10
0.0
 20
0.0
 30
0.0
 70
     8
  0
VERTEX
  5
2BB5
  8
3
  6
HIDDEN2
 10
11.618049999999929
 20
-21.44306056129988
 30
0.0
 70
    32
  0
VERTEX
  5
2BB6
  8
3
  6
HIDDEN2
 10
11.757399999999929
 20
-21.349200000000021
 30
0.0
 70
    32
  0
VERTEX
  5
2BB7
  8
3
  6
HIDDEN2
 10
11.97059999999993
 20
-21.219000000000008
 30
0.0
 70
    32
  0
VERTEX
  5
2BB8
  8
3
  6
HIDDEN2
 10
12.193599999999959
 20
-21.095600000000012
 30
0.0
 70
    32
  0
VERTEX
  5
2BB9
  8
3
  6
HIDDEN2
 10
12.418049999999949
 20
-20.983278337639991
 30
0.0
 70
    32
  0
SEQEND
  5
2BBA
  8
3
  6
HIDDEN2
  0
POLYLINE
  5
2BBB
  8
3
  6
HIDDEN2
 66
     1
 10
0.0
 20
0.0
 30
0.0
 70
     8
  0
VERTEX
  5
2BBC
  8
3
  6
HIDDEN2
 10
9.9999999999999272
 20
-24.070700000000009
 30
0.0
 70
    32
  0
VERTEX
  5
2BBD
  8
3
  6
HIDDEN2
 10
10.007199999999941
 20
-23.881900000000019
 30
0.0
 70
    32
  0
VERTEX
  5
2BBE
  8
3
  6
HIDDEN2
 10
10.02889999999995
 20
-23.693500000000022
 30
0.0
 70
    32
  0
VERTEX
  5
2BBF
  8
3
  6
HIDDEN2
 10
10.064899999999961
 20
-23.506000000000011
 30
0.0
 70
    32
  0
VERTEX
  5
2BC0
  8
3
  6
HIDDEN2
 10
10.11529999999995
 20
-23.319900000000018
 30
0.0
 70
    32
  0
VERTEX
  5
2BC1
  8
3
  6
HIDDEN2
 10
10.17979999999995
 20
-23.135600000000021
 30
0.0
 70
    32
  0
VERTEX
  5
2BC2
  8
3
  6
HIDDEN2
 10
10.258399999999961
 20
-22.953500000000009
 30
0.0
 70
    32
  0
VERTEX
  5
2BC3
  8
3
  6
HIDDEN2
 10
10.350699999999939
 20
-22.774100000000011
 30
0.0
 70
    32
  0
VERTEX
  5
2BC4
  8
3
  6
HIDDEN2
 10
10.456699999999961
 20
-22.597900000000021
 30
0.0
 70
    32
  0
VERTEX
  5
2BC5
  8
3
  6
HIDDEN2
 10
10.576099999999951
 20
-22.425200000000022
 30
0.0
 70
    32
  0
VERTEX
  5
2BC6
  8
3
  6
HIDDEN2
 10
10.70849999999996
 20
-22.256400000000021
 30
0.0
 70
    32
  0
VERTEX
  5
2BC7
  8
3
  6
HIDDEN2
 10
10.81804999999993
 20
-22.132354066161291
 30
0.0
 70
    32
  0
SEQEND
  5
2BC8
  8
3
  6
HIDDEN2
  0
LINE
  5
2BC9
  8
4
  6
CENTER2
 10
15.999999999999959
 20
-19.940657918790869
 30
0.0
 11
15.99999999999995
 21
-28.64809080287468
 31
0.0
  0
LINE
  5
2BCA
  8
4
  6
CENTER2
 10
9.5835026440156081
 20
-24.513422179806799
 30
0.0
 11
22.715485612139741
 21
-24.51342217980682
 31
0.0
  0
POLYLINE
  5
2BCB
  8
3
  6
HIDDEN2
 66
     1
 10
0.0
 20
0.0
 30
0.0
 70
     8
  0
VERTEX
  5
2BCC
  8
3
  6
HIDDEN2
 10
10.81804999999993
 20
-25.295581463990558
 30
0.0
 70
    32
  0
VERTEX
  5
2BCD
  8
3
  6
HIDDEN2
 10
10.73679999999996
 20
-25.135000000000019
 30
0.0
 70
    32
  0
VERTEX
  5
2BCE
  8
3
  6
HIDDEN2
 10
10.664799999999961
 20
-24.965100000000021
 30
0.0
 70
    32
  0
VERTEX
  5
2BCF
  8
3
  6
HIDDEN2
 10
10.605699999999951
 20
-24.79310000000002
 30
0.0
 70
    32
  0
VERTEX
  5
2BD0
  8
3
  6
HIDDEN2
 10
10.55949999999995
 20
-24.61940000000002
 30
0.0
 70
    32
  0
VERTEX
  5
2BD1
  8
3
  6
HIDDEN2
 10
10.52649999999992
 20
-24.444400000000019
 30
0.0
 70
    32
  0
VERTEX
  5
2BD2
  8
3
  6
HIDDEN2
 10
10.506599999999951
 20
-24.268600000000021
 30
0.0
 70
    32
  0
VERTEX
  5
2BD3
  8
3
  6
HIDDEN2
 10
10.49999999999995
 20
-24.092400000000019
 30
0.0
 70
    32
  0
SEQEND
  5
2BD4
  8
3
  6
HIDDEN2
  0
POLYLINE
  5
2BD5
  8
3
  6
HIDDEN2
 66
     1
 10
0.0
 20
0.0
 30
0.0
 70
     8
  0
VERTEX
  5
2BD6
  8
3
  6
HIDDEN2
 10
12.41804999999993
 20
-26.816471404109599
 30
0.0
 70
    32
  0
VERTEX
  5
2BD7
  8
3
  6
HIDDEN2
 10
12.306399999999931
 20
-26.75360000000002
 30
0.0
 70
    32
  0
VERTEX
  5
2BD8
  8
3
  6
HIDDEN2
 10
12.110899999999971
 20
-26.632000000000019
 30
0.0
 70
    32
  0
VERTEX
  5
2BD9
  8
3
  6
HIDDEN2
 10
11.92479999999993
 20
-26.504300000000018
 30
0.0
 70
    32
  0
VERTEX
  5
2BDA
  8
3
  6
HIDDEN2
 10
11.748399999999929
 20
-26.37090000000002
 30
0.0
 70
    32
  0
VERTEX
  5
2BDB
  8
3
  6
HIDDEN2
 10
11.618049999999929
 20
-26.261751506024101
 30
0.0
 70
    32
  0
SEQEND
  5
2BDC
  8
3
  6
HIDDEN2
  0
POLYLINE
  5
2BDD
  8
3
  6
HIDDEN2
 66
     1
 10
0.0
 20
0.0
 30
0.0
 70
     8
  0
VERTEX
  5
2BDE
  8
3
  6
HIDDEN2
 10
14.01804999999993
 20
-27.44151976974992
 30
0.0
 70
    32
  0
VERTEX
  5
2BDF
  8
3
  6
HIDDEN2
 10
13.895199999999949
 20
-27.41060000000002
 30
0.0
 70
    32
  0
VERTEX
  5
2BE0
  8
3
  6
HIDDEN2
 10
13.648399999999951
 20
-27.33910000000002
 30
0.0
 70
    32
  0
VERTEX
  5
2BE1
  8
3
  6
HIDDEN2
 10
13.40729999999995
 20
-27.25990000000002
 30
0.0
 70
    32
  0
VERTEX
  5
2BE2
  8
3
  6
HIDDEN2
 10
13.218049999999931
 20
-27.18988797360581
 30
0.0
 70
    32
  0
SEQEND
  5
2BE3
  8
3
  6
HIDDEN2
  0
POLYLINE
  5
2BE4
  8
3
  6
HIDDEN2
 66
     1
 10
0.0
 20
0.0
 30
0.0
 70
     8
  0
VERTEX
  5
2BE5
  8
3
  6
HIDDEN2
 10
15.61804999999992
 20
-27.674230590638949
 30
0.0
 70
    32
  0
VERTEX
  5
2BE6
  8
3
  6
HIDDEN2
 10
15.460899999999951
 20
-27.666700000000031
 30
0.0
 70
    32
  0
VERTEX
  5
2BE7
  8
3
  6
HIDDEN2
 10
15.19299999999993
 20
-27.645100000000038
 30
0.0
 70
    32
  0
VERTEX
  5
2BE8
  8
3
  6
HIDDEN2
 10
14.92699999999993
 20
-27.61500000000002
 30
0.0
 70
    32
  0
VERTEX
  5
2BE9
  8
3
  6
HIDDEN2
 10
14.81804999999992
 20
-27.59899253986335
 30
0.0
 70
    32
  0
SEQEND
  5
2BEA
  8
3
  6
HIDDEN2
  0
POLYLINE
  5
2BEB
  8
3
  6
HIDDEN2
 66
     1
 10
0.0
 20
0.0
 30
0.0
 70
     8
  0
VERTEX
  5
2BEC
  8
3
  6
HIDDEN2
 10
17.218049999999899
 20
-27.593688553530772
 30
0.0
 70
    32
  0
VERTEX
  5
2BED
  8
3
  6
HIDDEN2
 10
17.072999999999951
 20
-27.61500000000003
 30
0.0
 70
    32
  0
VERTEX
  5
2BEE
  8
3
  6
HIDDEN2
 10
16.806999999999949
 20
-27.645100000000038
 30
0.0
 70
    32
  0
VERTEX
  5
2BEF
  8
3
  6
HIDDEN2
 10
16.53909999999993
 20
-27.666700000000031
 30
0.0
 70
    32
  0
VERTEX
  5
2BF0
  8
3
  6
HIDDEN2
 10
16.418049999999919
 20
-27.672500687221412
 30
0.0
 70
    32
  0
SEQEND
  5
2BF1
  8
3
  6
HIDDEN2
  0
POLYLINE
  5
2BF2
  8
3
  6
HIDDEN2
 66
     1
 10
0.0
 20
0.0
 30
0.0
 70
     8
  0
VERTEX
  5
2BF3
  8
3
  6
HIDDEN2
 10
18.818049999999921
 20
-27.176532971477268
 30
0.0
 70
    32
  0
VERTEX
  5
2BF4
  8
3
  6
HIDDEN2
 10
18.592699999999951
 20
-27.25990000000003
 30
0.0
 70
    32
  0
VERTEX
  5
2BF5
  8
3
  6
HIDDEN2
 10
18.35159999999993
 20
-27.33910000000003
 30
0.0
 70
    32
  0
VERTEX
  5
2BF6
  8
3
  6
HIDDEN2
 10
18.10479999999993
 20
-27.410600000000041
 30
0.0
 70
    32
  0
VERTEX
  5
2BF7
  8
3
  6
HIDDEN2
 10
18.018049999999921
 20
-27.43243386264394
 30
0.0
 70
    32
  0
SEQEND
  5
2BF8
  8
3
  6
HIDDEN2
  0
POLYLINE
  5
2BF9
  8
3
  6
HIDDEN2
 66
     1
 10
0.0
 20
0.0
 30
0.0
 70
     8
  0
VERTEX
  5
2BFA
  8
3
  6
HIDDEN2
 10
20.418049999999919
 20
-26.231482990353769
 30
0.0
 70
    32
  0
VERTEX
  5
2BFB
  8
3
  6
HIDDEN2
 10
20.41759999999995
 20
-26.231900000000039
 30
0.0
 70
    32
  0
VERTEX
  5
2BFC
  8
3
  6
HIDDEN2
 10
20.251599999999961
 20
-26.370900000000042
 30
0.0
 70
    32
  0
VERTEX
  5
2BFD
  8
3
  6
HIDDEN2
 10
20.07519999999996
 20
-26.50430000000004
 30
0.0
 70
    32
  0
VERTEX
  5
2BFE
  8
3
  6
HIDDEN2
 10
19.88909999999996
 20
-26.63200000000003
 30
0.0
 70
    32
  0
VERTEX
  5
2BFF
  8
3
  6
HIDDEN2
 10
19.693599999999961
 20
-26.753600000000031
 30
0.0
 70
    32
  0
VERTEX
  5
2C00
  8
3
  6
HIDDEN2
 10
19.618049999999929
 20
-26.796143077299469
 30
0.0
 70
    32
  0
SEQEND
  5
2C01
  8
3
  6
HIDDEN2
  0
POLYLINE
  5
2C02
  8
3
  6
HIDDEN2
 66
     1
 10
0.0
 20
0.0
 30
0.0
 70
     8
  0
VERTEX
  5
2C03
  8
3
  6
HIDDEN2
 10
21.218049999999899
 20
-22.960566115702431
 30
0.0
 70
    32
  0
VERTEX
  5
2C04
  8
3
  6
HIDDEN2
 10
21.26319999999993
 20
-23.04980000000004
 30
0.0
 70
    32
  0
VERTEX
  5
2C05
  8
3
  6
HIDDEN2
 10
21.335199999999968
 20
-23.219700000000032
 30
0.0
 70
    32
  0
VERTEX
  5
2C06
  8
3
  6
HIDDEN2
 10
21.394299999999959
 20
-23.391700000000039
 30
0.0
 70
    32
  0
VERTEX
  5
2C07
  8
3
  6
HIDDEN2
 10
21.44049999999995
 20
-23.565400000000039
 30
0.0
 70
    32
  0
VERTEX
  5
2C08
  8
3
  6
HIDDEN2
 10
21.473499999999959
 20
-23.74040000000004
 30
0.0
 70
    32
  0
VERTEX
  5
2C09
  8
3
  6
HIDDEN2
 10
21.493399999999959
 20
-23.916200000000039
 30
0.0
 70
    32
  0
VERTEX
  5
2C0A
  8
3
  6
HIDDEN2
 10
21.499999999999961
 20
-24.09240000000004
 30
0.0
 70
    32
  0
VERTEX
  5
2C0B
  8
3
  6
HIDDEN2
 10
21.493399999999959
 20
-24.268600000000038
 30
0.0
 70
    32
  0
VERTEX
  5
2C0C
  8
3
  6
HIDDEN2
 10
21.473499999999959
 20
-24.444400000000041
 30
0.0
 70
    32
  0
VERTEX
  5
2C0D
  8
3
  6
HIDDEN2
 10
21.44049999999995
 20
-24.619400000000041
 30
0.0
 70
    32
  0
VERTEX
  5
2C0E
  8
3
  6
HIDDEN2
 10
21.394299999999959
 20
-24.793100000000031
 30
0.0
 70
    32
  0
VERTEX
  5
2C0F
  8
3
  6
HIDDEN2
 10
21.335199999999968
 20
-24.965100000000039
 30
0.0
 70
    32
  0
VERTEX
  5
2C10
  8
3
  6
HIDDEN2
 10
21.26319999999993
 20
-25.135000000000041
 30
0.0
 70
    32
  0
VERTEX
  5
2C11
  8
3
  6
HIDDEN2
 10
21.218049999999899
 20
-25.22423388429765
 30
0.0
 70
    32
  0
SEQEND
  5
2C12
  8
3
  6
HIDDEN2
  0
POLYLINE
  5
2C13
  8
3
  6
HIDDEN2
 66
     1
 10
0.0
 20
0.0
 30
0.0
 70
     8
  0
VERTEX
  5
2C14
  8
3
  6
HIDDEN2
 10
19.618049999999929
 20
-21.388656922700601
 30
0.0
 70
    32
  0
VERTEX
  5
2C15
  8
3
  6
HIDDEN2
 10
19.693599999999972
 20
-21.431200000000029
 30
0.0
 70
    32
  0
VERTEX
  5
2C16
  8
3
  6
HIDDEN2
 10
19.88909999999996
 20
-21.55280000000003
 30
0.0
 70
    32
  0
VERTEX
  5
2C17
  8
3
  6
HIDDEN2
 10
20.07519999999997
 20
-21.680400000000031
 30
0.0
 70
    32
  0
VERTEX
  5
2C18
  8
3
  6
HIDDEN2
 10
20.251599999999971
 20
-21.813900000000029
 30
0.0
 70
    32
  0
VERTEX
  5
2C19
  8
3
  6
HIDDEN2
 10
20.417599999999961
 20
-21.952900000000032
 30
0.0
 70
    32
  0
VERTEX
  5
2C1A
  8
3
  6
HIDDEN2
 10
20.418049999999919
 20
-21.953317009646291
 30
0.0
 70
    32
  0
SEQEND
  5
2C1B
  8
3
  6
HIDDEN2
  0
POLYLINE
  5
2C1C
  8
3
  6
HIDDEN2
 66
     1
 10
0.0
 20
0.0
 30
0.0
 70
     8
  0
VERTEX
  5
2C1D
  8
3
  6
HIDDEN2
 10
18.018049999999931
 20
-20.752366137356109
 30
0.0
 70
    32
  0
VERTEX
  5
2C1E
  8
3
  6
HIDDEN2
 10
18.104799999999958
 20
-20.774200000000029
 30
0.0
 70
    32
  0
VERTEX
  5
2C1F
  8
3
  6
HIDDEN2
 10
18.351599999999959
 20
-20.845700000000019
 30
0.0
 70
    32
  0
VERTEX
  5
2C20
  8
3
  6
HIDDEN2
 10
18.592699999999969
 20
-20.924900000000029
 30
0.0
 70
    32
  0
VERTEX
  5
2C21
  8
3
  6
HIDDEN2
 10
18.818049999999928
 20
-21.008267028522798
 30
0.0
 70
    32
  0
SEQEND
  5
2C22
  8
3
  6
HIDDEN2
  0
POLYLINE
  5
2C23
  8
3
  6
HIDDEN2
 66
     1
 10
0.0
 20
0.0
 30
0.0
 70
     8
  0
VERTEX
  5
2C24
  8
3
  6
HIDDEN2
 10
16.41804999999993
 20
-20.512254346211019
 30
0.0
 70
    32
  0
VERTEX
  5
2C25
  8
3
  6
HIDDEN2
 10
16.539099999999959
 20
-20.518100000000029
 30
0.0
 70
    32
  0
VERTEX
  5
2C26
  8
3
  6
HIDDEN2
 10
16.80699999999997
 20
-20.539700000000028
 30
0.0
 70
    32
  0
VERTEX
  5
2C27
  8
3
  6
HIDDEN2
 10
17.072999999999961
 20
-20.569800000000019
 30
0.0
 70
    32
  0
VERTEX
  5
2C28
  8
3
  6
HIDDEN2
 10
17.218049999999931
 20
-20.59111144646927
 30
0.0
 70
    32
  0
SEQEND
  5
2C29
  8
3
  6
HIDDEN2
  0
POLYLINE
  5
2C2A
  8
3
  6
HIDDEN2
 66
     1
 10
0.0
 20
0.0
 30
0.0
 70
     8
  0
VERTEX
  5
2C2B
  8
3
  6
HIDDEN2
 10
14.81804999999993
 20
-20.585807460136699
 30
0.0
 70
    32
  0
VERTEX
  5
2C2C
  8
3
  6
HIDDEN2
 10
14.926999999999961
 20
-20.569800000000019
 30
0.0
 70
    32
  0
VERTEX
  5
2C2D
  8
3
  6
HIDDEN2
 10
15.192999999999961
 20
-20.539700000000028
 30
0.0
 70
    32
  0
VERTEX
  5
2C2E
  8
3
  6
HIDDEN2
 10
15.46089999999997
 20
-20.518100000000029
 30
0.0
 70
    32
  0
VERTEX
  5
2C2F
  8
3
  6
HIDDEN2
 10
15.618049999999929
 20
-20.510511032689479
 30
0.0
 70
    32
  0
SEQEND
  5
2C30
  8
3
  6
HIDDEN2
  0
POLYLINE
  5
2C31
  8
3
  6
HIDDEN2
 66
     1
 10
0.0
 20
0.0
 30
0.0
 70
     8
  0
VERTEX
  5
2C32
  8
3
  6
HIDDEN2
 10
13.218049999999931
 20
-20.994912026394239
 30
0.0
 70
    32
  0
VERTEX
  5
2C33
  8
3
  6
HIDDEN2
 10
13.40729999999996
 20
-20.924900000000012
 30
0.0
 70
    32
  0
VERTEX
  5
2C34
  8
3
  6
HIDDEN2
 10
13.648399999999951
 20
-20.845700000000019
 30
0.0
 70
    32
  0
VERTEX
  5
2C35
  8
3
  6
HIDDEN2
 10
13.895199999999949
 20
-20.774200000000029
 30
0.0
 70
    32
  0
VERTEX
  5
2C36
  8
3
  6
HIDDEN2
 10
14.01804999999993
 20
-20.743280230250122
 30
0.0
 70
    32
  0
SEQEND
  5
2C37
  8
3
  6
HIDDEN2
  0
POLYLINE
  5
2C38
  8
3
  6
HIDDEN2
 66
     1
 10
0.0
 20
0.0
 30
0.0
 70
     8
  0
VERTEX
  5
2C39
  8
3
  6
HIDDEN2
 10
11.618049999999929
 20
-21.92304849397593
 30
0.0
 70
    32
  0
VERTEX
  5
2C3A
  8
3
  6
HIDDEN2
 10
11.748399999999959
 20
-21.813900000000029
 30
0.0
 70
    32
  0
VERTEX
  5
2C3B
  8
3
  6
HIDDEN2
 10
11.92479999999996
 20
-21.68040000000002
 30
0.0
 70
    32
  0
VERTEX
  5
2C3C
  8
3
  6
HIDDEN2
 10
12.110899999999971
 20
-21.552800000000019
 30
0.0
 70
    32
  0
VERTEX
  5
2C3D
  8
3
  6
HIDDEN2
 10
12.306399999999931
 20
-21.431200000000018
 30
0.0
 70
    32
  0
VERTEX
  5
2C3E
  8
3
  6
HIDDEN2
 10
12.418049999999949
 20
-21.368328595890439
 30
0.0
 70
    32
  0
SEQEND
  5
2C3F
  8
3
  6
HIDDEN2
  0
POLYLINE
  5
2C40
  8
3
  6
HIDDEN2
 66
     1
 10
0.0
 20
0.0
 30
0.0
 70
     8
  0
VERTEX
  5
2C41
  8
3
  6
HIDDEN2
 10
10.49999999999995
 20
-24.092400000000019
 30
0.0
 70
    32
  0
VERTEX
  5
2C42
  8
3
  6
HIDDEN2
 10
10.506599999999951
 20
-23.916200000000021
 30
0.0
 70
    32
  0
VERTEX
  5
2C43
  8
3
  6
HIDDEN2
 10
10.52649999999992
 20
-23.740400000000019
 30
0.0
 70
    32
  0
VERTEX
  5
2C44
  8
3
  6
HIDDEN2
 10
10.55949999999995
 20
-23.565400000000022
 30
0.0
 70
    32
  0
VERTEX
  5
2C45
  8
3
  6
HIDDEN2
 10
10.605699999999951
 20
-23.391700000000021
 30
0.0
 70
    32
  0
VERTEX
  5
2C46
  8
3
  6
HIDDEN2
 10
10.664799999999961
 20
-23.219700000000021
 30
0.0
 70
    32
  0
VERTEX
  5
2C47
  8
3
  6
HIDDEN2
 10
10.73679999999996
 20
-23.049800000000019
 30
0.0
 70
    32
  0
VERTEX
  5
2C48
  8
3
  6
HIDDEN2
 10
10.81804999999993
 20
-22.88921853600948
 30
0.0
 70
    32
  0
SEQEND
  5
2C49
  8
3
  6
HIDDEN2
  0
LINE
  5
2C4A
  8
1
  6
CONTINUOUS
 10
13.0
 20
-1.73205081000001
 30
0.0
 11
16.0
 21
-3.4641016200000121
 31
0.0
  0
LINE
  5
2C4B
  8
1
  6
CONTINUOUS
 10
16.0
 20
-3.4641016200000121
 30
0.0
 11
19.0
 21
-1.73205081000001
 31
0.0
  0
LINE
  5
2C4C
  8
1
  6
CONTINUOUS
 10
19.0
 20
-1.73205081000001
 30
0.0
 11
19.0
 21
1.7320508099999861
 31
0.0
  0
LINE
  5
2C4D
  8
1
  6
CONTINUOUS
 10
19.0
 20
1.7320508099999861
 30
0.0
 11
16.0
 21
3.464101619999985
 31
0.0
  0
LINE
  5
2C4E
  8
1
  6
CONTINUOUS
 10
16.0
 20
3.464101619999985
 30
0.0
 11
13.0
 21
1.7320508099999861
 31
0.0
  0
LINE
  5
2C4F
  8
1
  6
CONTINUOUS
 10
13.0
 20
1.7320508099999861
 30
0.0
 11
13.0
 21
-1.73205081000001
 31
0.0
  0
CIRCLE
  5
2E72
  8
1
  6
CONTINUOUS
 10
64.0
 20
-0.0000000000000134
 30
0.0
 40
6.0
  0
CIRCLE
  5
2E73
  8
1
  6
CONTINUOUS
 10
64.0
 20
-0.0000000000000134
 30
0.0
 40
5.5
  0
LINE
  5
2E74
  8
4
  6
CENTER2
 10
64.0
 20
6.9999999999999831
 30
0.0
 11
64.0
 21
-7.0000000000000124
 31
0.0
1001
GRPNAME
1000
PASTMD01
  0
LINE
  5
2E75
  8
4
  6
CENTER2
 10
64.0
 20
19.940657918790851
 30
0.0
 11
64.0
 21
28.648090802874659
 31
0.0
  0
LINE
  5
2E76
  8
4
  6
CENTER2
 10
57.583502644015653
 20
24.513422179806781
 30
0.0
 11
70.715485612139787
 21
24.513422179806781
 31
0.0
  0
POLYLINE
  5
2E77
  8
3
  6
HIDDEN2
 66
     1
 10
0.0
 20
0.0
 30
0.0
 70
     8
  0
VERTEX
  5
2E78
  8
3
  6
HIDDEN2
 10
58.818049999999992
 20
26.009145933838731
 30
0.0
 70
    32
  0
VERTEX
  5
2E79
  8
3
  6
HIDDEN2
 10
58.708500000000001
 20
25.885100000000001
 30
0.0
 70
    32
  0
VERTEX
  5
2E7A
  8
3
  6
HIDDEN2
 10
58.576099999999983
 20
25.7163
 30
0.0
 70
    32
  0
VERTEX
  5
2E7B
  8
3
  6
HIDDEN2
 10
58.456699999999991
 20
25.543600000000001
 30
0.0
 70
    32
  0
VERTEX
  5
2E7C
  8
3
  6
HIDDEN2
 10
58.350700000000003
 20
25.3674
 30
0.0
 70
    32
  0
VERTEX
  5
2E7D
  8
3
  6
HIDDEN2
 10
58.258400000000002
 20
25.187999999999999
 30
0.0
 70
    32
  0
VERTEX
  5
2E7E
  8
3
  6
HIDDEN2
 10
58.179799999999993
 20
25.0059
 30
0.0
 70
    32
  0
VERTEX
  5
2E7F
  8
3
  6
HIDDEN2
 10
58.115299999999984
 20
24.8216
 30
0.0
 70
    32
  0
VERTEX
  5
2E80
  8
3
  6
HIDDEN2
 10
58.064900000000002
 20
24.6355
 30
0.0
 70
    32
  0
VERTEX
  5
2E81
  8
3
  6
HIDDEN2
 10
58.0289
 20
24.448
 30
0.0
 70
    32
  0
VERTEX
  5
2E82
  8
3
  6
HIDDEN2
 10
58.00719999999999
 20
24.259599999999999
 30
0.0
 70
    32
  0
VERTEX
  5
2E83
  8
3
  6
HIDDEN2
 10
58.0
 20
24.070699999999999
 30
0.0
 70
    32
  0
SEQEND
  5
2E84
  8
3
  6
HIDDEN2
  0
POLYLINE
  5
2E85
  8
3
  6
HIDDEN2
 66
     1
 10
0.0
 20
0.0
 30
0.0
 70
     8
  0
VERTEX
  5
2E86
  8
3
  6
HIDDEN2
 10
58.818049999999992
 20
25.295581463990541
 30
0.0
 70
    32
  0
VERTEX
  5
2E87
  8
3
  6
HIDDEN2
 10
58.736800000000002
 20
25.135000000000002
 30
0.0
 70
    32
  0
VERTEX
  5
2E88
  8
3
  6
HIDDEN2
 10
58.6648
 20
24.9651
 30
0.0
 70
    32
  0
VERTEX
  5
2E89
  8
3
  6
HIDDEN2
 10
58.605699999999999
 20
24.793099999999999
 30
0.0
 70
    32
  0
VERTEX
  5
2E8A
  8
3
  6
HIDDEN2
 10
58.559499999999993
 20
24.619399999999999
 30
0.0
 70
    32
  0
VERTEX
  5
2E8B
  8
3
  6
HIDDEN2
 10
58.526499999999999
 20
24.444400000000002
 30
0.0
 70
    32
  0
VERTEX
  5
2E8C
  8
3
  6
HIDDEN2
 10
58.50659999999997
 20
24.268599999999999
 30
0.0
 70
    32
  0
VERTEX
  5
2E8D
  8
3
  6
HIDDEN2
 10
58.5
 20
24.092400000000001
 30
0.0
 70
    32
  0
SEQEND
  5
2E8E
  8
3
  6
HIDDEN2
  0
POLYLINE
  5
2E8F
  8
3
  6
HIDDEN2
 66
     1
 10
0.0
 20
0.0
 30
0.0
 70
     8
  0
VERTEX
  5
2E90
  8
3
  6
HIDDEN2
 10
60.418049999999972
 20
26.816471404109581
 30
0.0
 70
    32
  0
VERTEX
  5
2E91
  8
3
  6
HIDDEN2
 10
60.306399999999989
 20
26.753599999999999
 30
0.0
 70
    32
  0
VERTEX
  5
2E92
  8
3
  6
HIDDEN2
 10
60.110900000000001
 20
26.632000000000001
 30
0.0
 70
    32
  0
VERTEX
  5
2E93
  8
3
  6
HIDDEN2
 10
59.924799999999991
 20
26.504300000000001
 30
0.0
 70
    32
  0
VERTEX
  5
2E94
  8
3
  6
HIDDEN2
 10
59.748399999999982
 20
26.370899999999999
 30
0.0
 70
    32
  0
VERTEX
  5
2E95
  8
3
  6
HIDDEN2
 10
59.61804999999999
 20
26.26175150602409
 30
0.0
 70
    32
  0
SEQEND
  5
2E96
  8
3
  6
HIDDEN2
  0
POLYLINE
  5
2E97
  8
3
  6
HIDDEN2
 66
     1
 10
0.0
 20
0.0
 30
0.0
 70
     8
  0
VERTEX
  5
2E98
  8
3
  6
HIDDEN2
 10
60.418049999999972
 20
27.15822166236002
 30
0.0
 70
    32
  0
VERTEX
  5
2E99
  8
3
  6
HIDDEN2
 10
60.193600000000004
 20
27.0459
 30
0.0
 70
    32
  0
VERTEX
  5
2E9A
  8
3
  6
HIDDEN2
 10
59.970599999999983
 20
26.922499999999999
 30
0.0
 70
    32
  0
VERTEX
  5
2E9B
  8
3
  6
HIDDEN2
 10
59.75739999999999
 20
26.792300000000001
 30
0.0
 70
    32
  0
VERTEX
  5
2E9C
  8
3
  6
HIDDEN2
 10
59.61804999999999
 20
26.698370827178731
 30
0.0
 70
    32
  0
SEQEND
  5
2E9D
  8
3
  6
HIDDEN2
  0
POLYLINE
  5
2E9E
  8
3
  6
HIDDEN2
 66
     1
 10
0.0
 20
0.0
 30
0.0
 70
     8
  0
VERTEX
  5
2E9F
  8
3
  6
HIDDEN2
 10
62.018049999999967
 20
27.441519769749899
 30
0.0
 70
    32
  0
VERTEX
  5
2EA0
  8
3
  6
HIDDEN2
 10
61.895200000000003
 20
27.410599999999999
 30
0.0
 70
    32
  0
VERTEX
  5
2EA1
  8
3
  6
HIDDEN2
 10
61.648400000000002
 20
27.339099999999998
 30
0.0
 70
    32
  0
VERTEX
  5
2EA2
  8
3
  6
HIDDEN2
 10
61.407299999999992
 20
27.259899999999998
 30
0.0
 70
    32
  0
VERTEX
  5
2EA3
  8
3
  6
HIDDEN2
 10
61.218049999999977
 20
27.189887973605781
 30
0.0
 70
    32
  0
SEQEND
  5
2EA4
  8
3
  6
HIDDEN2
  0
POLYLINE
  5
2EA5
  8
3
  6
HIDDEN2
 66
     1
 10
0.0
 20
0.0
 30
0.0
 70
     8
  0
VERTEX
  5
2EA6
  8
3
  6
HIDDEN2
 10
62.018049999999967
 20
27.70293161659513
 30
0.0
 70
    32
  0
VERTEX
  5
2EA7
  8
3
  6
HIDDEN2
 10
61.978700000000003
 20
27.694600000000001
 30
0.0
 70
    32
  0
VERTEX
  5
2EA8
  8
3
  6
HIDDEN2
 10
61.703899999999983
 20
27.6266
 30
0.0
 70
    32
  0
VERTEX
  5
2EA9
  8
3
  6
HIDDEN2
 10
61.434699999999999
 20
27.550000000000001
 30
0.0
 70
    32
  0
VERTEX
  5
2EAA
  8
3
  6
HIDDEN2
 10
61.218049999999977
 20
27.480088996579251
 30
0.0
 70
    32
  0
SEQEND
  5
2EAB
  8
3
  6
HIDDEN2
  0
POLYLINE
  5
2EAC
  8
3
  6
HIDDEN2
 66
     1
 10
0.0
 20
0.0
 30
0.0
 70
     8
  0
VERTEX
  5
2EAD
  8
3
  6
HIDDEN2
 10
63.618049999999982
 20
27.910756503234591
 30
0.0
 70
    32
  0
VERTEX
  5
2EAE
  8
3
  6
HIDDEN2
 10
63.411900000000003
 20
27.901
 30
0.0
 70
    32
  0
VERTEX
  5
2EAF
  8
3
  6
HIDDEN2
 10
63.119599999999998
 20
27.8779
 30
0.0
 70
    32
  0
VERTEX
  5
2EB0
  8
3
  6
HIDDEN2
 10
62.829500000000003
 20
27.845600000000001
 30
0.0
 70
    32
  0
VERTEX
  5
2EB1
  8
3
  6
HIDDEN2
 10
62.818049999999971
 20
27.8439506263048
 30
0.0
 70
    32
  0
SEQEND
  5
2EB2
  8
3
  6
HIDDEN2
  0
POLYLINE
  5
2EB3
  8
3
  6
HIDDEN2
 66
     1
 10
0.0
 20
0.0
 30
0.0
 70
     8
  0
VERTEX
  5
2EB4
  8
3
  6
HIDDEN2
 10
63.618049999999982
 20
27.674230590638931
 30
0.0
 70
    32
  0
VERTEX
  5
2EB5
  8
3
  6
HIDDEN2
 10
63.460900000000002
 20
27.666699999999999
 30
0.0
 70
    32
  0
VERTEX
  5
2EB6
  8
3
  6
HIDDEN2
 10
63.192999999999991
 20
27.645099999999999
 30
0.0
 70
    32
  0
VERTEX
  5
2EB7
  8
3
  6
HIDDEN2
 10
62.926999999999992
 20
27.614999999999998
 30
0.0
 70
    32
  0
VERTEX
  5
2EB8
  8
3
  6
HIDDEN2
 10
62.818049999999971
 20
27.598992539863321
 30
0.0
 70
    32
  0
SEQEND
  5
2EB9
  8
3
  6
HIDDEN2
  0
POLYLINE
  5
2EBA
  8
3
  6
HIDDEN2
 66
     1
 10
0.0
 20
0.0
 30
0.0
 70
     8
  0
VERTEX
  5
2EBB
  8
3
  6
HIDDEN2
 10
65.218049999999977
 20
27.593688553530761
 30
0.0
 70
    32
  0
VERTEX
  5
2EBC
  8
3
  6
HIDDEN2
 10
65.072999999999993
 20
27.614999999999998
 30
0.0
 70
    32
  0
VERTEX
  5
2EBD
  8
3
  6
HIDDEN2
 10
64.807000000000002
 20
27.645099999999999
 30
0.0
 70
    32
  0
VERTEX
  5
2EBE
  8
3
  6
HIDDEN2
 10
64.539099999999991
 20
27.666699999999999
 30
0.0
 70
    32
  0
VERTEX
  5
2EBF
  8
3
  6
HIDDEN2
 10
64.418049999999965
 20
27.672500687221401
 30
0.0
 70
    32
  0
SEQEND
  5
2EC0
  8
3
  6
HIDDEN2
  0
POLYLINE
  5
2EC1
  8
3
  6
HIDDEN2
 66
     1
 10
0.0
 20
0.0
 30
0.0
 70
     8
  0
VERTEX
  5
2EC2
  8
3
  6
HIDDEN2
 10
65.218049999999977
 20
27.838750417536541
 30
0.0
 70
    32
  0
VERTEX
  5
2EC3
  8
3
  6
HIDDEN2
 10
65.17049999999999
 20
27.845600000000001
 30
0.0
 70
    32
  0
VERTEX
  5
2EC4
  8
3
  6
HIDDEN2
 10
64.880400000000009
 20
27.8779
 30
0.0
 70
    32
  0
VERTEX
  5
2EC5
  8
3
  6
HIDDEN2
 10
64.588099999999983
 20
27.901
 30
0.0
 70
    32
  0
VERTEX
  5
2EC6
  8
3
  6
HIDDEN2
 10
64.418049999999965
 20
27.909047991147428
 30
0.0
 70
    32
  0
SEQEND
  5
2EC7
  8
3
  6
HIDDEN2
  0
POLYLINE
  5
2EC8
  8
3
  6
HIDDEN2
 66
     1
 10
0.0
 20
0.0
 30
0.0
 70
     8
  0
VERTEX
  5
2EC9
  8
3
  6
HIDDEN2
 10
66.818049999999971
 20
27.17653297147724
 30
0.0
 70
    32
  0
VERTEX
  5
2ECA
  8
3
  6
HIDDEN2
 10
66.592700000000008
 20
27.259899999999998
 30
0.0
 70
    32
  0
VERTEX
  5
2ECB
  8
3
  6
HIDDEN2
 10
66.351599999999991
 20
27.339099999999998
 30
0.0
 70
    32
  0
VERTEX
  5
2ECC
  8
3
  6
HIDDEN2
 10
66.104799999999983
 20
27.410599999999999
 30
0.0
 70
    32
  0
VERTEX
  5
2ECD
  8
3
  6
HIDDEN2
 10
66.018049999999974
 20
27.432433862643911
 30
0.0
 70
    32
  0
SEQEND
  5
2ECE
  8
3
  6
HIDDEN2
  0
POLYLINE
  5
2ECF
  8
3
  6
HIDDEN2
 66
     1
 10
0.0
 20
0.0
 30
0.0
 70
     8
  0
VERTEX
  5
2ED0
  8
3
  6
HIDDEN2
 10
66.818049999999971
 20
27.4684398517674
 30
0.0
 70
    32
  0
VERTEX
  5
2ED1
  8
3
  6
HIDDEN2
 10
66.565299999999993
 20
27.550000000000001
 30
0.0
 70
    32
  0
VERTEX
  5
2ED2
  8
3
  6
HIDDEN2
 10
66.296099999999996
 20
27.6266
 30
0.0
 70
    32
  0
VERTEX
  5
2ED3
  8
3
  6
HIDDEN2
 10
66.021299999999997
 20
27.694600000000001
 30
0.0
 70
    32
  0
VERTEX
  5
2ED4
  8
3
  6
HIDDEN2
 10
66.018049999999974
 20
27.695288125894141
 30
0.0
 70
    32
  0
SEQEND
  5
2ED5
  8
3
  6
HIDDEN2
  0
POLYLINE
  5
2ED6
  8
3
  6
HIDDEN2
 66
     1
 10
0.0
 20
0.0
 30
0.0
 70
     8
  0
VERTEX
  5
2ED7
  8
3
  6
HIDDEN2
 10
68.418049999999951
 20
26.23148299035374
 30
0.0
 70
    32
  0
VERTEX
  5
2ED8
  8
3
  6
HIDDEN2
 10
68.417599999999993
 20
26.2319
 30
0.0
 70
    32
  0
VERTEX
  5
2ED9
  8
3
  6
HIDDEN2
 10
68.251599999999996
 20
26.370899999999999
 30
0.0
 70
    32
  0
VERTEX
  5
2EDA
  8
3
  6
HIDDEN2
 10
68.075199999999995
 20
26.504300000000001
 30
0.0
 70
    32
  0
VERTEX
  5
2EDB
  8
3
  6
HIDDEN2
 10
67.889099999999985
 20
26.632000000000001
 30
0.0
 70
    32
  0
VERTEX
  5
2EDC
  8
3
  6
HIDDEN2
 10
67.693600000000004
 20
26.753599999999999
 30
0.0
 70
    32
  0
VERTEX
  5
2EDD
  8
3
  6
HIDDEN2
 10
67.618049999999954
 20
26.796143077299451
 30
0.0
 70
    32
  0
SEQEND
  5
2EDE
  8
3
  6
HIDDEN2
  0
POLYLINE
  5
2EDF
  8
3
  6
HIDDEN2
 66
     1
 10
0.0
 20
0.0
 30
0.0
 70
     8
  0
VERTEX
  5
2EE0
  8
3
  6
HIDDEN2
 10
68.418049999999951
 20
26.67403754308226
 30
0.0
 70
    32
  0
VERTEX
  5
2EE1
  8
3
  6
HIDDEN2
 10
68.24260000000001
 20
26.792300000000001
 30
0.0
 70
    32
  0
VERTEX
  5
2EE2
  8
3
  6
HIDDEN2
 10
68.02940000000001
 20
26.922499999999999
 30
0.0
 70
    32
  0
VERTEX
  5
2EE3
  8
3
  6
HIDDEN2
 10
67.806399999999996
 20
27.0459
 30
0.0
 70
    32
  0
VERTEX
  5
2EE4
  8
3
  6
HIDDEN2
 10
67.618049999999954
 20
27.140156115417771
 30
0.0
 70
    32
  0
SEQEND
  5
2EE5
  8
3
  6
HIDDEN2
  0
POLYLINE
  5
2EE6
  8
3
  6
HIDDEN2
 66
     1
 10
0.0
 20
0.0
 30
0.0
 70
     8
  0
VERTEX
  5
2EE7
  8
3
  6
HIDDEN2
 10
69.218049999999934
 20
22.960566115702392
 30
0.0
 70
    32
  0
VERTEX
  5
2EE8
  8
3
  6
HIDDEN2
 10
69.263199999999983
 20
23.049800000000001
 30
0.0
 70
    32
  0
VERTEX
  5
2EE9
  8
3
  6
HIDDEN2
 10
69.3352
 20
23.2197
 30
0.0
 70
    32
  0
VERTEX
  5
2EEA
  8
3
  6
HIDDEN2
 10
69.394300000000001
 20
23.3917
 30
0.0
 70
    32
  0
VERTEX
  5
2EEB
  8
3
  6
HIDDEN2
 10
69.4405
 20
23.5654
 30
0.0
 70
    32
  0
VERTEX
  5
2EEC
  8
3
  6
HIDDEN2
 10
69.473500000000001
 20
23.740400000000001
 30
0.0
 70
    32
  0
VERTEX
  5
2EED
  8
3
  6
HIDDEN2
 10
69.493400000000008
 20
23.9162
 30
0.0
 70
    32
  0
VERTEX
  5
2EEE
  8
3
  6
HIDDEN2
 10
69.5
 20
24.092400000000001
 30
0.0
 70
    32
  0
VERTEX
  5
2EEF
  8
3
  6
HIDDEN2
 10
69.493400000000008
 20
24.268599999999999
 30
0.0
 70
    32
  0
VERTEX
  5
2EF0
  8
3
  6
HIDDEN2
 10
69.473500000000001
 20
24.444400000000002
 30
0.0
 70
    32
  0
VERTEX
  5
2EF1
  8
3
  6
HIDDEN2
 10
69.4405
 20
24.619399999999999
 30
0.0
 70
    32
  0
VERTEX
  5
2EF2
  8
3
  6
HIDDEN2
 10
69.394300000000001
 20
24.793099999999999
 30
0.0
 70
    32
  0
VERTEX
  5
2EF3
  8
3
  6
HIDDEN2
 10
69.3352
 20
24.9651
 30
0.0
 70
    32
  0
VERTEX
  5
2EF4
  8
3
  6
HIDDEN2
 10
69.263199999999983
 20
25.135000000000002
 30
0.0
 70
    32
  0
VERTEX
  5
2EF5
  8
3
  6
HIDDEN2
 10
69.218049999999934
 20
25.224233884297611
 30
0.0
 70
    32
  0
SEQEND
  5
2EF6
  8
3
  6
HIDDEN2
  0
POLYLINE
  5
2EF7
  8
3
  6
HIDDEN2
 66
     1
 10
0.0
 20
0.0
 30
0.0
 70
     8
  0
VERTEX
  5
2EF8
  8
3
  6
HIDDEN2
 10
69.218049999999934
 20
22.173230909717379
 30
0.0
 70
    32
  0
VERTEX
  5
2EF9
  8
3
  6
HIDDEN2
 10
69.291499999999985
 20
22.256399999999999
 30
0.0
 70
    32
  0
VERTEX
  5
2EFA
  8
3
  6
HIDDEN2
 10
69.423900000000003
 20
22.4252
 30
0.0
 70
    32
  0
VERTEX
  5
2EFB
  8
3
  6
HIDDEN2
 10
69.543300000000002
 20
22.597899999999999
 30
0.0
 70
    32
  0
VERTEX
  5
2EFC
  8
3
  6
HIDDEN2
 10
69.649299999999997
 20
22.774100000000001
 30
0.0
 70
    32
  0
VERTEX
  5
2EFD
  8
3
  6
HIDDEN2
 10
69.741599999999991
 20
22.953499999999998
 30
0.0
 70
    32
  0
VERTEX
  5
2EFE
  8
3
  6
HIDDEN2
 10
69.8202
 20
23.1356
 30
0.0
 70
    32
  0
VERTEX
  5
2EFF
  8
3
  6
HIDDEN2
 10
69.884700000000009
 20
23.319900000000001
 30
0.0
 70
    32
  0
VERTEX
  5
2F00
  8
3
  6
HIDDEN2
 10
69.935100000000006
 20
23.506
 30
0.0
 70
    32
  0
VERTEX
  5
2F01
  8
3
  6
HIDDEN2
 10
69.971100000000007
 20
23.6935
 30
0.0
 70
    32
  0
VERTEX
  5
2F02
  8
3
  6
HIDDEN2
 10
69.992800000000003
 20
23.881900000000002
 30
0.0
 70
    32
  0
VERTEX
  5
2F03
  8
3
  6
HIDDEN2
 10
70.0
 20
24.070699999999999
 30
0.0
 70
    32
  0
VERTEX
  5
2F04
  8
3
  6
HIDDEN2
 10
69.992800000000003
 20
24.259599999999999
 30
0.0
 70
    32
  0
VERTEX
  5
2F05
  8
3
  6
HIDDEN2
 10
69.971100000000007
 20
24.448
 30
0.0
 70
    32
  0
VERTEX
  5
2F06
  8
3
  6
HIDDEN2
 10
69.935100000000006
 20
24.6355
 30
0.0
 70
    32
  0
VERTEX
  5
2F07
  8
3
  6
HIDDEN2
 10
69.884700000000009
 20
24.8216
 30
0.0
 70
    32
  0
VERTEX
  5
2F08
  8
3
  6
HIDDEN2
 10
69.8202
 20
25.0059
 30
0.0
 70
    32
  0
VERTEX
  5
2F09
  8
3
  6
HIDDEN2
 10
69.741599999999991
 20
25.187999999999999
 30
0.0
 70
    32
  0
VERTEX
  5
2F0A
  8
3
  6
HIDDEN2
 10
69.649299999999997
 20
25.3674
 30
0.0
 70
    32
  0
VERTEX
  5
2F0B
  8
3
  6
HIDDEN2
 10
69.543300000000002
 20
25.543600000000001
 30
0.0
 70
    32
  0
VERTEX
  5
2F0C
  8
3
  6
HIDDEN2
 10
69.423900000000003
 20
25.7163
 30
0.0
 70
    32
  0
VERTEX
  5
2F0D
  8
3
  6
HIDDEN2
 10
69.291499999999985
 20
25.885100000000001
 30
0.0
 70
    32
  0
VERTEX
  5
2F0E
  8
3
  6
HIDDEN2
 10
69.218049999999934
 20
25.968269090282622
 30
0.0
 70
    32
  0
SEQEND
  5
2F0F
  8
3
  6
HIDDEN2
  0
POLYLINE
  5
2F10
  8
3
  6
HIDDEN2
 66
     1
 10
0.0
 20
0.0
 30
0.0
 70
     8
  0
VERTEX
  5
2F11
  8
3
  6
HIDDEN2
 10
67.618049999999954
 20
21.388656922700569
 30
0.0
 70
    32
  0
VERTEX
  5
2F12
  8
3
  6
HIDDEN2
 10
67.693600000000004
 20
21.4312
 30
0.0
 70
    32
  0
VERTEX
  5
2F13
  8
3
  6
HIDDEN2
 10
67.889099999999985
 20
21.552800000000001
 30
0.0
 70
    32
  0
VERTEX
  5
2F14
  8
3
  6
HIDDEN2
 10
68.075199999999995
 20
21.680399999999999
 30
0.0
 70
    32
  0
VERTEX
  5
2F15
  8
3
  6
HIDDEN2
 10
68.251599999999996
 20
21.8139
 30
0.0
 70
    32
  0
VERTEX
  5
2F16
  8
3
  6
HIDDEN2
 10
68.417599999999993
 20
21.9529
 30
0.0
 70
    32
  0
VERTEX
  5
2F17
  8
3
  6
HIDDEN2
 10
68.418049999999951
 20
21.953317009646241
 30
0.0
 70
    32
  0
SEQEND
  5
2F18
  8
3
  6
HIDDEN2
  0
POLYLINE
  5
2F19
  8
3
  6
HIDDEN2
 66
     1
 10
0.0
 20
0.0
 30
0.0
 70
     8
  0
VERTEX
  5
2F1A
  8
3
  6
HIDDEN2
 10
67.618049999999954
 20
21.001343884582241
 30
0.0
 70
    32
  0
VERTEX
  5
2F1B
  8
3
  6
HIDDEN2
 10
67.806399999999996
 20
21.095600000000001
 30
0.0
 70
    32
  0
VERTEX
  5
2F1C
  8
3
  6
HIDDEN2
 10
68.02940000000001
 20
21.219000000000001
 30
0.0
 70
    32
  0
VERTEX
  5
2F1D
  8
3
  6
HIDDEN2
 10
68.24260000000001
 20
21.3492
 30
0.0
 70
    32
  0
VERTEX
  5
2F1E
  8
3
  6
HIDDEN2
 10
68.418049999999951
 20
21.467376070901
 30
0.0
 70
    32
  0
SEQEND
  5
2F1F
  8
3
  6
HIDDEN2
  0
POLYLINE
  5
2F20
  8
3
  6
HIDDEN2
 66
     1
 10
0.0
 20
0.0
 30
0.0
 70
     8
  0
VERTEX
  5
2F21
  8
3
  6
HIDDEN2
 10
66.018049999999974
 20
20.752366137356081
 30
0.0
 70
    32
  0
VERTEX
  5
2F22
  8
3
  6
HIDDEN2
 10
66.104799999999983
 20
20.7742
 30
0.0
 70
    32
  0
VERTEX
  5
2F23
  8
3
  6
HIDDEN2
 10
66.351599999999991
 20
20.845700000000001
 30
0.0
 70
    32
  0
VERTEX
  5
2F24
  8
3
  6
HIDDEN2
 10
66.592700000000008
 20
20.924900000000001
 30
0.0
 70
    32
  0
VERTEX
  5
2F25
  8
3
  6
HIDDEN2
 10
66.818049999999971
 20
21.008267028522759
 30
0.0
 70
    32
  0
SEQEND
  5
2F26
  8
3
  6
HIDDEN2
  0
POLYLINE
  5
2F27
  8
3
  6
HIDDEN2
 66
     1
 10
0.0
 20
0.0
 30
0.0
 70
     8
  0
VERTEX
  5
2F28
  8
3
  6
HIDDEN2
 10
66.018049999999974
 20
20.44621187410586
 30
0.0
 70
    32
  0
VERTEX
  5
2F29
  8
3
  6
HIDDEN2
 10
66.021299999999997
 20
20.446899999999999
 30
0.0
 70
    32
  0
VERTEX
  5
2F2A
  8
3
  6
HIDDEN2
 10
66.296099999999996
 20
20.514900000000001
 30
0.0
 70
    32
  0
VERTEX
  5
2F2B
  8
3
  6
HIDDEN2
 10
66.565299999999993
 20
20.5915
 30
0.0
 70
    32
  0
VERTEX
  5
2F2C
  8
3
  6
HIDDEN2
 10
66.818049999999971
 20
20.673060148232601
 30
0.0
 70
    32
  0
SEQEND
  5
2F2D
  8
3
  6
HIDDEN2
  0
POLYLINE
  5
2F2E
  8
3
  6
HIDDEN2
 66
     1
 10
0.0
 20
0.0
 30
0.0
 70
     8
  0
VERTEX
  5
2F2F
  8
3
  6
HIDDEN2
 10
64.418049999999965
 20
20.232452008852569
 30
0.0
 70
    32
  0
VERTEX
  5
2F30
  8
3
  6
HIDDEN2
 10
64.588099999999983
 20
20.240500000000001
 30
0.0
 70
    32
  0
VERTEX
  5
2F31
  8
3
  6
HIDDEN2
 10
64.880400000000009
 20
20.2636
 30
0.0
 70
    32
  0
VERTEX
  5
2F32
  8
3
  6
HIDDEN2
 10
65.17049999999999
 20
20.2959
 30
0.0
 70
    32
  0
VERTEX
  5
2F33
  8
3
  6
HIDDEN2
 10
65.218049999999977
 20
20.302749582463449
 30
0.0
 70
    32
  0
SEQEND
  5
2F34
  8
3
  6
HIDDEN2
  0
POLYLINE
  5
2F35
  8
3
  6
HIDDEN2
 66
     1
 10
0.0
 20
0.0
 30
0.0
 70
     8
  0
VERTEX
  5
2F36
  8
3
  6
HIDDEN2
 10
64.418049999999965
 20
20.512254346211002
 30
0.0
 70
    32
  0
VERTEX
  5
2F37
  8
3
  6
HIDDEN2
 10
64.539099999999991
 20
20.5181
 30
0.0
 70
    32
  0
VERTEX
  5
2F38
  8
3
  6
HIDDEN2
 10
64.807000000000002
 20
20.5397
 30
0.0
 70
    32
  0
VERTEX
  5
2F39
  8
3
  6
HIDDEN2
 10
65.072999999999993
 20
20.569800000000001
 30
0.0
 70
    32
  0
VERTEX
  5
2F3A
  8
3
  6
HIDDEN2
 10
65.218049999999977
 20
20.591111446469249
 30
0.0
 70
    32
  0
SEQEND
  5
2F3B
  8
3
  6
HIDDEN2
  0
POLYLINE
  5
2F3C
  8
3
  6
HIDDEN2
 66
     1
 10
0.0
 20
0.0
 30
0.0
 70
     8
  0
VERTEX
  5
2F3D
  8
3
  6
HIDDEN2
 10
62.818049999999971
 20
20.297549373695201
 30
0.0
 70
    32
  0
VERTEX
  5
2F3E
  8
3
  6
HIDDEN2
 10
62.829500000000003
 20
20.2959
 30
0.0
 70
    32
  0
VERTEX
  5
2F3F
  8
3
  6
HIDDEN2
 10
63.119599999999998
 20
20.2636
 30
0.0
 70
    32
  0
VERTEX
  5
2F40
  8
3
  6
HIDDEN2
 10
63.411900000000003
 20
20.240500000000001
 30
0.0
 70
    32
  0
VERTEX
  5
2F41
  8
3
  6
HIDDEN2
 10
63.618049999999982
 20
20.23074349676541
 30
0.0
 70
    32
  0
SEQEND
  5
2F42
  8
3
  6
HIDDEN2
  0
POLYLINE
  5
2F43
  8
3
  6
HIDDEN2
 66
     1
 10
0.0
 20
0.0
 30
0.0
 70
     8
  0
VERTEX
  5
2F44
  8
3
  6
HIDDEN2
 10
62.818049999999971
 20
20.585807460136682
 30
0.0
 70
    32
  0
VERTEX
  5
2F45
  8
3
  6
HIDDEN2
 10
62.926999999999992
 20
20.569800000000001
 30
0.0
 70
    32
  0
VERTEX
  5
2F46
  8
3
  6
HIDDEN2
 10
63.192999999999991
 20
20.5397
 30
0.0
 70
    32
  0
VERTEX
  5
2F47
  8
3
  6
HIDDEN2
 10
63.460900000000002
 20
20.5181
 30
0.0
 70
    32
  0
VERTEX
  5
2F48
  8
3
  6
HIDDEN2
 10
63.618049999999982
 20
20.51051103268945
 30
0.0
 70
    32
  0
SEQEND
  5
2F49
  8
3
  6
HIDDEN2
  0
POLYLINE
  5
2F4A
  8
3
  6
HIDDEN2
 66
     1
 10
0.0
 20
0.0
 30
0.0
 70
     8
  0
VERTEX
  5
2F4B
  8
3
  6
HIDDEN2
 10
61.218049999999977
 20
20.661411003420749
 30
0.0
 70
    32
  0
VERTEX
  5
2F4C
  8
3
  6
HIDDEN2
 10
61.434699999999999
 20
20.5915
 30
0.0
 70
    32
  0
VERTEX
  5
2F4D
  8
3
  6
HIDDEN2
 10
61.703899999999983
 20
20.514900000000001
 30
0.0
 70
    32
  0
VERTEX
  5
2F4E
  8
3
  6
HIDDEN2
 10
61.978700000000003
 20
20.446899999999999
 30
0.0
 70
    32
  0
VERTEX
  5
2F4F
  8
3
  6
HIDDEN2
 10
62.018049999999967
 20
20.438568383404871
 30
0.0
 70
    32
  0
SEQEND
  5
2F50
  8
3
  6
HIDDEN2
  0
POLYLINE
  5
2F51
  8
3
  6
HIDDEN2
 66
     1
 10
0.0
 20
0.0
 30
0.0
 70
     8
  0
VERTEX
  5
2F52
  8
3
  6
HIDDEN2
 10
61.218049999999977
 20
20.994912026394221
 30
0.0
 70
    32
  0
VERTEX
  5
2F53
  8
3
  6
HIDDEN2
 10
61.407299999999992
 20
20.924900000000001
 30
0.0
 70
    32
  0
VERTEX
  5
2F54
  8
3
  6
HIDDEN2
 10
61.648400000000002
 20
20.845700000000001
 30
0.0
 70
    32
  0
VERTEX
  5
2F55
  8
3
  6
HIDDEN2
 10
61.895200000000003
 20
20.7742
 30
0.0
 70
    32
  0
VERTEX
  5
2F56
  8
3
  6
HIDDEN2
 10
62.018049999999967
 20
20.7432802302501
 30
0.0
 70
    32
  0
SEQEND
  5
2F57
  8
3
  6
HIDDEN2
  0
POLYLINE
  5
2F58
  8
3
  6
HIDDEN2
 66
     1
 10
0.0
 20
0.0
 30
0.0
 70
     8
  0
VERTEX
  5
2F59
  8
3
  6
HIDDEN2
 10
58.0
 20
24.070699999999999
 30
0.0
 70
    32
  0
VERTEX
  5
2F5A
  8
3
  6
HIDDEN2
 10
58.00719999999999
 20
23.881900000000002
 30
0.0
 70
    32
  0
VERTEX
  5
2F5B
  8
3
  6
HIDDEN2
 10
58.0289
 20
23.6935
 30
0.0
 70
    32
  0
VERTEX
  5
2F5C
  8
3
  6
HIDDEN2
 10
58.064900000000002
 20
23.506
 30
0.0
 70
    32
  0
VERTEX
  5
2F5D
  8
3
  6
HIDDEN2
 10
58.115299999999984
 20
23.319900000000001
 30
0.0
 70
    32
  0
VERTEX
  5
2F5E
  8
3
  6
HIDDEN2
 10
58.179799999999993
 20
23.1356
 30
0.0
 70
    32
  0
VERTEX
  5
2F5F
  8
3
  6
HIDDEN2
 10
58.258400000000002
 20
22.953499999999998
 30
0.0
 70
    32
  0
VERTEX
  5
2F60
  8
3
  6
HIDDEN2
 10
58.350700000000003
 20
22.774100000000001
 30
0.0
 70
    32
  0
VERTEX
  5
2F61
  8
3
  6
HIDDEN2
 10
58.456699999999991
 20
22.597899999999999
 30
0.0
 70
    32
  0
VERTEX
  5
2F62
  8
3
  6
HIDDEN2
 10
58.576099999999983
 20
22.4252
 30
0.0
 70
    32
  0
VERTEX
  5
2F63
  8
3
  6
HIDDEN2
 10
58.708500000000001
 20
22.256399999999999
 30
0.0
 70
    32
  0
VERTEX
  5
2F64
  8
3
  6
HIDDEN2
 10
58.818049999999992
 20
22.13235406616127
 30
0.0
 70
    32
  0
SEQEND
  5
2F65
  8
3
  6
HIDDEN2
  0
POLYLINE
  5
2F66
  8
3
  6
HIDDEN2
 66
     1
 10
0.0
 20
0.0
 30
0.0
 70
     8
  0
VERTEX
  5
2F67
  8
3
  6
HIDDEN2
 10
59.61804999999999
 20
21.443060561299859
 30
0.0
 70
    32
  0
VERTEX
  5
2F68
  8
3
  6
HIDDEN2
 10
59.75739999999999
 20
21.3492
 30
0.0
 70
    32
  0
VERTEX
  5
2F69
  8
3
  6
HIDDEN2
 10
59.970599999999983
 20
21.219000000000001
 30
0.0
 70
    32
  0
VERTEX
  5
2F6A
  8
3
  6
HIDDEN2
 10
60.193600000000004
 20
21.095600000000001
 30
0.0
 70
    32
  0
VERTEX
  5
2F6B
  8
3
  6
HIDDEN2
 10
60.418049999999972
 20
20.98327833763997
 30
0.0
 70
    32
  0
SEQEND
  5
2F6C
  8
3
  6
HIDDEN2
  0
POLYLINE
  5
2F6D
  8
3
  6
HIDDEN2
 66
     1
 10
0.0
 20
0.0
 30
0.0
 70
     8
  0
VERTEX
  5
2F6E
  8
3
  6
HIDDEN2
 10
58.5
 20
24.092400000000001
 30
0.0
 70
    32
  0
VERTEX
  5
2F6F
  8
3
  6
HIDDEN2
 10
58.50659999999997
 20
23.9162
 30
0.0
 70
    32
  0
VERTEX
  5
2F70
  8
3
  6
HIDDEN2
 10
58.526499999999999
 20
23.740400000000001
 30
0.0
 70
    32
  0
VERTEX
  5
2F71
  8
3
  6
HIDDEN2
 10
58.559499999999993
 20
23.5654
 30
0.0
 70
    32
  0
VERTEX
  5
2F72
  8
3
  6
HIDDEN2
 10
58.605699999999999
 20
23.3917
 30
0.0
 70
    32
  0
VERTEX
  5
2F73
  8
3
  6
HIDDEN2
 10
58.6648
 20
23.2197
 30
0.0
 70
    32
  0
VERTEX
  5
2F74
  8
3
  6
HIDDEN2
 10
58.736800000000002
 20
23.049800000000001
 30
0.0
 70
    32
  0
VERTEX
  5
2F75
  8
3
  6
HIDDEN2
 10
58.818049999999992
 20
22.889218536009459
 30
0.0
 70
    32
  0
SEQEND
  5
2F76
  8
3
  6
HIDDEN2
  0
POLYLINE
  5
2F77
  8
3
  6
HIDDEN2
 66
     1
 10
0.0
 20
0.0
 30
0.0
 70
     8
  0
VERTEX
  5
2F78
  8
3
  6
HIDDEN2
 10
59.61804999999999
 20
21.923048493975902
 30
0.0
 70
    32
  0
VERTEX
  5
2F79
  8
3
  6
HIDDEN2
 10
59.748399999999982
 20
21.8139
 30
0.0
 70
    32
  0
VERTEX
  5
2F7A
  8
3
  6
HIDDEN2
 10
59.924799999999991
 20
21.680399999999999
 30
0.0
 70
    32
  0
VERTEX
  5
2F7B
  8
3
  6
HIDDEN2
 10
60.110900000000001
 20
21.552800000000001
 30
0.0
 70
    32
  0
VERTEX
  5
2F7C
  8
3
  6
HIDDEN2
 10
60.306399999999989
 20
21.4312
 30
0.0
 70
    32
  0
VERTEX
  5
2F7D
  8
3
  6
HIDDEN2
 10
60.418049999999972
 20
21.368328595890421
 30
0.0
 70
    32
  0
SEQEND
  5
2F7E
  8
3
  6
HIDDEN2
  0
POLYLINE
  5
2F7F
  8
3
  6
HIDDEN2
 66
     1
 10
0.0
 20
0.0
 30
0.0
 70
     8
  0
VERTEX
  5
2F80
  8
3
  6
HIDDEN2
 10
58.818049999999928
 20
-26.009145933838749
 30
0.0
 70
    32
  0
VERTEX
  5
2F81
  8
3
  6
HIDDEN2
 10
58.70849999999993
 20
-25.885100000000019
 30
0.0
 70
    32
  0
VERTEX
  5
2F82
  8
3
  6
HIDDEN2
 10
58.57609999999994
 20
-25.716300000000022
 30
0.0
 70
    32
  0
VERTEX
  5
2F83
  8
3
  6
HIDDEN2
 10
58.456699999999941
 20
-25.543600000000019
 30
0.0
 70
    32
  0
VERTEX
  5
2F84
  8
3
  6
HIDDEN2
 10
58.350699999999939
 20
-25.367400000000021
 30
0.0
 70
    32
  0
VERTEX
  5
2F85
  8
3
  6
HIDDEN2
 10
58.258399999999952
 20
-25.188000000000009
 30
0.0
 70
    32
  0
VERTEX
  5
2F86
  8
3
  6
HIDDEN2
 10
58.17979999999995
 20
-25.005900000000018
 30
0.0
 70
    32
  0
VERTEX
  5
2F87
  8
3
  6
HIDDEN2
 10
58.115299999999941
 20
-24.821600000000021
 30
0.0
 70
    32
  0
VERTEX
  5
2F88
  8
3
  6
HIDDEN2
 10
58.064899999999959
 20
-24.635500000000011
 30
0.0
 70
    32
  0
VERTEX
  5
2F89
  8
3
  6
HIDDEN2
 10
58.02889999999995
 20
-24.448000000000022
 30
0.0
 70
    32
  0
VERTEX
  5
2F8A
  8
3
  6
HIDDEN2
 10
58.007199999999941
 20
-24.25960000000002
 30
0.0
 70
    32
  0
VERTEX
  5
2F8B
  8
3
  6
HIDDEN2
 10
57.999999999999929
 20
-24.070700000000009
 30
0.0
 70
    32
  0
SEQEND
  5
2F8C
  8
3
  6
HIDDEN2
  0
POLYLINE
  5
2F8D
  8
3
  6
HIDDEN2
 66
     1
 10
0.0
 20
0.0
 30
0.0
 70
     8
  0
VERTEX
  5
2F8E
  8
3
  6
HIDDEN2
 10
60.418049999999923
 20
-27.158221662360042
 30
0.0
 70
    32
  0
VERTEX
  5
2F8F
  8
3
  6
HIDDEN2
 10
60.193599999999932
 20
-27.045900000000021
 30
0.0
 70
    32
  0
VERTEX
  5
2F90
  8
3
  6
HIDDEN2
 10
59.970599999999941
 20
-26.922500000000021
 30
0.0
 70
    32
  0
VERTEX
  5
2F91
  8
3
  6
HIDDEN2
 10
59.757399999999933
 20
-26.792300000000019
 30
0.0
 70
    32
  0
VERTEX
  5
2F92
  8
3
  6
HIDDEN2
 10
59.618049999999933
 20
-26.698370827178749
 30
0.0
 70
    32
  0
SEQEND
  5
2F93
  8
3
  6
HIDDEN2
  0
POLYLINE
  5
2F94
  8
3
  6
HIDDEN2
 66
     1
 10
0.0
 20
0.0
 30
0.0
 70
     8
  0
VERTEX
  5
2F95
  8
3
  6
HIDDEN2
 10
62.018049999999931
 20
-27.702931616595158
 30
0.0
 70
    32
  0
VERTEX
  5
2F96
  8
3
  6
HIDDEN2
 10
61.978699999999932
 20
-27.694600000000019
 30
0.0
 70
    32
  0
VERTEX
  5
2F97
  8
3
  6
HIDDEN2
 10
61.70389999999994
 20
-27.626600000000021
 30
0.0
 70
    32
  0
VERTEX
  5
2F98
  8
3
  6
HIDDEN2
 10
61.434699999999928
 20
-27.550000000000029
 30
0.0
 70
    32
  0
VERTEX
  5
2F99
  8
3
  6
HIDDEN2
 10
61.218049999999927
 20
-27.480088996579269
 30
0.0
 70
    32
  0
SEQEND
  5
2F9A
  8
3
  6
HIDDEN2
  0
POLYLINE
  5
2F9B
  8
3
  6
HIDDEN2
 66
     1
 10
0.0
 20
0.0
 30
0.0
 70
     8
  0
VERTEX
  5
2F9C
  8
3
  6
HIDDEN2
 10
63.618049999999933
 20
-27.910756503234619
 30
0.0
 70
    32
  0
VERTEX
  5
2F9D
  8
3
  6
HIDDEN2
 10
63.411899999999953
 20
-27.901000000000021
 30
0.0
 70
    32
  0
VERTEX
  5
2F9E
  8
3
  6
HIDDEN2
 10
63.119599999999927
 20
-27.877900000000029
 30
0.0
 70
    32
  0
VERTEX
  5
2F9F
  8
3
  6
HIDDEN2
 10
62.82949999999996
 20
-27.845600000000029
 30
0.0
 70
    32
  0
VERTEX
  5
2FA0
  8
3
  6
HIDDEN2
 10
62.818049999999921
 20
-27.843950626304821
 30
0.0
 70
    32
  0
SEQEND
  5
2FA1
  8
3
  6
HIDDEN2
  0
POLYLINE
  5
2FA2
  8
3
  6
HIDDEN2
 66
     1
 10
0.0
 20
0.0
 30
0.0
 70
     8
  0
VERTEX
  5
2FA3
  8
3
  6
HIDDEN2
 10
65.218049999999906
 20
-27.83875041753657
 30
0.0
 70
    32
  0
VERTEX
  5
2FA4
  8
3
  6
HIDDEN2
 10
65.170499999999933
 20
-27.845600000000029
 30
0.0
 70
    32
  0
VERTEX
  5
2FA5
  8
3
  6
HIDDEN2
 10
64.880399999999952
 20
-27.877900000000029
 30
0.0
 70
    32
  0
VERTEX
  5
2FA6
  8
3
  6
HIDDEN2
 10
64.58809999999994
 20
-27.901000000000032
 30
0.0
 70
    32
  0
VERTEX
  5
2FA7
  8
3
  6
HIDDEN2
 10
64.418049999999923
 20
-27.90904799114746
 30
0.0
 70
    32
  0
SEQEND
  5
2FA8
  8
3
  6
HIDDEN2
  0
POLYLINE
  5
2FA9
  8
3
  6
HIDDEN2
 66
     1
 10
0.0
 20
0.0
 30
0.0
 70
     8
  0
VERTEX
  5
2FAA
  8
3
  6
HIDDEN2
 10
66.818049999999914
 20
-27.468439851767432
 30
0.0
 70
    32
  0
VERTEX
  5
2FAB
  8
3
  6
HIDDEN2
 10
66.565299999999951
 20
-27.550000000000029
 30
0.0
 70
    32
  0
VERTEX
  5
2FAC
  8
3
  6
HIDDEN2
 10
66.296099999999953
 20
-27.626600000000028
 30
0.0
 70
    32
  0
VERTEX
  5
2FAD
  8
3
  6
HIDDEN2
 10
66.02129999999994
 20
-27.69460000000004
 30
0.0
 70
    32
  0
VERTEX
  5
2FAE
  8
3
  6
HIDDEN2
 10
66.018049999999931
 20
-27.695288125894169
 30
0.0
 70
    32
  0
SEQEND
  5
2FAF
  8
3
  6
HIDDEN2
  0
POLYLINE
  5
2FB0
  8
3
  6
HIDDEN2
 66
     1
 10
0.0
 20
0.0
 30
0.0
 70
     8
  0
VERTEX
  5
2FB1
  8
3
  6
HIDDEN2
 10
68.418049999999923
 20
-26.674037543082289
 30
0.0
 70
    32
  0
VERTEX
  5
2FB2
  8
3
  6
HIDDEN2
 10
68.242599999999982
 20
-26.792300000000029
 30
0.0
 70
    32
  0
VERTEX
  5
2FB3
  8
3
  6
HIDDEN2
 10
68.029399999999953
 20
-26.922500000000039
 30
0.0
 70
    32
  0
VERTEX
  5
2FB4
  8
3
  6
HIDDEN2
 10
67.80639999999994
 20
-27.045900000000039
 30
0.0
 70
    32
  0
VERTEX
  5
2FB5
  8
3
  6
HIDDEN2
 10
67.618049999999897
 20
-27.140156115417788
 30
0.0
 70
    32
  0
SEQEND
  5
2FB6
  8
3
  6
HIDDEN2
  0
POLYLINE
  5
2FB7
  8
3
  6
HIDDEN2
 66
     1
 10
0.0
 20
0.0
 30
0.0
 70
     8
  0
VERTEX
  5
2FB8
  8
3
  6
HIDDEN2
 10
69.218049999999934
 20
-22.173230909717422
 30
0.0
 70
    32
  0
VERTEX
  5
2FB9
  8
3
  6
HIDDEN2
 10
69.291499999999957
 20
-22.256400000000031
 30
0.0
 70
    32
  0
VERTEX
  5
2FBA
  8
3
  6
HIDDEN2
 10
69.423899999999975
 20
-22.425200000000039
 30
0.0
 70
    32
  0
VERTEX
  5
2FBB
  8
3
  6
HIDDEN2
 10
69.543299999999974
 20
-22.597900000000038
 30
0.0
 70
    32
  0
VERTEX
  5
2FBC
  8
3
  6
HIDDEN2
 10
69.649299999999926
 20
-22.77410000000004
 30
0.0
 70
    32
  0
VERTEX
  5
2FBD
  8
3
  6
HIDDEN2
 10
69.741599999999934
 20
-22.95350000000003
 30
0.0
 70
    32
  0
VERTEX
  5
2FBE
  8
3
  6
HIDDEN2
 10
69.820199999999971
 20
-23.135600000000039
 30
0.0
 70
    32
  0
VERTEX
  5
2FBF
  8
3
  6
HIDDEN2
 10
69.884699999999953
 20
-23.31990000000004
 30
0.0
 70
    32
  0
VERTEX
  5
2FC0
  8
3
  6
HIDDEN2
 10
69.935099999999935
 20
-23.506000000000039
 30
0.0
 70
    32
  0
VERTEX
  5
2FC1
  8
3
  6
HIDDEN2
 10
69.971099999999964
 20
-23.693500000000039
 30
0.0
 70
    32
  0
VERTEX
  5
2FC2
  8
3
  6
HIDDEN2
 10
69.99279999999996
 20
-23.881900000000041
 30
0.0
 70
    32
  0
VERTEX
  5
2FC3
  8
3
  6
HIDDEN2
 10
69.999999999999943
 20
-24.070700000000041
 30
0.0
 70
    32
  0
VERTEX
  5
2FC4
  8
3
  6
HIDDEN2
 10
69.99279999999996
 20
-24.259600000000031
 30
0.0
 70
    32
  0
VERTEX
  5
2FC5
  8
3
  6
HIDDEN2
 10
69.971099999999964
 20
-24.448000000000039
 30
0.0
 70
    32
  0
VERTEX
  5
2FC6
  8
3
  6
HIDDEN2
 10
69.935099999999935
 20
-24.635500000000039
 30
0.0
 70
    32
  0
VERTEX
  5
2FC7
  8
3
  6
HIDDEN2
 10
69.884699999999953
 20
-24.821600000000039
 30
0.0
 70
    32
  0
VERTEX
  5
2FC8
  8
3
  6
HIDDEN2
 10
69.820199999999971
 20
-25.00590000000004
 30
0.0
 70
    32
  0
VERTEX
  5
2FC9
  8
3
  6
HIDDEN2
 10
69.741599999999934
 20
-25.188000000000041
 30
0.0
 70
    32
  0
VERTEX
  5
2FCA
  8
3
  6
HIDDEN2
 10
69.649299999999926
 20
-25.367400000000028
 30
0.0
 70
    32
  0
VERTEX
  5
2FCB
  8
3
  6
HIDDEN2
 10
69.543299999999959
 20
-25.54360000000004
 30
0.0
 70
    32
  0
VERTEX
  5
2FCC
  8
3
  6
HIDDEN2
 10
69.423899999999961
 20
-25.716300000000039
 30
0.0
 70
    32
  0
VERTEX
  5
2FCD
  8
3
  6
HIDDEN2
 10
69.291499999999914
 20
-25.88510000000004
 30
0.0
 70
    32
  0
VERTEX
  5
2FCE
  8
3
  6
HIDDEN2
 10
69.218049999999891
 20
-25.96826909028265
 30
0.0
 70
    32
  0
SEQEND
  5
2FCF
  8
3
  6
HIDDEN2
  0
POLYLINE
  5
2FD0
  8
3
  6
HIDDEN2
 66
     1
 10
0.0
 20
0.0
 30
0.0
 70
     8
  0
VERTEX
  5
2FD1
  8
3
  6
HIDDEN2
 10
67.618049999999926
 20
-21.001343884582269
 30
0.0
 70
    32
  0
VERTEX
  5
2FD2
  8
3
  6
HIDDEN2
 10
67.806399999999968
 20
-21.095600000000029
 30
0.0
 70
    32
  0
VERTEX
  5
2FD3
  8
3
  6
HIDDEN2
 10
68.029399999999981
 20
-21.21900000000003
 30
0.0
 70
    32
  0
VERTEX
  5
2FD4
  8
3
  6
HIDDEN2
 10
68.242599999999982
 20
-21.349200000000032
 30
0.0
 70
    32
  0
VERTEX
  5
2FD5
  8
3
  6
HIDDEN2
 10
68.418049999999923
 20
-21.467376070901039
 30
0.0
 70
    32
  0
SEQEND
  5
2FD6
  8
3
  6
HIDDEN2
  0
POLYLINE
  5
2FD7
  8
3
  6
HIDDEN2
 66
     1
 10
0.0
 20
0.0
 30
0.0
 70
     8
  0
VERTEX
  5
2FD8
  8
3
  6
HIDDEN2
 10
66.018049999999931
 20
-20.446211874105892
 30
0.0
 70
    32
  0
VERTEX
  5
2FD9
  8
3
  6
HIDDEN2
 10
66.021299999999968
 20
-20.446900000000031
 30
0.0
 70
    32
  0
VERTEX
  5
2FDA
  8
3
  6
HIDDEN2
 10
66.296099999999981
 20
-20.514900000000019
 30
0.0
 70
    32
  0
VERTEX
  5
2FDB
  8
3
  6
HIDDEN2
 10
66.565299999999965
 20
-20.591500000000021
 30
0.0
 70
    32
  0
VERTEX
  5
2FDC
  8
3
  6
HIDDEN2
 10
66.818049999999943
 20
-20.673060148232629
 30
0.0
 70
    32
  0
SEQEND
  5
2FDD
  8
3
  6
HIDDEN2
  0
POLYLINE
  5
2FDE
  8
3
  6
HIDDEN2
 66
     1
 10
0.0
 20
0.0
 30
0.0
 70
     8
  0
VERTEX
  5
2FDF
  8
3
  6
HIDDEN2
 10
64.418049999999937
 20
-20.23245200885259
 30
0.0
 70
    32
  0
VERTEX
  5
2FE0
  8
3
  6
HIDDEN2
 10
64.588099999999969
 20
-20.240500000000029
 30
0.0
 70
    32
  0
VERTEX
  5
2FE1
  8
3
  6
HIDDEN2
 10
64.880399999999952
 20
-20.263600000000029
 30
0.0
 70
    32
  0
VERTEX
  5
2FE2
  8
3
  6
HIDDEN2
 10
65.170499999999961
 20
-20.295900000000032
 30
0.0
 70
    32
  0
VERTEX
  5
2FE3
  8
3
  6
HIDDEN2
 10
65.218049999999934
 20
-20.302749582463491
 30
0.0
 70
    32
  0
SEQEND
  5
2FE4
  8
3
  6
HIDDEN2
  0
POLYLINE
  5
2FE5
  8
3
  6
HIDDEN2
 66
     1
 10
0.0
 20
0.0
 30
0.0
 70
     8
  0
VERTEX
  5
2FE6
  8
3
  6
HIDDEN2
 10
62.818049999999943
 20
-20.297549373695219
 30
0.0
 70
    32
  0
VERTEX
  5
2FE7
  8
3
  6
HIDDEN2
 10
62.829499999999967
 20
-20.295900000000021
 30
0.0
 70
    32
  0
VERTEX
  5
2FE8
  8
3
  6
HIDDEN2
 10
63.119599999999963
 20
-20.263600000000029
 30
0.0
 70
    32
  0
VERTEX
  5
2FE9
  8
3
  6
HIDDEN2
 10
63.41189999999996
 20
-20.240500000000029
 30
0.0
 70
    32
  0
VERTEX
  5
2FEA
  8
3
  6
HIDDEN2
 10
63.618049999999933
 20
-20.230743496765431
 30
0.0
 70
    32
  0
SEQEND
  5
2FEB
  8
3
  6
HIDDEN2
  0
POLYLINE
  5
2FEC
  8
3
  6
HIDDEN2
 66
     1
 10
0.0
 20
0.0
 30
0.0
 70
     8
  0
VERTEX
  5
2FED
  8
3
  6
HIDDEN2
 10
61.218049999999927
 20
-20.661411003420781
 30
0.0
 70
    32
  0
VERTEX
  5
2FEE
  8
3
  6
HIDDEN2
 10
61.434699999999971
 20
-20.591500000000021
 30
0.0
 70
    32
  0
VERTEX
  5
2FEF
  8
3
  6
HIDDEN2
 10
61.70389999999994
 20
-20.514900000000019
 30
0.0
 70
    32
  0
VERTEX
  5
2FF0
  8
3
  6
HIDDEN2
 10
61.978699999999932
 20
-20.446900000000021
 30
0.0
 70
    32
  0
VERTEX
  5
2FF1
  8
3
  6
HIDDEN2
 10
62.018049999999931
 20
-20.438568383404888
 30
0.0
 70
    32
  0
SEQEND
  5
2FF2
  8
3
  6
HIDDEN2
  0
POLYLINE
  5
2FF3
  8
3
  6
HIDDEN2
 66
     1
 10
0.0
 20
0.0
 30
0.0
 70
     8
  0
VERTEX
  5
2FF4
  8
3
  6
HIDDEN2
 10
59.618049999999933
 20
-21.44306056129988
 30
0.0
 70
    32
  0
VERTEX
  5
2FF5
  8
3
  6
HIDDEN2
 10
59.757399999999933
 20
-21.349200000000021
 30
0.0
 70
    32
  0
VERTEX
  5
2FF6
  8
3
  6
HIDDEN2
 10
59.970599999999941
 20
-21.219000000000008
 30
0.0
 70
    32
  0
VERTEX
  5
2FF7
  8
3
  6
HIDDEN2
 10
60.193599999999961
 20
-21.095600000000012
 30
0.0
 70
    32
  0
VERTEX
  5
2FF8
  8
3
  6
HIDDEN2
 10
60.418049999999951
 20
-20.983278337639991
 30
0.0
 70
    32
  0
SEQEND
  5
2FF9
  8
3
  6
HIDDEN2
  0
POLYLINE
  5
2FFA
  8
3
  6
HIDDEN2
 66
     1
 10
0.0
 20
0.0
 30
0.0
 70
     8
  0
VERTEX
  5
2FFB
  8
3
  6
HIDDEN2
 10
57.999999999999929
 20
-24.070700000000009
 30
0.0
 70
    32
  0
VERTEX
  5
2FFC
  8
3
  6
HIDDEN2
 10
58.007199999999941
 20
-23.881900000000019
 30
0.0
 70
    32
  0
VERTEX
  5
2FFD
  8
3
  6
HIDDEN2
 10
58.02889999999995
 20
-23.693500000000022
 30
0.0
 70
    32
  0
VERTEX
  5
2FFE
  8
3
  6
HIDDEN2
 10
58.064899999999959
 20
-23.506000000000011
 30
0.0
 70
    32
  0
VERTEX
  5
2FFF
  8
3
  6
HIDDEN2
 10
58.115299999999941
 20
-23.319900000000018
 30
0.0
 70
    32
  0
VERTEX
  5
3000
  8
3
  6
HIDDEN2
 10
58.17979999999995
 20
-23.135600000000021
 30
0.0
 70
    32
  0
VERTEX
  5
3001
  8
3
  6
HIDDEN2
 10
58.258399999999952
 20
-22.953500000000009
 30
0.0
 70
    32
  0
VERTEX
  5
3002
  8
3
  6
HIDDEN2
 10
58.350699999999939
 20
-22.774100000000011
 30
0.0
 70
    32
  0
VERTEX
  5
3003
  8
3
  6
HIDDEN2
 10
58.456699999999962
 20
-22.597900000000021
 30
0.0
 70
    32
  0
VERTEX
  5
3004
  8
3
  6
HIDDEN2
 10
58.57609999999994
 20
-22.425200000000022
 30
0.0
 70
    32
  0
VERTEX
  5
3005
  8
3
  6
HIDDEN2
 10
58.708499999999972
 20
-22.256400000000021
 30
0.0
 70
    32
  0
VERTEX
  5
3006
  8
3
  6
HIDDEN2
 10
58.818049999999928
 20
-22.132354066161291
 30
0.0
 70
    32
  0
SEQEND
  5
3007
  8
3
  6
HIDDEN2
  0
LINE
  5
3008
  8
4
  6
CENTER2
 10
63.999999999999957
 20
-19.940657918790869
 30
0.0
 11
63.99999999999995
 21
-28.64809080287468
 31
0.0
  0
LINE
  5
3009
  8
4
  6
CENTER2
 10
57.58350264401561
 20
-24.513422179806799
 30
0.0
 11
70.71548561213973
 21
-24.51342217980682
 31
0.0
  0
POLYLINE
  5
300A
  8
3
  6
HIDDEN2
 66
     1
 10
0.0
 20
0.0
 30
0.0
 70
     8
  0
VERTEX
  5
300B
  8
3
  6
HIDDEN2
 10
58.818049999999928
 20
-25.295581463990558
 30
0.0
 70
    32
  0
VERTEX
  5
300C
  8
3
  6
HIDDEN2
 10
58.73679999999996
 20
-25.135000000000019
 30
0.0
 70
    32
  0
VERTEX
  5
300D
  8
3
  6
HIDDEN2
 10
58.664799999999957
 20
-24.965100000000021
 30
0.0
 70
    32
  0
VERTEX
  5
300E
  8
3
  6
HIDDEN2
 10
58.605699999999949
 20
-24.79310000000002
 30
0.0
 70
    32
  0
VERTEX
  5
300F
  8
3
  6
HIDDEN2
 10
58.55949999999995
 20
-24.61940000000002
 30
0.0
 70
    32
  0
VERTEX
  5
3010
  8
3
  6
HIDDEN2
 10
58.526499999999928
 20
-24.444400000000019
 30
0.0
 70
    32
  0
VERTEX
  5
3011
  8
3
  6
HIDDEN2
 10
58.506599999999949
 20
-24.268600000000021
 30
0.0
 70
    32
  0
VERTEX
  5
3012
  8
3
  6
HIDDEN2
 10
58.49999999999995
 20
-24.092400000000019
 30
0.0
 70
    32
  0
SEQEND
  5
3013
  8
3
  6
HIDDEN2
  0
POLYLINE
  5
3014
  8
3
  6
HIDDEN2
 66
     1
 10
0.0
 20
0.0
 30
0.0
 70
     8
  0
VERTEX
  5
3015
  8
3
  6
HIDDEN2
 10
60.418049999999923
 20
-26.816471404109599
 30
0.0
 70
    32
  0
VERTEX
  5
3016
  8
3
  6
HIDDEN2
 10
60.306399999999933
 20
-26.75360000000002
 30
0.0
 70
    32
  0
VERTEX
  5
3017
  8
3
  6
HIDDEN2
 10
60.110899999999972
 20
-26.632000000000019
 30
0.0
 70
    32
  0
VERTEX
  5
3018
  8
3
  6
HIDDEN2
 10
59.924799999999927
 20
-26.504300000000018
 30
0.0
 70
    32
  0
VERTEX
  5
3019
  8
3
  6
HIDDEN2
 10
59.748399999999933
 20
-26.37090000000002
 30
0.0
 70
    32
  0
VERTEX
  5
301A
  8
3
  6
HIDDEN2
 10
59.618049999999933
 20
-26.261751506024101
 30
0.0
 70
    32
  0
SEQEND
  5
301B
  8
3
  6
HIDDEN2
  0
POLYLINE
  5
301C
  8
3
  6
HIDDEN2
 66
     1
 10
0.0
 20
0.0
 30
0.0
 70
     8
  0
VERTEX
  5
301D
  8
3
  6
HIDDEN2
 10
62.018049999999931
 20
-27.44151976974992
 30
0.0
 70
    32
  0
VERTEX
  5
301E
  8
3
  6
HIDDEN2
 10
61.895199999999953
 20
-27.41060000000002
 30
0.0
 70
    32
  0
VERTEX
  5
301F
  8
3
  6
HIDDEN2
 10
61.648399999999953
 20
-27.33910000000002
 30
0.0
 70
    32
  0
VERTEX
  5
3020
  8
3
  6
HIDDEN2
 10
61.40729999999995
 20
-27.25990000000002
 30
0.0
 70
    32
  0
VERTEX
  5
3021
  8
3
  6
HIDDEN2
 10
61.218049999999927
 20
-27.18988797360581
 30
0.0
 70
    32
  0
SEQEND
  5
3022
  8
3
  6
HIDDEN2
  0
POLYLINE
  5
3023
  8
3
  6
HIDDEN2
 66
     1
 10
0.0
 20
0.0
 30
0.0
 70
     8
  0
VERTEX
  5
3024
  8
3
  6
HIDDEN2
 10
63.618049999999933
 20
-27.674230590638949
 30
0.0
 70
    32
  0
VERTEX
  5
3025
  8
3
  6
HIDDEN2
 10
63.460899999999953
 20
-27.666700000000031
 30
0.0
 70
    32
  0
VERTEX
  5
3026
  8
3
  6
HIDDEN2
 10
63.192999999999927
 20
-27.645100000000038
 30
0.0
 70
    32
  0
VERTEX
  5
3027
  8
3
  6
HIDDEN2
 10
62.926999999999929
 20
-27.61500000000002
 30
0.0
 70
    32
  0
VERTEX
  5
3028
  8
3
  6
HIDDEN2
 10
62.818049999999921
 20
-27.59899253986335
 30
0.0
 70
    32
  0
SEQEND
  5
3029
  8
3
  6
HIDDEN2
  0
POLYLINE
  5
302A
  8
3
  6
HIDDEN2
 66
     1
 10
0.0
 20
0.0
 30
0.0
 70
     8
  0
VERTEX
  5
302B
  8
3
  6
HIDDEN2
 10
65.218049999999906
 20
-27.593688553530772
 30
0.0
 70
    32
  0
VERTEX
  5
302C
  8
3
  6
HIDDEN2
 10
65.072999999999951
 20
-27.61500000000003
 30
0.0
 70
    32
  0
VERTEX
  5
302D
  8
3
  6
HIDDEN2
 10
64.80699999999996
 20
-27.645100000000038
 30
0.0
 70
    32
  0
VERTEX
  5
302E
  8
3
  6
HIDDEN2
 10
64.539099999999934
 20
-27.666700000000031
 30
0.0
 70
    32
  0
VERTEX
  5
302F
  8
3
  6
HIDDEN2
 10
64.418049999999923
 20
-27.672500687221412
 30
0.0
 70
    32
  0
SEQEND
  5
3030
  8
3
  6
HIDDEN2
  0
POLYLINE
  5
3031
  8
3
  6
HIDDEN2
 66
     1
 10
0.0
 20
0.0
 30
0.0
 70
     8
  0
VERTEX
  5
3032
  8
3
  6
HIDDEN2
 10
66.818049999999914
 20
-27.176532971477268
 30
0.0
 70
    32
  0
VERTEX
  5
3033
  8
3
  6
HIDDEN2
 10
66.592699999999951
 20
-27.25990000000003
 30
0.0
 70
    32
  0
VERTEX
  5
3034
  8
3
  6
HIDDEN2
 10
66.351599999999934
 20
-27.33910000000003
 30
0.0
 70
    32
  0
VERTEX
  5
3035
  8
3
  6
HIDDEN2
 10
66.104799999999926
 20
-27.410600000000041
 30
0.0
 70
    32
  0
VERTEX
  5
3036
  8
3
  6
HIDDEN2
 10
66.018049999999931
 20
-27.43243386264394
 30
0.0
 70
    32
  0
SEQEND
  5
3037
  8
3
  6
HIDDEN2
  0
POLYLINE
  5
3038
  8
3
  6
HIDDEN2
 66
     1
 10
0.0
 20
0.0
 30
0.0
 70
     8
  0
VERTEX
  5
3039
  8
3
  6
HIDDEN2
 10
68.418049999999923
 20
-26.231482990353769
 30
0.0
 70
    32
  0
VERTEX
  5
303A
  8
3
  6
HIDDEN2
 10
68.41759999999995
 20
-26.231900000000039
 30
0.0
 70
    32
  0
VERTEX
  5
303B
  8
3
  6
HIDDEN2
 10
68.251599999999954
 20
-26.370900000000042
 30
0.0
 70
    32
  0
VERTEX
  5
303C
  8
3
  6
HIDDEN2
 10
68.075199999999967
 20
-26.50430000000004
 30
0.0
 70
    32
  0
VERTEX
  5
303D
  8
3
  6
HIDDEN2
 10
67.889099999999956
 20
-26.63200000000003
 30
0.0
 70
    32
  0
VERTEX
  5
303E
  8
3
  6
HIDDEN2
 10
67.693599999999961
 20
-26.753600000000031
 30
0.0
 70
    32
  0
VERTEX
  5
303F
  8
3
  6
HIDDEN2
 10
67.618049999999926
 20
-26.796143077299469
 30
0.0
 70
    32
  0
SEQEND
  5
3040
  8
3
  6
HIDDEN2
  0
POLYLINE
  5
3041
  8
3
  6
HIDDEN2
 66
     1
 10
0.0
 20
0.0
 30
0.0
 70
     8
  0
VERTEX
  5
3042
  8
3
  6
HIDDEN2
 10
69.218049999999891
 20
-22.960566115702431
 30
0.0
 70
    32
  0
VERTEX
  5
3043
  8
3
  6
HIDDEN2
 10
69.263199999999927
 20
-23.04980000000004
 30
0.0
 70
    32
  0
VERTEX
  5
3044
  8
3
  6
HIDDEN2
 10
69.335199999999958
 20
-23.219700000000032
 30
0.0
 70
    32
  0
VERTEX
  5
3045
  8
3
  6
HIDDEN2
 10
69.394299999999959
 20
-23.391700000000039
 30
0.0
 70
    32
  0
VERTEX
  5
3046
  8
3
  6
HIDDEN2
 10
69.440499999999957
 20
-23.565400000000039
 30
0.0
 70
    32
  0
VERTEX
  5
3047
  8
3
  6
HIDDEN2
 10
69.473499999999959
 20
-23.74040000000004
 30
0.0
 70
    32
  0
VERTEX
  5
3048
  8
3
  6
HIDDEN2
 10
69.493399999999951
 20
-23.916200000000039
 30
0.0
 70
    32
  0
VERTEX
  5
3049
  8
3
  6
HIDDEN2
 10
69.499999999999972
 20
-24.09240000000004
 30
0.0
 70
    32
  0
VERTEX
  5
304A
  8
3
  6
HIDDEN2
 10
69.493399999999951
 20
-24.268600000000038
 30
0.0
 70
    32
  0
VERTEX
  5
304B
  8
3
  6
HIDDEN2
 10
69.473499999999959
 20
-24.444400000000041
 30
0.0
 70
    32
  0
VERTEX
  5
304C
  8
3
  6
HIDDEN2
 10
69.440499999999957
 20
-24.619400000000041
 30
0.0
 70
    32
  0
VERTEX
  5
304D
  8
3
  6
HIDDEN2
 10
69.394299999999959
 20
-24.793100000000031
 30
0.0
 70
    32
  0
VERTEX
  5
304E
  8
3
  6
HIDDEN2
 10
69.335199999999958
 20
-24.965100000000039
 30
0.0
 70
    32
  0
VERTEX
  5
304F
  8
3
  6
HIDDEN2
 10
69.263199999999927
 20
-25.135000000000041
 30
0.0
 70
    32
  0
VERTEX
  5
3050
  8
3
  6
HIDDEN2
 10
69.218049999999891
 20
-25.22423388429765
 30
0.0
 70
    32
  0
SEQEND
  5
3051
  8
3
  6
HIDDEN2
  0
POLYLINE
  5
3052
  8
3
  6
HIDDEN2
 66
     1
 10
0.0
 20
0.0
 30
0.0
 70
     8
  0
VERTEX
  5
3053
  8
3
  6
HIDDEN2
 10
67.618049999999926
 20
-21.388656922700601
 30
0.0
 70
    32
  0
VERTEX
  5
3054
  8
3
  6
HIDDEN2
 10
67.693599999999975
 20
-21.431200000000029
 30
0.0
 70
    32
  0
VERTEX
  5
3055
  8
3
  6
HIDDEN2
 10
67.889099999999956
 20
-21.55280000000003
 30
0.0
 70
    32
  0
VERTEX
  5
3056
  8
3
  6
HIDDEN2
 10
68.075199999999967
 20
-21.680400000000031
 30
0.0
 70
    32
  0
VERTEX
  5
3057
  8
3
  6
HIDDEN2
 10
68.251599999999954
 20
-21.813900000000029
 30
0.0
 70
    32
  0
VERTEX
  5
3058
  8
3
  6
HIDDEN2
 10
68.417599999999965
 20
-21.952900000000032
 30
0.0
 70
    32
  0
VERTEX
  5
3059
  8
3
  6
HIDDEN2
 10
68.418049999999923
 20
-21.953317009646291
 30
0.0
 70
    32
  0
SEQEND
  5
305A
  8
3
  6
HIDDEN2
  0
POLYLINE
  5
305B
  8
3
  6
HIDDEN2
 66
     1
 10
0.0
 20
0.0
 30
0.0
 70
     8
  0
VERTEX
  5
305C
  8
3
  6
HIDDEN2
 10
66.018049999999931
 20
-20.752366137356109
 30
0.0
 70
    32
  0
VERTEX
  5
305D
  8
3
  6
HIDDEN2
 10
66.104799999999955
 20
-20.774200000000029
 30
0.0
 70
    32
  0
VERTEX
  5
305E
  8
3
  6
HIDDEN2
 10
66.351599999999962
 20
-20.845700000000019
 30
0.0
 70
    32
  0
VERTEX
  5
305F
  8
3
  6
HIDDEN2
 10
66.592699999999979
 20
-20.924900000000029
 30
0.0
 70
    32
  0
VERTEX
  5
3060
  8
3
  6
HIDDEN2
 10
66.818049999999943
 20
-21.008267028522798
 30
0.0
 70
    32
  0
SEQEND
  5
3061
  8
3
  6
HIDDEN2
  0
POLYLINE
  5
3062
  8
3
  6
HIDDEN2
 66
     1
 10
0.0
 20
0.0
 30
0.0
 70
     8
  0
VERTEX
  5
3063
  8
3
  6
HIDDEN2
 10
64.418049999999937
 20
-20.512254346211019
 30
0.0
 70
    32
  0
VERTEX
  5
3064
  8
3
  6
HIDDEN2
 10
64.539099999999962
 20
-20.518100000000029
 30
0.0
 70
    32
  0
VERTEX
  5
3065
  8
3
  6
HIDDEN2
 10
64.806999999999974
 20
-20.539700000000028
 30
0.0
 70
    32
  0
VERTEX
  5
3066
  8
3
  6
HIDDEN2
 10
65.072999999999965
 20
-20.569800000000019
 30
0.0
 70
    32
  0
VERTEX
  5
3067
  8
3
  6
HIDDEN2
 10
65.218049999999934
 20
-20.59111144646927
 30
0.0
 70
    32
  0
SEQEND
  5
3068
  8
3
  6
HIDDEN2
  0
POLYLINE
  5
3069
  8
3
  6
HIDDEN2
 66
     1
 10
0.0
 20
0.0
 30
0.0
 70
     8
  0
VERTEX
  5
306A
  8
3
  6
HIDDEN2
 10
62.818049999999943
 20
-20.585807460136699
 30
0.0
 70
    32
  0
VERTEX
  5
306B
  8
3
  6
HIDDEN2
 10
62.926999999999957
 20
-20.569800000000019
 30
0.0
 70
    32
  0
VERTEX
  5
306C
  8
3
  6
HIDDEN2
 10
63.192999999999962
 20
-20.539700000000028
 30
0.0
 70
    32
  0
VERTEX
  5
306D
  8
3
  6
HIDDEN2
 10
63.460899999999967
 20
-20.518100000000029
 30
0.0
 70
    32
  0
VERTEX
  5
306E
  8
3
  6
HIDDEN2
 10
63.618049999999933
 20
-20.510511032689479
 30
0.0
 70
    32
  0
SEQEND
  5
306F
  8
3
  6
HIDDEN2
  0
POLYLINE
  5
3070
  8
3
  6
HIDDEN2
 66
     1
 10
0.0
 20
0.0
 30
0.0
 70
     8
  0
VERTEX
  5
3071
  8
3
  6
HIDDEN2
 10
61.218049999999927
 20
-20.994912026394239
 30
0.0
 70
    32
  0
VERTEX
  5
3072
  8
3
  6
HIDDEN2
 10
61.407299999999957
 20
-20.924900000000012
 30
0.0
 70
    32
  0
VERTEX
  5
3073
  8
3
  6
HIDDEN2
 10
61.648399999999953
 20
-20.845700000000019
 30
0.0
 70
    32
  0
VERTEX
  5
3074
  8
3
  6
HIDDEN2
 10
61.895199999999953
 20
-20.774200000000029
 30
0.0
 70
    32
  0
VERTEX
  5
3075
  8
3
  6
HIDDEN2
 10
62.018049999999931
 20
-20.743280230250122
 30
0.0
 70
    32
  0
SEQEND
  5
3076
  8
3
  6
HIDDEN2
  0
POLYLINE
  5
3077
  8
3
  6
HIDDEN2
 66
     1
 10
0.0
 20
0.0
 30
0.0
 70
     8
  0
VERTEX
  5
3078
  8
3
  6
HIDDEN2
 10
59.618049999999933
 20
-21.92304849397593
 30
0.0
 70
    32
  0
VERTEX
  5
3079
  8
3
  6
HIDDEN2
 10
59.748399999999961
 20
-21.813900000000029
 30
0.0
 70
    32
  0
VERTEX
  5
307A
  8
3
  6
HIDDEN2
 10
59.924799999999962
 20
-21.68040000000002
 30
0.0
 70
    32
  0
VERTEX
  5
307B
  8
3
  6
HIDDEN2
 10
60.110899999999972
 20
-21.552800000000019
 30
0.0
 70
    32
  0
VERTEX
  5
307C
  8
3
  6
HIDDEN2
 10
60.306399999999933
 20
-21.431200000000018
 30
0.0
 70
    32
  0
VERTEX
  5
307D
  8
3
  6
HIDDEN2
 10
60.418049999999951
 20
-21.368328595890439
 30
0.0
 70
    32
  0
SEQEND
  5
307E
  8
3
  6
HIDDEN2
  0
POLYLINE
  5
307F
  8
3
  6
HIDDEN2
 66
     1
 10
0.0
 20
0.0
 30
0.0
 70
     8
  0
VERTEX
  5
3080
  8
3
  6
HIDDEN2
 10
58.49999999999995
 20
-24.092400000000019
 30
0.0
 70
    32
  0
VERTEX
  5
3081
  8
3
  6
HIDDEN2
 10
58.506599999999949
 20
-23.916200000000021
 30
0.0
 70
    32
  0
VERTEX
  5
3082
  8
3
  6
HIDDEN2
 10
58.526499999999928
 20
-23.740400000000019
 30
0.0
 70
    32
  0
VERTEX
  5
3083
  8
3
  6
HIDDEN2
 10
58.55949999999995
 20
-23.565400000000022
 30
0.0
 70
    32
  0
VERTEX
  5
3084
  8
3
  6
HIDDEN2
 10
58.605699999999949
 20
-23.391700000000021
 30
0.0
 70
    32
  0
VERTEX
  5
3085
  8
3
  6
HIDDEN2
 10
58.664799999999957
 20
-23.219700000000021
 30
0.0
 70
    32
  0
VERTEX
  5
3086
  8
3
  6
HIDDEN2
 10
58.73679999999996
 20
-23.049800000000019
 30
0.0
 70
    32
  0
VERTEX
  5
3087
  8
3
  6
HIDDEN2
 10
58.818049999999928
 20
-22.88921853600948
 30
0.0
 70
    32
  0
SEQEND
  5
3088
  8
3
  6
HIDDEN2
  0
LINE
  5
3089
  8
1
  6
CONTINUOUS
 10
61.0
 20
-1.73205081000001
 30
0.0
 11
64.0
 21
-3.4641016200000121
 31
0.0
  0
LINE
  5
308A
  8
1
  6
CONTINUOUS
 10
64.0
 20
-3.4641016200000121
 30
0.0
 11
67.0
 21
-1.73205081000001
 31
0.0
  0
LINE
  5
308B
  8
1
  6
CONTINUOUS
 10
67.0
 20
-1.73205081000001
 30
0.0
 11
67.0
 21
1.7320508099999861
 31
0.0
  0
LINE
  5
308C
  8
1
  6
CONTINUOUS
 10
67.0
 20
1.7320508099999861
 30
0.0
 11
64.0
 21
3.464101619999985
 31
0.0
  0
LINE
  5
308D
  8
1
  6
CONTINUOUS
 10
64.0
 20
3.464101619999985
 30
0.0
 11
61.0
 21
1.7320508099999861
 31
0.0
  0
LINE
  5
308E
  8
1
  6
CONTINUOUS
 10
61.0
 20
1.7320508099999861
 30
0.0
 11
61.0
 21
-1.73205081000001
 31
0.0
  0
LINE
  5
308F
  8
3
  6
HIDDEN2
 10
0.0
 20
-18.0
 30
0.0
 11
80.0
 21
-18.0
 31
0.0
  0
LINE
  5
9C14
  8
NOCUT
  6
CONTINUOUS
 10
0.0
 20
0.0
 30
0.0
 11
80.0
 21
0.0
 31
0.0
  0
LINE
  5
9C15
  8
NOCUT
  6
CONTINUOUS
 10
79.0
 20
-32.0
 30
0.0
 11
1.0
 21
-32.0
 31
0.0
  0
LINE
  5
9C16
  8
NOCUT
  6
CONTINUOUS
 10
0.0
 20
-31.000000000005119
 30
0.0
 11
0.0
 21
0.0
 31
0.0
  0
LINE
  5
9C17
  8
NOCUT
  6
CONTINUOUS
 10
80.0
 20
-31.000000000005119
 30
0.0
 11
80.0
 21
0.0
 31
0.0
  0
LINE
  5
9C18
  8
NOCUT
  6
CONTINUOUS
 10
1.0
 20
-32.0
 30
0.0
 11
0.0
 21
-31.000000000005119
 31
0.0
1001
GENIUS_GENFIL_13
1070
     1
1040
1.0
1040
0.999999999994884
1040
1.0
1040
44.999999999707242
1000
~T
  0
LINE
  5
9C19
  8
NOCUT
  6
CONTINUOUS
 10
79.0
 20
-32.0
 30
0.0
 11
80.0
 21
-31.000000000005119
 31
0.0
1001
GENIUS_GENFIL_13
1070
     1
1040
1.0
1040
0.999999999994884
1040
1.0
1040
44.999999999707242
1000
~T
  0
LINE
  5
9D1E
  8
2
  6
CONTINUOUS
 10
0.0000000000000001
 20
32.000000000005123
 30
0.0
 11
0.0000000000000009
 21
46.5
 31
0.0
  0
LINE
  5
9D1F
  8
2
  6
CONTINUOUS
 10
80.0
 20
32.000000000005123
 30
0.0
 11
80.0
 21
46.5
 31
0.0
  0
LINE
  5
9D20
  8
2
  6
CONTINUOUS
 10
2.0
 20
45.0
 30
0.0
 11
78.0
 21
45.0
 31
0.0
  0
LINE
  5
9D24
  8
2
  6
CONTINUOUS
 10
78.0
 20
45.333333333333343
 30
0.0
 11
80.0
 21
45.0
 31
0.0
  0
LINE
  5
9D25
  8
2
  6
CONTINUOUS
 10
78.0
 20
44.666666666666657
 30
0.0
 11
80.0
 21
45.0
 31
0.0
  0
LINE
  5
9D26
  8
2
  6
CONTINUOUS
 10
80.0
 20
45.0
 30
0.0
 11
78.0
 21
45.0
 31
0.0
  0
LINE
  5
9D27
  8
2
  6
CONTINUOUS
 10
2.0
 20
44.666666666666657
 30
0.0
 11
0.0000000000000009
 21
45.0
 31
0.0
  0
LINE
  5
9D28
  8
2
  6
CONTINUOUS
 10
2.0
 20
45.333333333333343
 30
0.0
 11
0.0000000000000009
 21
45.0
 31
0.0
  0
LINE
  5
9D29
  8
2
  6
CONTINUOUS
 10
0.0000000000000009
 20
45.0
 30
0.0
 11
2.0
 21
45.0
 31
0.0
  0
TEXT
  5
9D2A
  8
2
  6
CONTINUOUS
 10
38.215000000000003
 20
45.600000000000001
 30
0.0
 40
2.7999999999999989
  1
80
 41
0.85
  0
TEXT
  5
9D2B
  8
6
  6
CONTINUOUS
 10
-4.4598114897000007
 20
65.406919313900005
 30
0.0
 40
3.5
  1
BIG DAISHOWA
 41
0.85
  0
TEXT
  5
9D2C
  8
6
  6
CONTINUOUS
 10
-4.4598114897000007
 20
60.156919313900012
 30
0.0
 40
3.5
  1
CKN66N-80ALT
 41
0.85
  0
ENDSEC
  0
EOF
