  0
SECTION
  2
HEADER
  9
$ACADVER
  1
AC1009
  9
$INSBASE
 10
0.0
 20
0.0
 30
0.0
  9
$EXTMIN
 10
-51.0
 20
-45.0
 30
0.0
  9
$EXTMAX
 10
126.8723709399999962
 20
75.0000000000000426
 30
0.0
  9
$LIMMIN
 10
0.0
 20
0.0
  9
$LIMMAX
 10
420.0
 20
297.0
  9
$ORTHOMODE
 70
     0
  9
$REGENMODE
 70
     1
  9
$FILLMODE
 70
     1
  9
$QTEXTMODE
 70
     0
  9
$MIRRTEXT
 70
     1
  9
$DRAGMODE
 70
     2
  9
$LTSCALE
 40
10.0
  9
$OSMODE
 70
   807
  9
$ATTMODE
 70
     1
  9
$TEXTSIZE
 40
3.0
  9
$TRACEWID
 40
1.0
  9
$TEXTSTYLE
  7
YOKO
  9
$CLAYER
  8
240
  9
$CELTYPE
  6
BYLAYER
  9
$CECOLOR
 62
   256
  9
$DIMSCALE
 40
1.0
  9
$DIMASZ
 40
2.2299999999999991
  9
$DIMEXO
 40
0.5
  9
$DIMDLI
 40
2.5
  9
$DIMRND
 40
0.0
  9
$DIMDLE
 40
0.0
  9
$DIMEXE
 40
1.0
  9
$DIMTP
 40
0.0
  9
$DIMTM
 40
0.0
  9
$DIMTXT
 40
2.799999999999998
  9
$DIMCEN
 40
0.0
  9
$DIMTSZ
 40
0.0
  9
$DIMTOL
 70
     0
  9
$DIMLIM
 70
     0
  9
$DIMTIH
 70
     0
  9
$DIMTOH
 70
     0
  9
$DIMSE1
 70
     0
  9
$DIMSE2
 70
     0
  9
$DIMTAD
 70
     3
  9
$DIMZIN
 70
     8
  9
$DIMBLK
  1

  9
$DIMASO
 70
     1
  9
$DIMSHO
 70
     1
  9
$DIMPOST
  1

  9
$DIMAPOST
  1

  9
$DIMALT
 70
     0
  9
$DIMALTD
 70
     2
  9
$DIMALTF
 40
25.3999999999999986
  9
$DIMLFAC
 40
1.0
  9
$DIMTOFL
 70
     1
  9
$DIMTVP
 40
0.0
  9
$DIMTIX
 70
     1
  9
$DIMSOXD
 70
     0
  9
$DIMSAH
 70
     1
  9
$DIMBLK1
  1
OPEN
  9
$DIMBLK2
  1
OPEN
  9
$DIMSTYLE
  2
BIGT
  9
$DIMCLRD
 70
   256
  9
$DIMCLRE
 70
   256
  9
$DIMCLRT
 70
    40
  9
$DIMTFAC
 40
1.0
  9
$DIMGAP
 40
1.0
  9
$LUNITS
 70
     2
  9
$LUPREC
 70
     2
  9
$SKETCHINC
 40
1.0
  9
$FILLETRAD
 40
5.0
  9
$AUNITS
 70
     0
  9
$AUPREC
 70
     3
  9
$MENU
  1
.
  9
$ELEVATION
 40
0.0
  9
$PELEVATION
 40
0.0
  9
$THICKNESS
 40
0.0
  9
$LIMCHECK
 70
     0
  9
$BLIPMODE
 70
     0
  9
$CHAMFERA
 40
10.0
  9
$CHAMFERB
 40
10.0
  9
$SKPOLY
 70
     0
  9
$TDCREATE
 40
2455448.4859953708946705
  9
$TDUPDATE
 40
2458295.701168981846422
  9
$TDINDWG
 40
0.0123882176
  9
$TDUSRTIMER
 40
0.0123882176
  9
$USRTIMER
 70
     1
  9
$ANGBASE
 50
0.0
  9
$ANGDIR
 70
     0
  9
$PDMODE
 70
     1
  9
$PDSIZE
 40
-5.0
  9
$PLINEWID
 40
0.0
  9
$COORDS
 70
     1
  9
$SPLFRAME
 70
     0
  9
$SPLINETYPE
 70
     6
  9
$SPLINESEGS
 70
     8
  9
$ATTDIA
 70
     1
  9
$ATTREQ
 70
     1
  9
$HANDLING
 70
     1
  9
$HANDSEED
  5
E6C
  9
$SURFTAB1
 70
     6
  9
$SURFTAB2
 70
     6
  9
$SURFTYPE
 70
     6
  9
$SURFU
 70
     6
  9
$SURFV
 70
     6
  9
$UCSNAME
  2

  9
$UCSORG
 10
0.0
 20
0.0
 30
0.0
  9
$UCSXDIR
 10
1.0
 20
0.0
 30
0.0
  9
$UCSYDIR
 10
0.0
 20
1.0
 30
0.0
  9
$PUCSNAME
  2

  9
$PUCSORG
 10
0.0
 20
0.0
 30
0.0
  9
$PUCSXDIR
 10
1.0
 20
0.0
 30
0.0
  9
$PUCSYDIR
 10
0.0
 20
1.0
 30
0.0
  9
$USERI1
 70
     1
  9
$USERI2
 70
     0
  9
$USERI3
 70
     0
  9
$USERI4
 70
     0
  9
$USERI5
 70
     0
  9
$USERR1
 40
0.0
  9
$USERR2
 40
0.0
  9
$USERR3
 40
0.0
  9
$USERR4
 40
0.0
  9
$USERR5
 40
0.0
  9
$WORLDVIEW
 70
     1
  9
$SHADEDGE
 70
     3
  9
$SHADEDIF
 70
    70
  9
$TILEMODE
 70
     1
  9
$MAXACTVP
 70
    16
  9
$PLIMCHECK
 70
     0
  9
$PEXTMIN
 10
1.0000000000000000E+20
 20
1.0000000000000000E+20
 30
1.0000000000000000E+20
  9
$PEXTMAX
 10
-1.0000000000000000E+20
 20
-1.0000000000000000E+20
 30
-1.0000000000000000E+20
  9
$PLIMMIN
 10
0.0
 20
0.0
  9
$PLIMMAX
 10
420.0
 20
297.0
  9
$UNITMODE
 70
     0
  9
$VISRETAIN
 70
     0
  9
$PLINEGEN
 70
     0
  9
$PSLTSCALE
 70
     1
  0
ENDSEC
  0
SECTION
  2
TABLES
  0
TABLE
  2
VPORT
 70
     1
  0
VPORT
  2
*ACTIVE
 70
     0
 10
0.0
 20
0.0
 11
1.0
 21
1.0
 12
59.1771935065311467
 22
13.3372675241041598
 13
0.0
 23
0.0
 14
7.0
 24
7.0
 15
7.0
 25
7.0
 16
0.0
 26
0.0
 36
1.0
 17
0.0
 27
0.0
 37
0.0
 40
217.5151491894486924
 41
1.887387387387387
 42
50.0
 43
0.0
 44
0.0
 50
0.0
 51
0.0
 71
     0
 72
  2000
 73
     1
 74
     0
 75
     0
 76
     1
 77
     0
 78
     0
  0
ENDTAB
  0
TABLE
  2
LTYPE
 70
    22
  0
LTYPE
  2
CONTINUOUS
 70
     0
  3
Solid line
 72
    65
 73
     0
 40
0.0
  0
LTYPE
  2
CENTER2
 70
     0
  3
___ _ ___ _ ___ _ ___ _ ___ _ ___ _ ___ _ ___ _
 72
    65
 73
     4
 40
1.125
 49
0.75
 49
-0.125
 49
0.125
 49
-0.125
  0
LTYPE
  2
HIDDEN2
 70
     0
  3
_ _ _ _ _ _ _ _ _ _ _ _ _ _ _ _ _ _ _ _ _ _ _ _
 72
    65
 73
     2
 40
0.1875
 49
0.125
 49
-0.0625
  0
LTYPE
  2
HIDDEN
 70
     0
  3
Hidden __ __ __ __ __ __ __ __ __ __ __ __ __ _
 72
    65
 73
     2
 40
9.5249999999999986
 49
6.3499999999999979
 49
-3.174999999999998
  0
LTYPE
  2
PHANTOM2
 70
     0
  3
Phantom (.5x) ___ _ _ ___ _ _ ___ _ _ ___ _ _
 72
    65
 73
     6
 40
31.75
 49
15.875
 49
-3.174999999999998
 49
3.174999999999998
 49
-3.174999999999998
 49
3.174999999999998
 49
-3.174999999999998
  0
LTYPE
  2
CENTER
 70
     0
  3
Center ____ _ ____ _ ____ _ ____ _ ____ _ ____
 72
    65
 73
     4
 40
50.7999999999999972
 49
31.75
 49
-6.3499999999999979
 49
6.3499999999999979
 49
-6.3499999999999979
  0
LTYPE
  2
AMCONSTR
 70
     0
  3
_______________________
 72
    65
 73
     2
 40
9999.0
 49
9999.0
 49
0.0
  0
LTYPE
  2
AMZIGZAG2
 70
     0
  3
/\/-/\/-/\/-/\/-/\/-/\/
 72
    65
 73
     2
 40
0.4401
 49
0.0001
 49
-0.4400000000000003
  0
LTYPE
  2
ACANSTGB
 70
     0
  3
__ . . __ . .
 72
    65
 73
     6
 40
0.35433070866
 49
0.15748031496
 49
-0.03937007874
 49
0.03937007874
 49
-0.03937007874
 49
0.03937007874
 49
-0.03937007874
  0
LTYPE
  2
ACANSTGL
 70
     0
  3
_ _ _ _ _
 72
    65
 73
     2
 40
0.11811023622
 49
0.07874015748
 49
-0.03937007874
  0
ENDTAB
  0
TABLE
  2
LAYER
 70
     9
  0
LAYER
  2
0
 70
     0
 62
     7
  6
CONTINUOUS
  0
LAYER
  2
240
 70
     0
 62
     4
  6
CONTINUOUS
  0
LAYER
  2
241
 70
     0
 62
   211
  6
CONTINUOUS
  0
LAYER
  2
242
 70
     0
 62
     3
  6
CONTINUOUS
  0
LAYER
  2
245
 70
     0
 62
     2
  6
CENTER2
  0
LAYER
  2
250
 70
     0
 62
     3
  6
CONTINUOUS
  0
LAYER
  2
DEFPOINTS
 70
     0
 62
     7
  6
CONTINUOUS
  0
LAYER
  2
247
 70
     0
 62
    60
  6
CONTINUOUS
  0
LAYER
  2
243
 70
     0
 62
   211
  6
HIDDEN2
  0
ENDTAB
  0
TABLE
  2
STYLE
 70
     9
  0
STYLE
  2
STANDARD
 70
     0
 40
0.0
 41
1.0
 50
0.0
 71
     0
 42
3.0
  3
romans.shx
  4
BIGFONT.SHX
  0
STYLE
  2
YOKO
 70
     0
 40
0.0
 41
1.0
 50
0.0
 71
     0
 42
3.0
  3
romans.shx
  4
extfont.shx
  0
STYLE
  2
ACANSGDT
 70
     0
 40
0.0
 41
1.0
 50
0.0
 71
     0
 42
3.0
  3
amgdt.shx
  4

  0
ENDTAB
  0
TABLE
  2
VIEW
 70
     0
  0
ENDTAB
  0
TABLE
  2
UCS
 70
     0
  0
ENDTAB
  0
TABLE
  2
APPID
 70
    26
  0
APPID
  2
ACAD
 70
     0
  0
APPID
  2
ACADANNOTATIVE
 70
     0
  0
APPID
  2
GLOBAL
 70
     0
  0
APPID
  2
DETAIL
 70
     0
  0
APPID
  2
GRPNAME
 70
     0
  0
APPID
  2
GPARA
 70
     0
  0
APPID
  2
DCO15
 70
     0
  0
APPID
  2
ITEMNAME
 70
     0
  0
APPID
  2
GRADE_0
 70
     0
  0
APPID
  2
CONTENTBLOCKICON
 70
     0
  0
APPID
  2
MCAD_NO_VIS
 70
     0
  0
APPID
  2
ACAD_TEMP_GRAPHIC
 70
     0
  0
APPID
  2
ACATTRIBSERVICES
 70
     0
  0
APPID
  2
DESIGNERASSEMBLIES
 70
     0
  0
APPID
  2
ACAD_DSTYLE_DIMJAG
 70
     0
  0
APPID
  2
ACAD_DSTYLE_DIMBREAK
 70
     0
  0
APPID
  2
GENIUS_GENSCREG_15
 70
     0
  0
APPID
  2
GENIUS_GENOBJ-N-SDF_13
 70
     0
  0
APPID
  2
GENIUS_GENODEF_13
 70
     0
  0
APPID
  2
ACAD_NAV_VCDISPLAY
 70
     0
  0
APPID
  2
ACAECLAYERSTANDARD
 70
     0
  0
APPID
  2
GENIUS_GENOBJ-N-FIL_13
 70
     0
  0
APPID
  2
GENIUS_GENDTOL_13
 70
     0
  0
APPID
  2
ACAD_DSTYLE_DIMINSPECT
 70
     0
  0
APPID
  2
ACAD_MLEADERVER
 70
     0
  0
APPID
  2
ACAD_EXEMPT_FROM_CAD_STANDARDS
 70
     0
  0
ENDTAB
  0
TABLE
  2
DIMSTYLE
 70
    24
  0
DIMSTYLE
  2
STANDARD
 70
     0
  3

  4

  5

  6

  7

 40
1.0
 41
0.18
 42
0.0625
 43
0.38
 44
0.18
 45
0.0
 46
0.0
 47
0.0
 48
0.0
140
0.18
141
0.09
142
0.0
143
25.3999999999999986
144
1.0
145
0.0
146
1.0
147
0.09
 71
     0
 72
     0
 73
     1
 74
     1
 75
     0
 76
     0
 77
     0
 78
     0
170
     0
171
     2
172
     0
173
     0
174
     0
175
     0
176
     0
177
     0
178
     0
  0
DIMSTYLE
  2
BIGT
 70
     0
  3

  4

  5

  6

  7

 40
1.0
 41
2.2299999999999991
 42
0.5
 43
2.5
 44
1.0
 45
0.0
 46
0.0
 47
0.0
 48
0.0
140
2.799999999999998
141
0.0
142
0.0
143
25.3999999999999986
144
1.0
145
0.0
146
1.0
147
1.0
 71
     0
 72
     0
 73
     0
 74
     0
 75
     0
 76
     0
 77
     3
 78
     8
170
     0
171
     2
172
     1
173
     1
174
     1
175
     0
176
   256
177
   256
178
    40
  0
DIMSTYLE
  2
AM_ANSI
 70
     0
  3

  4
mm
  5

  6

  7

 40
1.0
 41
0.1
 42
0.05
 43
0.5
 44
0.1
 45
0.0
 46
0.0
 47
0.1
 48
0.1
140
0.12
141
0.0
142
0.0
143
25.3999999999999986
144
1.0
145
0.0
146
0.71
147
0.06
 71
     0
 72
     0
 73
     1
 74
     1
 75
     0
 76
     0
 77
     0
 78
     7
170
     0
171
     2
172
     0
173
     0
174
     0
175
     0
176
   256
177
   256
178
     2
  0
DIMSTYLE
  2
AM_ANSI$3
 70
     0
  3

  4
mm
  5

  6

  7

 40
1.0
 41
0.1
 42
0.05
 43
0.5
 44
0.1
 45
0.0
 46
0.0
 47
0.1
 48
0.1
140
0.12
141
0.0
142
0.0
143
25.3999999999999986
144
1.0
145
0.0
146
0.71
147
0.06
 71
     0
 72
     0
 73
     1
 74
     1
 75
     0
 76
     0
 77
     0
 78
     7
170
     0
171
     2
172
     0
173
     0
174
     0
175
     0
176
   256
177
   256
178
     2
  0
DIMSTYLE
  2
AM_ANSI$4
 70
     0
  3

  4
mm
  5

  6

  7

 40
1.0
 41
0.1
 42
0.05
 43
0.5
 44
0.1
 45
0.0
 46
0.0
 47
0.1
 48
0.1
140
0.12
141
0.0
142
0.0
143
25.3999999999999986
144
1.0
145
0.0
146
0.71
147
0.06
 71
     0
 72
     0
 73
     1
 74
     1
 75
     0
 76
     0
 77
     0
 78
     7
170
     0
171
     2
172
     0
173
     0
174
     0
175
     0
176
   256
177
   256
178
     2
  0
DIMSTYLE
  2
AM_ANSI$7
 70
     0
  3

  4
mm
  5

  6

  7

 40
1.0
 41
0.1
 42
0.05
 43
0.5
 44
0.1
 45
0.0
 46
0.0
 47
0.1
 48
0.1
140
0.24
141
0.0
142
0.0
143
25.3999999999999986
144
1.0
145
0.0
146
0.71
147
0.06
 71
     0
 72
     0
 73
     1
 74
     1
 75
     0
 76
     0
 77
     0
 78
     7
170
     0
171
     2
172
     0
173
     0
174
     0
175
     0
176
   256
177
   256
178
     2
  0
DIMSTYLE
  2
AM_ANSI$SF
 70
     0
  3

  4
mm
  5

  6

  7

 40
1.0
 41
0.1
 42
0.05
 43
0.5
 44
0.1
 45
0.0
 46
0.0
 47
0.1
 48
0.1
140
0.12
141
0.0
142
0.0
143
25.3999999999999986
144
1.0
145
0.0
146
0.71
147
0.06
 71
     0
 72
     0
 73
     1
 74
     1
 75
     1
 76
     1
 77
     0
 78
     7
170
     0
171
     2
172
     0
173
     0
174
     0
175
     0
176
   256
177
   256
178
     2
  0
DIMSTYLE
  2
AM_ANSI$SH
 70
     0
  3

  4
mm
  5

  6

  7

 40
1.0
 41
0.1
 42
0.05
 43
0.5
 44
0.1
 45
0.0
 46
0.0
 47
0.1
 48
0.1
140
0.12
141
0.0
142
0.0
143
25.3999999999999986
144
1.0
145
0.0
146
0.71
147
0.06
 71
     0
 72
     0
 73
     1
 74
     1
 75
     1
 76
     1
 77
     0
 78
     7
170
     0
171
     2
172
     0
173
     1
174
     0
175
     0
176
   256
177
   256
178
     2
  0
ENDTAB
  0
ENDSEC
  0
SECTION
  2
BLOCKS
  0
BLOCK
  8
0
  2
$MODEL_SPACE
 70
     0
 10
0.0
 20
0.0
 30
0.0
  3
$MODEL_SPACE
  1

  0
ENDBLK
  5
D3F
  8
0
  0
BLOCK
 67
     1
  8
0
  2
$PAPER_SPACE
 70
     0
 10
0.0
 20
0.0
 30
0.0
  3
$PAPER_SPACE
  1

  0
ENDBLK
  5
D3B
 67
     1
  8
0
  0
BLOCK
  8
0
  2
_OPEN
 70
     0
 10
0.0
 20
0.0
 30
0.0
  3
_OPEN
  1

  0
LINE
  5
595
  8
0
  6
BYBLOCK
 62
     0
 10
-1.0
 20
0.16666667
 30
0.0
 11
0.0
 21
0.0
 31
0.0
  0
LINE
  5
596
  8
0
  6
BYBLOCK
 62
     0
 10
-1.0
 20
-0.16666667
 30
0.0
 11
0.0
 21
0.0
 31
0.0
  0
LINE
  5
597
  8
0
  6
BYBLOCK
 62
     0
 10
0.0
 20
0.0
 30
0.0
 11
-1.0
 21
0.0
 31
0.0
  0
ENDBLK
  5
599
  8
0
  0
BLOCK
  8
0
  2
矢印なし
 70
     0
 10
0.0
 20
0.0
 30
0.0
  3
矢印なし
  1

  0
ENDBLK
  5
6E5
  8
0
  0
BLOCK
  8
0
  2
_ACMFILLEDHALF
 70
     0
 10
0.0
 20
0.0
 30
0.0
  3
_ACMFILLEDHALF
  1

  0
TRACE
  5
DEC
  8
240
 62
     0
 10
-0.8
 20
0.0
 30
0.0
 11
-1.0
 21
0.166666666
 31
0.0
 12
0.0
 22
0.0
 32
0.0
 13
0.0
 23
0.0
 33
0.0
  0
LINE
  5
DED
  8
240
 62
     0
 10
-1.0
 20
0.0
 30
0.0
 11
-0.8
 21
0.0
 31
0.0
  0
ENDBLK
  5
DEB
  8
0
  0
ENDSEC
  0
SECTION
  2
ENTITIES
  0
INSERT
  5
6E6
  8
245
  2
矢印なし
 10
175.6238269700000103
 20
90.551235719999994
 30
0.0
  0
LINE
  5
862
  8
250
  6
CONTINUOUS
 10
-36.7176656600000015
 20
-35.1846389800000097
 30
0.0
 11
-49.7843323199999972
 21
-35.1846389800000097
 31
0.0
1001
ITEMNAME
1000
LNSP2
  0
LINE
  5
8E6
  8
250
  6
CONTINUOUS
 10
113.3629018299999984
 20
59.6802041400000007
 30
0.0
 11
126.8723709399999962
 21
59.6802041400000007
 31
0.0
1001
ITEMNAME
1000
LNSP2
  0
TEXT
  5
8F0
  8
241
  6
CONTINUOUS
 10
-50.0
 20
70.0
 30
0.0
 40
5.0
  1
CKB76-106
  7
YOKO
 11
-50.0
 21
70.0
 31
0.0
 73
     1
  0
LINE
  5
A69
  8
240
  6
CONTINUOUS
 10
-50.0
 20
-23.0
 30
0.0
 11
-21.0017513499999993
 21
-23.0
 31
0.0
  0
LINE
  5
A6A
  8
240
  6
CONTINUOUS
 10
-50.0
 20
23.0
 30
0.0
 11
-21.0017513499999993
 21
23.0
 31
0.0
  0
LINE
  5
A6B
  8
245
  6
CENTER2
 10
107.0
 20
0.0
 30
0.0
 11
-51.0
 21
0.0
 31
0.0
  0
LINE
  5
A6D
  8
240
  6
CONTINUOUS
 10
-50.0
 20
-23.0
 30
0.0
 11
-50.0
 21
23.0
 31
0.0
  0
LINE
  5
A70
  8
240
  6
CONTINUOUS
 10
106.0
 20
-32.0
 30
0.0
 11
106.0
 21
32.0
 31
0.0
  0
LINE
  5
A71
  8
240
  6
CONTINUOUS
 10
-2.9982486499999981
 20
-23.0
 30
0.0
 11
-5.884999999999998
 21
-28.0
 31
0.0
  0
LINE
  5
A72
  8
240
  6
CONTINUOUS
 10
0.0
 20
-45.0
 30
0.0
 11
0.0
 21
-23.0
 31
0.0
  0
LINE
  5
A73
  8
240
  6
CONTINUOUS
 10
-21.0017513499999993
 20
-23.0
 30
0.0
 11
-18.1149999999999984
 21
-28.0
 31
0.0
  0
LINE
  5
A74
  8
241
  6
CONTINUOUS
 10
12.0
 20
37.0
 30
0.0
 11
12.0
 21
-37.0
 31
0.0
  0
LINE
  5
A75
  8
240
  6
CONTINUOUS
 10
17.0
 20
-32.0
 30
0.0
 11
106.0
 21
-32.0
 31
0.0
  0
LINE
  5
A76
  8
240
  6
CONTINUOUS
 10
12.0
 20
-45.0
 30
0.0
 11
0.0
 21
-45.0
 31
0.0
  0
LINE
  5
A77
  8
240
  6
CONTINUOUS
 10
-18.1149999999999984
 20
-28.0
 30
0.0
 11
-5.884999999999998
 21
-28.0
 31
0.0
  0
LINE
  5
A7C
  8
240
  6
CONTINUOUS
 10
12.0
 20
-37.0
 30
0.0
 11
12.0
 21
-45.0
 31
0.0
  0
ARC
  5
A7E
  8
240
  6
CONTINUOUS
 10
17.0
 20
-37.0
 30
0.0
 40
5.0
 50
90.0
 51
180.0
  0
LINE
  5
A81
  8
240
  6
CONTINUOUS
 10
17.0
 20
32.0
 30
0.0
 11
106.0
 21
32.0
 31
0.0
  0
LINE
  5
A82
  8
240
  6
CONTINUOUS
 10
12.0
 20
37.0
 30
0.0
 11
12.0
 21
45.0
 31
0.0
  0
LINE
  5
A83
  8
240
  6
CONTINUOUS
 10
0.0
 20
45.0
 30
0.0
 11
0.0
 21
23.0
 31
0.0
  0
LINE
  5
A85
  8
245
  6
CENTER2
 10
-19.0
 20
13.1885738700000008
 30
0.0
 11
-19.0
 21
-12.5193029599999992
 31
0.0
  0
CIRCLE
  5
A86
  8
241
  6
CONTINUOUS
 10
-19.0
 20
0.0
 30
0.0
 40
7.5
  0
CIRCLE
  5
A87
  8
241
  6
CONTINUOUS
 10
-19.0
 20
0.0
 30
0.0
 40
10.0
  0
LINE
  5
A89
  8
241
  6
CONTINUOUS
 10
-2.9982486499999981
 20
-23.0
 30
0.0
 11
-21.0017513499999993
 21
-23.0
 31
0.0
  0
LINE
  5
A8B
  8
241
  6
CONTINUOUS
 10
0.0
 20
-23.0
 30
0.0
 11
0.0
 21
23.0
 31
0.0
  0
LINE
  5
A8C
  8
240
  6
CONTINUOUS
 10
-2.9982486499999981
 20
-23.0
 30
0.0
 11
0.0
 21
-23.0
 31
0.0
  0
LINE
  5
A8D
  8
241
  6
CONTINUOUS
 10
-2.9982486499999981
 20
23.0
 30
0.0
 11
-21.0017513499999993
 21
23.0
 31
0.0
  0
LINE
  5
A8E
  8
240
  6
CONTINUOUS
 10
-18.1149999999999984
 20
28.0
 30
0.0
 11
-5.884999999999998
 21
28.0
 31
0.0
  0
LINE
  5
A8F
  8
240
  6
CONTINUOUS
 10
-21.0017513499999993
 20
23.0
 30
0.0
 11
-18.1149999999999984
 21
28.0
 31
0.0
  0
LINE
  5
A91
  8
240
  6
CONTINUOUS
 10
-2.9982486499999981
 20
23.0
 30
0.0
 11
0.0
 21
23.0
 31
0.0
  0
LINE
  5
A93
  8
240
  6
CONTINUOUS
 10
-2.9982486499999981
 20
23.0
 30
0.0
 11
-5.884999999999998
 21
28.0
 31
0.0
  0
ARC
  5
A95
  8
240
  6
CONTINUOUS
 10
17.0
 20
37.0
 30
0.0
 40
5.0
 50
180.0
 51
270.0
  0
LINE
  5
A96
  8
240
  6
CONTINUOUS
 10
12.0
 20
45.0
 30
0.0
 11
0.0
 21
45.0
 31
0.0
  0
LINE
  5
A99
  8
243
  6
HIDDEN2
 10
64.0
 20
18.0
 30
0.0
 11
106.0
 21
18.0
 31
0.0
  0
LINE
  5
A9A
  8
245
  6
CENTER2
 10
90.0
 20
7.0
 30
0.0
 11
90.0
 21
-7.0
 31
0.0
1001
GRPNAME
1000
PASTMD1R
  0
CIRCLE
  5
A9D
  8
241
  6
CONTINUOUS
 10
90.0
 20
0.0
 30
0.0
 40
6.0
  0
CIRCLE
  5
A9E
  8
242
  6
CONTINUOUS
 10
90.0
 20
0.0
 30
0.0
 40
5.5
  0
TEXT
  5
AA2
  8
250
  6
CONTINUOUS
 10
116.2057042699999982
 20
60.6802041400000007
 30
0.0
 40
2.799999999999998
  1
CK6
  7
YOKO
1001
ITEMNAME
1000
LNSP3
1001
ACAD
1000
MTEXTBEGIN
1070
    73
1070
     1
1070
    44
1040
1.0
1070
    74
1070
     0
1000
MTEXTEND
  0
LINE
  5
AA5
  8
250
  6
CONTINUOUS
 10
0.0
 20
45.4999999999999929
 30
0.0
 11
0.0
 21
57.0
 31
0.0
  0
LINE
  5
AA6
  8
250
  6
CONTINUOUS
 10
106.0
 20
32.5
 30
0.0
 11
106.0
 21
57.0
 31
0.0
  0
LINE
  5
AA7
  8
250
  6
CONTINUOUS
 10
2.2299999999999991
 20
56.0
 30
0.0
 11
103.769999999999996
 21
56.0
 31
0.0
  0
LINE
  5
AAB
  8
250
  6
CONTINUOUS
 10
106.5
 20
-32.0
 30
0.0
 11
122.0
 21
-32.0
 31
0.0
  0
LINE
  5
AAC
  8
250
  6
CONTINUOUS
 10
106.5
 20
32.0
 30
0.0
 11
122.0
 21
32.0
 31
0.0
  0
LINE
  5
AAD
  8
250
  6
CONTINUOUS
 10
121.0
 20
-29.7699999999999996
 30
0.0
 11
121.0
 21
29.7699999999999996
 31
0.0
  0
TEXT
  5
AB1
  8
250
  6
CONTINUOUS
 10
-47.3843323199999986
 20
-34.1846389800000097
 30
0.0
 40
2.799999999999998
  1
CK7
  7
YOKO
1001
ITEMNAME
1000
LNSP3
1001
ACAD
1000
MTEXTBEGIN
1070
    73
1070
     1
1070
    44
1040
1.0
1070
    74
1070
     0
1000
MTEXTEND
1000
MTEXTBEGIN
1070
    73
1070
     1
1070
    44
1040
1.0
1070
    74
1070
     0
1000
MTEXTEND
  0
LINE
  5
AB4
  8
241
  6
CONTINUOUS
 10
87.0
 20
-1.7320508100000001
 30
0.0
 11
90.0
 21
-3.4641016200000001
 31
0.0
  0
LINE
  5
AB5
  8
241
  6
CONTINUOUS
 10
90.0
 20
-3.4641016200000001
 30
0.0
 11
93.0
 21
-1.7320508100000001
 31
0.0
  0
LINE
  5
AB6
  8
241
  6
CONTINUOUS
 10
93.0
 20
-1.7320508100000001
 30
0.0
 11
93.0
 21
1.7320508100000001
 31
0.0
  0
LINE
  5
AB7
  8
241
  6
CONTINUOUS
 10
93.0
 20
1.7320508100000001
 30
0.0
 11
90.0
 21
3.4641016200000001
 31
0.0
  0
LINE
  5
AB8
  8
241
  6
CONTINUOUS
 10
90.0
 20
3.4641016200000001
 30
0.0
 11
87.0
 21
1.7320508100000001
 31
0.0
  0
LINE
  5
AB9
  8
241
  6
CONTINUOUS
 10
87.0
 20
1.7320508100000001
 30
0.0
 11
87.0
 21
-1.7320508100000001
 31
0.0
  0
LINE
  5
ABA
  8
250
  6
CONTINUOUS
 10
98.4967285199239342
 20
33.9312366504831999
 30
0.0
 11
113.3629018299999984
 21
59.6802041400000007
 31
0.0
1001
ACAD
1000
DSTYLE
1002
{
1070
     6
1000
OPEN
1002
}
  0
LINE
  5
ABB
  8
250
  6
CONTINUOUS
 10
98.8186013014419729
 20
33.7454033134458626
 30
0.0
 11
97.3817285199999958
 21
32.0
 31
0.0
  0
LINE
  5
ABC
  8
250
  6
CONTINUOUS
 10
98.174855738405995
 20
34.117069987520523
 30
0.0
 11
97.3817285199999958
 21
32.0
 31
0.0
  0
LINE
  5
ABD
  8
250
  6
CONTINUOUS
 10
97.3817285199999958
 20
32.0
 30
0.0
 11
98.4967285199239342
 21
33.9312366504831999
 31
0.0
  0
TEXT
  5
ABE
  8
250
  6
CONTINUOUS
 10
48.7999999999999901
 20
57.0
 30
0.0
 40
2.799999999999998
  1
106
1001
ACAD
1000
MTEXTBEGIN
1070
    73
1070
     1
1070
    44
1040
1.0
1070
    74
1070
     0
1000
MTEXTEND
  0
LINE
  5
ABF
  8
250
  6
CONTINUOUS
 10
103.769999999999996
 20
56.3716666740999912
 30
0.0
 11
106.0
 21
56.0
 31
0.0
  0
LINE
  5
AC0
  8
250
  6
CONTINUOUS
 10
103.769999999999996
 20
55.6283333259000017
 30
0.0
 11
106.0
 21
56.0
 31
0.0
  0
LINE
  5
AC1
  8
250
  6
CONTINUOUS
 10
106.0
 20
56.0
 30
0.0
 11
103.769999999999996
 21
56.0
 31
0.0
  0
LINE
  5
AC2
  8
250
  6
CONTINUOUS
 10
2.2299999999999991
 20
55.6283333259000017
 30
0.0
 11
0.0
 21
56.0
 31
0.0
  0
LINE
  5
AC3
  8
250
  6
CONTINUOUS
 10
2.2299999999999991
 20
56.3716666740999912
 30
0.0
 11
0.0
 21
56.0
 31
0.0
  0
LINE
  5
AC4
  8
250
  6
CONTINUOUS
 10
0.0
 20
56.0
 30
0.0
 11
2.2299999999999991
 21
56.0
 31
0.0
  0
TEXT
  5
AC5
  8
250
  6
CONTINUOUS
 10
120.0
 20
-3.9999999999999991
 30
0.0
 40
2.799999999999998
  1
\U+220564
 50
90.0
1001
ACAD
1000
MTEXTBEGIN
1070
    73
1070
     1
1070
    44
1040
1.0
1070
    74
1070
     0
1000
MTEXTEND
  0
LINE
  5
AC6
  8
250
  6
CONTINUOUS
 10
120.6283333259000017
 20
29.7699999999999996
 30
0.0
 11
121.0
 21
32.0
 31
0.0
  0
LINE
  5
AC7
  8
250
  6
CONTINUOUS
 10
121.3716666740999983
 20
29.7699999999999996
 30
0.0
 11
121.0
 21
32.0
 31
0.0
  0
LINE
  5
AC8
  8
250
  6
CONTINUOUS
 10
121.0
 20
32.0
 30
0.0
 11
121.0
 21
29.7699999999999996
 31
0.0
  0
LINE
  5
AC9
  8
250
  6
CONTINUOUS
 10
121.3716666740999983
 20
-29.7699999999999996
 30
0.0
 11
121.0
 21
-32.0
 31
0.0
  0
LINE
  5
ACA
  8
250
  6
CONTINUOUS
 10
120.6283333259000017
 20
-29.7699999999999996
 30
0.0
 11
121.0
 21
-32.0
 31
0.0
  0
LINE
  5
ACB
  8
250
  6
CONTINUOUS
 10
121.0
 20
-32.0
 30
0.0
 11
121.0
 21
-29.7699999999999996
 31
0.0
  0
LINE
  5
ACC
  8
250
  6
CONTINUOUS
 10
-30.7978610605846903
 20
-24.9312366501017308
 30
0.0
 11
-36.7176656600000015
 21
-35.1846389800000097
 31
0.0
1001
ACAD
1000
DSTYLE
1002
{
1070
     6
1000
OPEN
1070
   343
1005
594
1002
}
  0
LINE
  5
ACD
  8
250
  6
CONTINUOUS
 10
-31.1197338420390999
 20
-24.7454033129542914
 30
0.0
 11
-29.6828610600000005
 21
-23.0
 31
0.0
  0
LINE
  5
ACE
  8
250
  6
CONTINUOUS
 10
-30.4759882791302807
 20
-25.1170699872491809
 30
0.0
 11
-29.6828610600000005
 21
-23.0
 31
0.0
  0
LINE
  5
ACF
  8
250
  6
CONTINUOUS
 10
-29.6828610600000005
 20
-23.0
 30
0.0
 11
-30.7978610605846903
 21
-24.9312366501017308
 31
0.0
  0
LINE
  5
AD3
  8
243
  6
HIDDEN2
 10
64.0
 20
-18.0
 30
0.0
 11
106.0
 21
-18.0
 31
0.0
  0
LINE
  5
B36
  8
247
  6
CONTINUOUS
 10
7.9999999999995071
 20
-34.2500000000703935
 30
0.0
 11
7.9999999999995079
 21
-27.5576923080303899
 31
0.0
  0
ARC
  5
B37
  8
247
  6
CONTINUOUS
 10
6.2500000000695071
 20
-34.2500000000703935
 30
0.0
 40
1.7499999999299991
 50
180.0
 51
0.0
  0
ARC
  5
B38
  8
247
  6
CONTINUOUS
 10
6.2500000000695071
 20
-27.5576923080303899
 30
0.0
 40
1.7499999999299991
 50
0.0
 51
180.0
  0
LINE
  5
B39
  8
247
  6
CONTINUOUS
 10
4.5000000001395071
 20
-33.3846153847203908
 30
0.0
 11
7.5000000000195071
 21
-34.2448515419623973
 31
0.0
  0
LINE
  5
B3A
  8
247
  6
CONTINUOUS
 10
5.9230769231595071
 20
-32.4849838183362181
 30
0.0
 11
5.9230769231595071
 21
-33.7926761259762074
 31
0.0
  0
ARC
  5
B3B
  8
247
  6
CONTINUOUS
 10
5.0495986677024831
 20
-32.145143816090183
 30
0.0
 40
0.5538165441895349
 50
72.9978896752915887
 51
172.9241662185123118
  0
ARC
  5
B3C
  8
247
  6
CONTINUOUS
 10
4.936033044465284
 20
-32.5668783230291794
 30
0.0
 40
0.9904354236226808
 50
4.7429368522014004
 51
73.8492262732676181
1001
GENIUS_GENOBJ-N-FIL_13
1002
{
1000
OWNER
1000
GEN
1002
}
1001
GENIUS_GENODEF_13
1002
{
1000
HIER
1070
     0
1002
}
1002
{
1000
MANEDIT
1070
     0
1002
}
1002
{
1000
NOSEL
1070
     0
1002
}
1002
{
1000
BEHIND
1070
     0
1002
}
1002
{
1000
OTHER
1070
     0
1002
}
1002
{
1000
REACTOR
1002
}
  0
LINE
  5
B3D
  8
247
  6
CONTINUOUS
 10
7.5000000000195071
 20
-32.9371592343224009
 30
0.0
 11
7.5000000000195071
 21
-34.2448515419623973
 31
0.0
  0
LINE
  5
B3E
  8
247
  6
CONTINUOUS
 10
4.5000000001395071
 20
-33.3846153847203908
 30
0.0
 11
4.5000000001395106
 21
-32.0769230770804015
 31
0.0
  0
ARC
  5
B3F
  8
247
  6
CONTINUOUS
 10
6.4820242326650641
 20
-32.5609196365473608
 30
0.0
 40
0.5640818586791229
 50
65.9909416525305232
 51
172.2634434590694923
  0
ARC
  5
B40
  8
247
  6
CONTINUOUS
 10
6.4874290391861011
 20
-33.038262685347469
 30
0.0
 40
1.0176059446230981
 50
5.701985164258133
 51
77.2773384368209122
1001
GENIUS_GENOBJ-N-FIL_13
1002
{
1000
OWNER
1000
GEN
1002
}
1001
GENIUS_GENODEF_13
1002
{
1000
HIER
1070
     0
1002
}
1002
{
1000
MANEDIT
1070
     0
1002
}
1002
{
1000
NOSEL
1070
     0
1002
}
1002
{
1000
BEHIND
1070
     0
1002
}
1002
{
1000
OTHER
1070
     0
1002
}
1002
{
1000
REACTOR
1002
}
  0
LINE
  5
B41
  8
247
  6
CONTINUOUS
 10
7.5000000000195071
 20
-31.2833130805423991
 30
0.0
 11
4.5000000001395106
 21
-30.4230769233003997
 31
0.0
  0
LINE
  5
B42
  8
247
  6
CONTINUOUS
 10
4.5000000001395106
 20
-28.0000000003203908
 30
0.0
 11
4.5000000001395106
 21
-28.5657366194569917
 31
0.0
  0
LINE
  5
B43
  8
247
  6
CONTINUOUS
 10
7.5000000000195071
 20
-29.4615384618003908
 30
0.0
 11
7.5000000000195071
 21
-28.8461538464403908
 31
0.0
  0
ARC
  5
B44
  8
247
  6
CONTINUOUS
 10
6.5832851359728943
 20
-27.7087912091232518
 30
0.0
 40
2.2526500823422122
 50
202.3594881415266968
 51
254.9932485428466009
  0
ARC
  5
B45
  8
247
  6
CONTINUOUS
 10
5.3083126551940252
 20
-28.3740694792136203
 30
0.0
 40
0.8906723995727782
 50
94.9945893190751036
 51
155.1663289573035911
1001
GENIUS_GENOBJ-N-FIL_13
1002
{
1000
OWNER
1000
GEN
1002
}
1001
GENIUS_GENODEF_13
1002
{
1000
HIER
1070
     0
1002
}
1002
{
1000
MANEDIT
1070
     0
1002
}
1002
{
1000
NOSEL
1070
     0
1002
}
1002
{
1000
BEHIND
1070
     0
1002
}
1002
{
1000
OTHER
1070
     0
1002
}
1002
{
1000
REACTOR
1002
}
  0
ARC
  5
B46
  8
247
  6
CONTINUOUS
 10
6.1601458886672651
 20
-29.2264588862129813
 30
0.0
 40
1.392781735586712
 50
15.84609655577942
 51
82.325137004170557
  0
ARC
  5
B47
  8
247
  6
CONTINUOUS
 10
6.4592434315267964
 20
-28.6422127258407713
 30
0.0
 40
1.324563662670287
 50
249.7136016704980079
 51
321.7887456564075137
1001
GENIUS_GENOBJ-N-FIL_13
1002
{
1000
OWNER
1000
GEN
1002
}
1001
GENIUS_GENODEF_13
1002
{
1000
HIER
1070
     0
1002
}
1002
{
1000
MANEDIT
1070
     0
1002
}
1002
{
1000
NOSEL
1070
     0
1002
}
1002
{
1000
BEHIND
1070
     0
1002
}
1002
{
1000
OTHER
1070
     0
1002
}
1002
{
1000
REACTOR
1002
}
  0
LINE
  5
B48
  8
247
  6
CONTINUOUS
 10
6.3461538462195106
 20
-28.5384615387603908
 30
0.0
 11
6.3461538462195106
 21
-27.8461538464803908
 31
0.0
  0
LINE
  5
B49
  8
247
  6
CONTINUOUS
 10
4.5000000001395106
 20
-34.2500000000703935
 30
0.0
 11
4.5000000001395106
 21
-33.576923077020389
 31
0.0
  0
VIEWPORT
  5
22
 67
     1
  8
0
 10
261.5176991199999748
 20
148.5
 30
0.0
 40
523.0353982300000553
 41
297.0
 68
     1
 69
     1
1001
ACAD
1000
MVIEW
1002
{
1070
    16
1010
0.0
1020
0.0
1030
0.0
1010
0.0
1020
0.0
1030
1.0
1040
0.0
1040
297.0
1040
261.5176991199999748
1040
148.5
1040
50.0
1040
0.0
1040
0.0
1070
     0
1070
   100
1070
     1
1070
     1
1070
     0
1070
     0
1070
     0
1070
     0
1040
0.0
1040
0.0
1040
0.0
1040
1.0
1040
1.0
1040
10.0
1040
10.0
1070
     0
1002
{
1002
}
1002
}
1001
GENIUS_GENOBJ-N-SDF_13
1002
{
1000
OWNER
1000
GEN
1002
}
1001
GENIUS_GENODEF_13
1002
{
1000
HIER
1070
     0
1002
}
1002
{
1000
MANEDIT
1070
     0
1002
}
1002
{
1000
NOSEL
1070
     0
1002
}
1002
{
1000
BEHIND
1070
     0
1002
}
1002
{
1000
OTHER
1070
     0
1002
}
1002
{
1000
REACTOR
1002
}
1001
GENIUS_GENSCREG_15
1000
PF
1040
1.0
1000
DF
1040
1.0
1000
MIN
1011
0.0000000049999471
1021
0.0
1031
0.0
1021
0.0
1031
0.0
1000
MAX
1011
523.0353982350000024
1021
0.0
1031
0.0
1021
297.0
1031
0.0
1000
FLAGS
1070
     4
  0
ENDSEC
  0
EOF
