  0
SECTION
  2
HEADER
  9
$ACADVER
  1
AC1009
  9
$INSBASE
 10
0.0
 20
0.0
 30
0.0
  9
$EXTMIN
 10
-51.0
 20
-45.0
 30
0.0
  9
$EXTMAX
 10
80.167969200000002
 20
75.000000000000014
 30
0.0
  9
$LIMMIN
 10
0.0
 20
0.0
  9
$LIMMAX
 10
297.0
 20
210.0
  9
$ORTHOMODE
 70
     0
  9
$REGENMODE
 70
     1
  9
$FILLMODE
 70
     1
  9
$QTEXTMODE
 70
     0
  9
$MIRRTEXT
 70
     1
  9
$DRAGMODE
 70
     2
  9
$LTSCALE
 40
10.0
  9
$OSMODE
 70
    39
  9
$ATTMODE
 70
     1
  9
$TEXTSIZE
 40
3.0
  9
$TRACEWID
 40
1.0
  9
$TEXTSTYLE
  7
YOKO
  9
$CLAYER
  8
240
  9
$CELTYPE
  6
BYLAYER
  9
$CECOLOR
 62
   256
  9
$DIMSCALE
 40
1.0
  9
$DIMASZ
 40
2.2299999999999991
  9
$DIMEXO
 40
0.5
  9
$DIMDLI
 40
7.0
  9
$DIMRND
 40
0.0
  9
$DIMDLE
 40
0.0
  9
$DIMEXE
 40
1.0
  9
$DIMTP
 40
0.0
  9
$DIMTM
 40
0.01
  9
$DIMTXT
 40
2.7999999999999989
  9
$DIMCEN
 40
0.0
  9
$DIMTSZ
 40
0.0
  9
$DIMTOL
 70
     0
  9
$DIMLIM
 70
     0
  9
$DIMTIH
 70
     0
  9
$DIMTOH
 70
     0
  9
$DIMSE1
 70
     0
  9
$DIMSE2
 70
     0
  9
$DIMTAD
 70
     3
  9
$DIMZIN
 70
     9
  9
$DIMBLK
  1
OPEN
  9
$DIMASO
 70
     1
  9
$DIMSHO
 70
     1
  9
$DIMPOST
  1

  9
$DIMAPOST
  1

  9
$DIMALT
 70
     0
  9
$DIMALTD
 70
     2
  9
$DIMALTF
 40
25.399999999999999
  9
$DIMLFAC
 40
1.0
  9
$DIMTOFL
 70
     1
  9
$DIMTVP
 40
0.0
  9
$DIMTIX
 70
     1
  9
$DIMSOXD
 70
     0
  9
$DIMSAH
 70
     0
  9
$DIMBLK1
  1

  9
$DIMBLK2
  1

  9
$DIMSTYLE
  2
BIGT
  9
$DIMCLRD
 70
   256
  9
$DIMCLRE
 70
   256
  9
$DIMCLRT
 70
    40
  9
$DIMTFAC
 40
1.0
  9
$DIMGAP
 40
1.0
  9
$LUNITS
 70
     2
  9
$LUPREC
 70
     6
  9
$SKETCHINC
 40
1.0
  9
$FILLETRAD
 40
5.0
  9
$AUNITS
 70
     0
  9
$AUPREC
 70
     6
  9
$MENU
  1
.
  9
$ELEVATION
 40
0.0
  9
$PELEVATION
 40
0.0
  9
$THICKNESS
 40
0.0
  9
$LIMCHECK
 70
     0
  9
$BLIPMODE
 70
     0
  9
$CHAMFERA
 40
0.2
  9
$CHAMFERB
 40
0.2
  9
$SKPOLY
 70
     0
  9
$TDCREATE
 40
2460006.4060613308
  9
$TDUPDATE
 40
2460006.4176719328
  9
$TDINDWG
 40
0.0051367245
  9
$TDUSRTIMER
 40
0.0051366435
  9
$USRTIMER
 70
     1
  9
$ANGBASE
 50
0.0
  9
$ANGDIR
 70
     0
  9
$PDMODE
 70
     1
  9
$PDSIZE
 40
0.0
  9
$PLINEWID
 40
0.0
  9
$COORDS
 70
     1
  9
$SPLFRAME
 70
     0
  9
$SPLINETYPE
 70
     6
  9
$SPLINESEGS
 70
     4
  9
$ATTDIA
 70
     1
  9
$ATTREQ
 70
     1
  9
$HANDLING
 70
     1
  9
$HANDSEED
  5
451D
  9
$SURFTAB1
 70
     6
  9
$SURFTAB2
 70
     6
  9
$SURFTYPE
 70
     6
  9
$SURFU
 70
     6
  9
$SURFV
 70
     6
  9
$UCSNAME
  2

  9
$UCSORG
 10
0.0
 20
0.0
 30
0.0
  9
$UCSXDIR
 10
1.0
 20
0.0
 30
0.0
  9
$UCSYDIR
 10
0.0
 20
1.0
 30
0.0
  9
$PUCSNAME
  2

  9
$PUCSORG
 10
0.0
 20
0.0
 30
0.0
  9
$PUCSXDIR
 10
1.0
 20
0.0
 30
0.0
  9
$PUCSYDIR
 10
0.0
 20
1.0
 30
0.0
  9
$USERI1
 70
     1
  9
$USERI2
 70
     0
  9
$USERI3
 70
     0
  9
$USERI4
 70
     0
  9
$USERI5
 70
     0
  9
$USERR1
 40
0.0
  9
$USERR2
 40
0.0
  9
$USERR3
 40
0.0
  9
$USERR4
 40
0.0
  9
$USERR5
 40
0.0
  9
$WORLDVIEW
 70
     1
  9
$SHADEDGE
 70
     3
  9
$SHADEDIF
 70
    70
  9
$TILEMODE
 70
     1
  9
$MAXACTVP
 70
    16
  9
$PLIMCHECK
 70
     0
  9
$PEXTMIN
 10
1.0000000000000000E+020
 20
1.0000000000000000E+020
 30
1.0000000000000000E+020
  9
$PEXTMAX
 10
-1.0000000000000000E+020
 20
-1.0000000000000000E+020
 30
-1.0000000000000000E+020
  9
$PLIMMIN
 10
0.0
 20
0.0
  9
$PLIMMAX
 10
420.0
 20
297.0
  9
$UNITMODE
 70
     0
  9
$VISRETAIN
 70
     1
  9
$PLINEGEN
 70
     0
  9
$PSLTSCALE
 70
     1
  0
ENDSEC
  0
SECTION
  2
TABLES
  0
TABLE
  2
VPORT
 70
     1
  0
VPORT
  2
*ACTIVE
 70
     0
 10
0.0
 20
0.0
 11
1.0
 21
1.0
 12
23.020827272598751
 22
9.2037729284545691
 13
0.0
 23
0.0
 14
7.0
 24
7.0
 15
7.0
 25
7.0
 16
0.0
 26
0.0
 36
1.0
 17
0.0
 27
0.0
 37
0.0
 40
159.5085835480314
 41
1.5556900726392251
 42
50.0
 43
0.0
 44
0.0
 50
0.0
 51
0.0
 71
     0
 72
  2000
 73
     1
 74
     0
 75
     0
 76
     1
 77
     0
 78
     0
  0
ENDTAB
  0
TABLE
  2
LTYPE
 70
    16
  0
LTYPE
  2
CONTINUOUS
 70
     0
  3
Solid line
 72
    65
 73
     0
 40
0.0
  0
LTYPE
  2
CENTER2
 70
     0
  3
___ _ ___ _ ___ _ ___ _ ___ _ ___ _ ___ _ ___ _
 72
    65
 73
     4
 40
1.125
 49
0.75
 49
-0.125
 49
0.125
 49
-0.125
  0
LTYPE
  2
HIDDEN2
 70
     0
  3
_ _ _ _ _ _ _ _ _ _ _ _ _ _ _ _ _ _ _ _ _ _ _ _
 72
    65
 73
     2
 40
0.1875
 49
0.125
 49
-0.0625
  0
LTYPE
  2
PHANTOM2
 70
     0
  3
___ _ _ ___ _ _ ___ _ _ ___ _ _ ___ _ _ ___ _ _
 72
    65
 73
     6
 40
1.25
 49
0.625
 49
-0.125
 49
0.125
 49
-0.125
 49
0.125
 49
-0.125
  0
LTYPE
  2
AM_ISO02W050
 70
     0
  3
__ __ __ __ __ __ __ __ __ __ __ __ __ __ __
 72
    65
 73
     2
 40
7.5
 49
6.0
 49
-1.5
  0
LTYPE
  2
AMCONSTR
 70
     0
  3
_______________________
 72
    65
 73
     2
 40
9999.0
 49
9999.0
 49
0.0
  0
LTYPE
  2
ACISOWELD
 70
     0
  3
_ _ _ _ _
 72
    65
 73
     2
 40
2.0
 49
2.0
 49
-1.0
  0
LTYPE
  2
ACISOTGB
 70
     0
  3
__ . . __ . .
 72
    65
 73
     6
 40
9.0
 49
4.0
 49
-1.0
 49
1.0
 49
-1.0
 49
1.0
 49
-1.0
  0
LTYPE
  2
ACISOTGL
 70
     0
  3
_ _ _ _ _
 72
    65
 73
     2
 40
3.0
 49
2.0
 49
-1.0
  0
LTYPE
  2
ACJISTGB
 70
     0
  3
__ . . __ . .
 72
    65
 73
     6
 40
9.0
 49
4.0
 49
-1.0
 49
1.0
 49
-1.0
 49
1.0
 49
-1.0
  0
LTYPE
  2
ACJISTGL
 70
     0
  3
_ _ _ _ _
 72
    65
 73
     2
 40
3.0
 49
2.0
 49
-1.0
  0
ENDTAB
  0
TABLE
  2
LAYER
 70
     9
  0
LAYER
  2
0
 70
     0
 62
     7
  6
CONTINUOUS
  0
LAYER
  2
DEFPOINTS
 70
     0
 62
     7
  6
CONTINUOUS
  0
LAYER
  2
245
 70
     0
 62
     2
  6
CENTER2
  0
LAYER
  2
240
 70
     0
 62
     4
  6
CONTINUOUS
  0
LAYER
  2
241
 70
     0
 62
   211
  6
CONTINUOUS
  0
LAYER
  2
242
 70
     0
 62
     3
  6
CONTINUOUS
  0
LAYER
  2
243
 70
     0
 62
   211
  6
HIDDEN2
  0
LAYER
  2
247
 70
     0
 62
    60
  6
CONTINUOUS
  0
LAYER
  2
250
 70
     0
 62
     3
  6
CONTINUOUS
  0
ENDTAB
  0
TABLE
  2
STYLE
 70
     7
  0
STYLE
  2
STANDARD
 70
     0
 40
0.0
 41
1.0
 50
0.0
 71
     0
 42
3.0
  3
romans.shx
  4
extfont.shx
  0
STYLE
  2
ACISOTS
 70
     0
 40
1.0
 41
1.0
 50
0.0
 71
     0
 42
3.0
  3
amgdt.shx
  4
extfont.shx
  0
STYLE
  2
ACISOGDT
 70
     0
 40
0.0
 41
1.0
 50
0.0
 71
     0
 42
3.0
  3
amgdt.shx
  4
extfont.shx
  0
STYLE
  2
ACJISTS
 70
     0
 40
1.0
 41
1.0
 50
0.0
 71
     0
 42
3.0
  3
amgdt.shx
  4
extfont.shx
  0
STYLE
  2
ACJISGDT
 70
     0
 40
0.0
 41
1.0
 50
0.0
 71
     0
 42
3.0
  3
amgdt.shx
  4
extfont.shx
  0
STYLE
  2
YOKO
 70
     0
 40
0.0
 41
1.0
 50
0.0
 71
     0
 42
3.0
  3
romans.shx
  4
extfont.shx
  0
ENDTAB
  0
TABLE
  2
VIEW
 70
     0
  0
ENDTAB
  0
TABLE
  2
UCS
 70
     0
  0
ENDTAB
  0
TABLE
  2
APPID
 70
    36
  0
APPID
  2
ACAD
 70
     0
  0
APPID
  2
GLOBAL
 70
     0
  0
APPID
  2
DETAIL
 70
     0
  0
APPID
  2
GRPNAME
 70
     0
  0
APPID
  2
GPARA
 70
     0
  0
APPID
  2
MCAD_NO_VIS
 70
     0
  0
APPID
  2
ACAD_TEMP_GRAPHIC
 70
     0
  0
APPID
  2
ACATTRIBSERVICES
 70
     0
  0
APPID
  2
GENIUS_GENSCREG_15
 70
     0
  0
APPID
  2
GENIUS_GENODEF_13
 70
     0
  0
APPID
  2
GENIUS_GENOBJ-N-SDF_13
 70
     0
  0
APPID
  2
GENIUS_GENREC_14
 70
     0
  0
APPID
  2
GENIUS_GENOBJ-N-REC_13
 70
     0
  0
APPID
  2
GENIUS_GENDIMSH_14
 70
     0
  0
APPID
  2
GENIUS_GENOBJ-N-DIM_13
 70
     0
  0
APPID
  2
GENIUS_GENDIM_13
 70
     0
  0
APPID
  2
GENIUS_GENDTOL_13
 70
     0
  0
APPID
  2
GENIUS_GENOLIS_13
 70
     0
  0
APPID
  2
GENIUS_GENOENT_13
 70
     0
  0
APPID
  2
GENIUS_GENOBJ-F-FEM_13
 70
     0
  0
APPID
  2
GENIUS_GENOREF_13
 70
     0
  0
APPID
  2
GENIUS_GEFFEM_13
 70
     0
  0
APPID
  2
GENIUS_GEFFEMP_13
 70
     0
  0
APPID
  2
AD_DRAW
 70
     0
  0
APPID
  2
DESIGNERASSEMBLIES
 70
     0
  0
APPID
  2
ACADM_DIM_EDIT
 70
     0
  0
APPID
  2
AMDT_DM_ADJ
 70
     0
  0
APPID
  2
ITEMNAME
 70
     0
  0
APPID
  2
GENIUS_GENOBJ-N-FIL_13
 70
     0
  0
APPID
  2
GENIUS_GENFIL_13
 70
     0
  0
APPID
  2
GENIUS_GENOBJ-N-CHA_13
 70
     0
  0
APPID
  2
ACAD_NAV_VCDISPLAY
 70
     0
  0
APPID
  2
ACAECLAYERSTANDARD
 70
     0
  0
APPID
  2
ACAD_EXEMPT_FROM_CAD_STANDARDS
 70
     0
  0
APPID
  2
ACAD_DSTYLE_DIMINSPECT
 70
     0
  0
APPID
  2
ACAD_MLEADERVER
 70
     0
  0
ENDTAB
  0
TABLE
  2
DIMSTYLE
 70
    29
  0
DIMSTYLE
  2
BIGT
 70
     0
  3

  4

  5
OPEN
  6

  7

 40
1.0
 41
2.2299999999999991
 42
0.5
 43
7.0
 44
1.0
 45
0.0
 46
0.0
 47
0.0
 48
0.01
140
2.7999999999999989
141
0.0
142
0.0
143
25.399999999999999
144
1.0
145
0.0
146
1.0
147
1.0
 71
     0
 72
     0
 73
     0
 74
     0
 75
     0
 76
     0
 77
     3
 78
     9
170
     0
171
     2
172
     1
173
     0
174
     1
175
     0
176
   256
177
   256
178
    40
  0
DIMSTYLE
  2
AM_ISO
 70
     0
  3

  4
"
  5

  6

  7

 40
1.0
 41
2.5
 42
1.0
 43
10.0
 44
1.0
 45
0.0
 46
0.0
 47
0.1
 48
0.1
140
3.5
141
0.0
142
0.0
143
0.0393701
144
1.0
145
0.0
146
0.71
147
1.5
 71
     0
 72
     0
 73
     0
 74
     0
 75
     0
 76
     0
 77
     1
 78
     8
170
     0
171
     2
172
     1
173
     0
174
     0
175
     0
176
   256
177
   256
178
     2
  0
DIMSTYLE
  2
AM_ISO$3
 70
     0
  3

  4
"
  5

  6

  7

 40
1.0
 41
2.5
 42
1.0
 43
10.0
 44
1.0
 45
0.0
 46
0.0
 47
0.1
 48
0.1
140
3.5
141
0.0
142
0.0
143
0.0393701
144
1.0
145
0.0
146
0.71
147
1.5
 71
     0
 72
     0
 73
     0
 74
     1
 75
     0
 76
     0
 77
     1
 78
     8
170
     0
171
     2
172
     0
173
     0
174
     0
175
     0
176
   256
177
   256
178
     2
  0
DIMSTYLE
  2
AM_ISO$4
 70
     0
  3

  4
"
  5

  6

  7

 40
1.0
 41
2.5
 42
1.0
 43
10.0
 44
1.0
 45
0.0
 46
0.0
 47
0.1
 48
0.1
140
3.5
141
0.0
142
0.0
143
0.0393701
144
1.0
145
0.0
146
0.71
147
1.5
 71
     0
 72
     0
 73
     0
 74
     1
 75
     0
 76
     0
 77
     1
 78
     8
170
     0
171
     2
172
     0
173
     0
174
     0
175
     0
176
   256
177
   256
178
     2
  0
DIMSTYLE
  2
AM_ISO$6
 70
     0
  3

  4
"
  5

  6

  7

 40
1.0
 41
2.5
 42
1.0
 43
10.0
 44
1.0
 45
0.0
 46
0.0
 47
0.1
 48
0.1
140
3.5
141
0.0
142
0.0
143
0.0393701
144
1.0
145
0.0
146
0.71
147
1.5
 71
     0
 72
     0
 73
     0
 74
     0
 75
     0
 76
     0
 77
     0
 78
     8
170
     0
171
     2
172
     1
173
     0
174
     0
175
     0
176
   256
177
   256
178
     2
  0
DIMSTYLE
  2
AM_ISO$7
 70
     0
  3

  4
"
  5

  6

  7

 40
1.0
 41
2.5
 42
1.0
 43
10.0
 44
1.0
 45
0.0
 46
0.0
 47
0.1
 48
0.1
140
5.0
141
0.0
142
0.0
143
0.0393701
144
1.0
145
0.0
146
0.71
147
1.5
 71
     0
 72
     0
 73
     0
 74
     0
 75
     0
 76
     0
 77
     1
 78
     8
170
     0
171
     2
172
     1
173
     0
174
     0
175
     0
176
   256
177
   256
178
     2
  0
DIMSTYLE
  2
AM_ISO$SF
 70
     0
  3

  4
"
  5

  6

  7

 40
1.0
 41
2.5
 42
1.0
 43
10.0
 44
1.0
 45
0.0
 46
0.0
 47
0.1
 48
0.1
140
3.5
141
0.0
142
0.0
143
0.0393701
144
1.0
145
0.0
146
0.71
147
1.5
 71
     0
 72
     0
 73
     0
 74
     0
 75
     1
 76
     1
 77
     1
 78
     8
170
     0
171
     2
172
     1
173
     0
174
     0
175
     0
176
   256
177
   256
178
     2
  0
DIMSTYLE
  2
AM_ISO$SH
 70
     0
  3

  4
"
  5

  6
GENAXEH
  7

 40
1.0
 41
2.5
 42
1.0
 43
10.0
 44
1.0
 45
0.0
 46
0.0
 47
0.1
 48
0.1
140
3.5
141
0.0
142
0.0
143
0.0393701
144
2.0
145
0.0
146
0.71
147
1.5
 71
     0
 72
     0
 73
     0
 74
     0
 75
     1
 76
     1
 77
     1
 78
     8
170
     0
171
     2
172
     1
173
     1
174
     0
175
     0
176
   256
177
   256
178
     2
  0
DIMSTYLE
  2
BIGT$2
 70
     0
  3

  4

  5
OPEN
  6

  7

 40
1.0
 41
2.2299999999999991
 42
0.5
 43
7.0
 44
1.0
 45
0.0
 46
0.0
 47
0.0
 48
0.01
140
2.7999999999999989
141
0.0
142
0.0
143
25.399999999999999
144
1.0
145
0.0
146
1.0
147
1.0
 71
     0
 72
     0
 73
     0
 74
     0
 75
     0
 76
     0
 77
     3
 78
     9
170
     0
171
     2
172
     1
173
     0
174
     0
175
     0
176
   256
177
   256
178
    40
  0
DIMSTYLE
  2
BIGT$3
 70
     0
  3

  4

  5
OPEN
  6

  7

 40
1.0
 41
2.2299999999999991
 42
0.5
 43
2.5
 44
1.0
 45
0.0
 46
0.0
 47
0.0
 48
0.01
140
2.7999999999999989
141
0.0
142
0.0
143
25.399999999999999
144
1.0
145
0.0
146
1.0
147
1.0
 71
     0
 72
     0
 73
     0
 74
     0
 75
     0
 76
     0
 77
     3
 78
     9
170
     0
171
     2
172
     1
173
     0
174
     0
175
     0
176
   256
177
   256
178
    40
  0
DIMSTYLE
  2
BIGT$7
 70
     0
  3

  4

  5
OPEN
  6

  7

 40
0.0
 41
2.2299999999999991
 42
0.5
 43
7.0
 44
1.0
 45
0.0
 46
0.0
 47
0.0
 48
0.01
140
2.7999999999999989
141
0.0
142
0.0
143
25.399999999999999
144
1.0
145
0.0
146
1.0
147
1.0
 71
     0
 72
     0
 73
     0
 74
     0
 75
     0
 76
     0
 77
     3
 78
     9
170
     0
171
     2
172
     0
173
     0
174
     0
175
     0
176
   256
177
   256
178
    40
  0
DIMSTYLE
  2
BIGT$6
 70
     0
  3

  4

  5
OPEN
  6

  7

 40
1.0
 41
2.2299999999999991
 42
0.5
 43
2.5
 44
1.0
 45
0.0
 46
0.0
 47
0.0
 48
0.01
140
2.7999999999999989
141
0.0
142
0.0
143
25.399999999999999
144
1.0
145
0.0
146
1.0
147
1.0
 71
     0
 72
     0
 73
     0
 74
     0
 75
     0
 76
     0
 77
     3
 78
     9
170
     0
171
     2
172
     1
173
     0
174
     0
175
     0
176
   256
177
   256
178
    40
  0
DIMSTYLE
  2
BIGT$0
 70
     0
  3

  4

  5
OPEN
  6

  7

 40
1.0
 41
2.2299999999999991
 42
0.5
 43
7.0
 44
1.0
 45
0.0
 46
0.0
 47
0.0
 48
0.01
140
2.7999999999999989
141
0.0
142
0.0
143
25.399999999999999
144
1.0
145
0.0
146
1.0
147
1.0
 71
     0
 72
     0
 73
     0
 74
     0
 75
     0
 76
     0
 77
     3
 78
     9
170
     0
171
     2
172
     1
173
     0
174
     1
175
     0
176
   256
177
   256
178
    40
  0
DIMSTYLE
  2
BIGT$4
 70
     0
  3

  4

  5
OPEN
  6

  7

 40
1.0
 41
2.2299999999999991
 42
0.5
 43
2.5
 44
1.0
 45
0.0
 46
0.0
 47
0.0
 48
0.01
140
2.7999999999999989
141
0.0
142
0.0
143
25.399999999999999
144
1.0
145
0.0
146
1.0
147
1.0
 71
     0
 72
     0
 73
     0
 74
     0
 75
     0
 76
     0
 77
     3
 78
     9
170
     0
171
     2
172
     1
173
     0
174
     0
175
     0
176
   256
177
   256
178
    40
  0
DIMSTYLE
  2
BIGT$SH
 70
     0
  3

  4

  5
OPEN
  6

  7

 40
1.0
 41
2.2299999999999991
 42
0.5
 43
7.0
 44
1.0
 45
0.0
 46
0.0
 47
0.0
 48
0.0
140
2.7999999999999989
141
0.0
142
0.0
143
25.399999999999999
144
1.0
145
0.0
146
1.0
147
1.0
 71
     0
 72
     0
 73
     0
 74
     0
 75
     0
 76
     0
 77
     3
 78
     9
170
     0
171
     2
172
     1
173
     0
174
     0
175
     0
176
   256
177
   256
178
    40
  0
DIMSTYLE
  2
BIGT$SF
 70
     0
  3

  4

  5
OPEN
  6

  7

 40
1.0
 41
2.2299999999999991
 42
0.5
 43
7.0
 44
1.0
 45
0.0
 46
0.0
 47
0.0
 48
0.0
140
2.7999999999999989
141
0.0
142
0.0
143
25.399999999999999
144
1.0
145
0.0
146
1.0
147
1.0
 71
     0
 72
     0
 73
     0
 74
     0
 75
     0
 76
     0
 77
     3
 78
     9
170
     0
171
     2
172
     1
173
     0
174
     0
175
     0
176
   256
177
   256
178
    40
  0
DIMSTYLE
  2
TECHNICAL_OSAKA
 70
     0
  3

  4
"
  5
OPEN30
  6

  7

 40
1.0
 41
2.5
 42
1.0
 43
10.0
 44
1.0
 45
0.0
 46
0.0
 47
0.1
 48
0.1
140
2.7999999999999989
141
0.0
142
0.0
143
0.0393701
144
1.0
145
0.0
146
0.71
147
1.5
 71
     0
 72
     0
 73
     0
 74
     0
 75
     0
 76
     0
 77
     3
 78
     8
170
     0
171
     2
172
     1
173
     0
174
     0
175
     0
176
   256
177
   256
178
    40
  0
DIMSTYLE
  2
TECHNICAL_OSAKA$3
 70
     0
  3

  4
"
  5
OPEN30
  6

  7

 40
1.0
 41
2.5
 42
1.0
 43
10.0
 44
1.0
 45
0.0
 46
0.0
 47
0.1
 48
0.1
140
2.7999999999999989
141
0.0
142
0.0
143
0.0393701
144
1.0
145
0.0
146
0.71
147
1.5
 71
     0
 72
     0
 73
     0
 74
     1
 75
     0
 76
     0
 77
     3
 78
     8
170
     0
171
     2
172
     0
173
     0
174
     0
175
     0
176
   256
177
   256
178
    40
  0
DIMSTYLE
  2
TECHNICAL_OSAKA$4
 70
     0
  3

  4
"
  5
OPEN30
  6

  7

 40
1.0
 41
2.5
 42
1.0
 43
10.0
 44
1.0
 45
0.0
 46
0.0
 47
0.1
 48
0.1
140
2.7999999999999989
141
0.0
142
0.0
143
0.0393701
144
1.0
145
0.0
146
0.71
147
1.5
 71
     0
 72
     0
 73
     0
 74
     1
 75
     0
 76
     0
 77
     3
 78
     8
170
     0
171
     2
172
     0
173
     0
174
     0
175
     0
176
   256
177
   256
178
    40
  0
DIMSTYLE
  2
TECHNICAL_OSAKA$6
 70
     0
  3

  4
"
  5
OPEN30
  6

  7

 40
1.0
 41
2.5
 42
1.0
 43
10.0
 44
1.0
 45
0.0
 46
0.0
 47
0.1
 48
0.1
140
2.7999999999999989
141
0.0
142
0.0
143
0.0393701
144
1.0
145
0.0
146
0.71
147
1.5
 71
     0
 72
     0
 73
     0
 74
     0
 75
     0
 76
     0
 77
     0
 78
     8
170
     0
171
     2
172
     1
173
     0
174
     0
175
     0
176
   256
177
   256
178
    40
  0
DIMSTYLE
  2
TECHNICAL_OSAKA$7
 70
     0
  3

  4
"
  5
OPEN30
  6

  7

 40
1.0
 41
2.5
 42
1.0
 43
10.0
 44
1.0
 45
0.0
 46
0.0
 47
0.1
 48
0.1
140
2.7999999999999989
141
0.0
142
0.0
143
0.0393701
144
1.0
145
0.0
146
0.71
147
1.5
 71
     0
 72
     0
 73
     0
 74
     0
 75
     0
 76
     0
 77
     3
 78
     8
170
     0
171
     2
172
     1
173
     0
174
     0
175
     0
176
   256
177
   256
178
    40
  0
DIMSTYLE
  2
TECHNICAL_OSAKA$SF
 70
     0
  3

  4
"
  5
OPEN30
  6
OPEN30
  7
OPEN30
 40
1.0
 41
2.5
 42
1.0
 43
10.0
 44
1.0
 45
0.0
 46
0.0
 47
0.1
 48
0.1
140
3.5
141
0.0
142
0.0
143
0.0393701
144
1.0
145
0.0
146
0.71
147
1.5
 71
     0
 72
     0
 73
     0
 74
     0
 75
     1
 76
     1
 77
     3
 78
     8
170
     0
171
     2
172
     1
173
     0
174
     0
175
     0
176
   256
177
   256
178
    40
  0
DIMSTYLE
  2
TECHNICAL_OSAKA$SH
 70
     0
  3

  4
"
  5
OPEN30
  6
GENAXEH
  7
OPEN30
 40
1.0
 41
2.5
 42
1.0
 43
10.0
 44
1.0
 45
0.0
 46
0.0
 47
0.1
 48
0.1
140
3.5
141
0.0
142
0.0
143
0.0393701
144
2.0
145
0.0
146
0.71
147
1.5
 71
     0
 72
     0
 73
     0
 74
     0
 75
     1
 76
     1
 77
     3
 78
     8
170
     0
171
     2
172
     1
173
     1
174
     0
175
     0
176
   256
177
   256
178
    40
  0
ENDTAB
  0
ENDSEC
  0
SECTION
  2
BLOCKS
  0
BLOCK
  8
0
  2
$MODEL_SPACE
 70
     0
 10
0.0
 20
0.0
 30
0.0
  3
$MODEL_SPACE
  1

  0
ENDBLK
  5
1C
  8
0
  0
BLOCK
 67
     1
  8
0
  2
$PAPER_SPACE
 70
     0
 10
0.0
 20
0.0
 30
0.0
  3
$PAPER_SPACE
  1

  0
ENDBLK
  5
19
 67
     1
  8
0
  0
BLOCK
  8
0
  2
_OPEN
 70
     0
 10
0.0
 20
0.0
 30
0.0
  3
_OPEN
  1

  0
LINE
  5
4424
  8
0
  6
BYBLOCK
 62
     0
 10
-1.0
 20
0.1666666666666666
 30
0.0
 11
0.0
 21
0.0
 31
0.0
  0
LINE
  5
4425
  8
0
  6
BYBLOCK
 62
     0
 10
-1.0
 20
-0.1666666666666666
 30
0.0
 11
0.0
 21
0.0
 31
0.0
  0
LINE
  5
4426
  8
0
  6
BYBLOCK
 62
     0
 10
0.0
 20
0.0
 30
0.0
 11
-1.0
 21
0.0
 31
0.0
  0
ENDBLK
  5
4427
  8
0
  0
BLOCK
  8
0
  2
GENAXEH
 70
     0
 10
0.0
 20
0.0
 30
0.0
  3
GENAXEH
  1

  0
LINE
  5
445F
  8
0
 10
-1.0
 20
0.0
 30
0.0
 11
1.0
 21
0.0
 31
0.0
  0
ENDBLK
  5
4460
  8
0
  0
BLOCK
  8
0
  2
_OPEN30
 70
     0
 10
0.0
 20
0.0
 30
0.0
  3
_OPEN30
  1

  0
LINE
  5
449B
  8
0
  6
BYBLOCK
 62
     0
 10
-1.0
 20
0.26794919
 30
0.0
 11
0.0
 21
0.0
 31
0.0
  0
LINE
  5
449C
  8
0
  6
BYBLOCK
 62
     0
 10
0.0
 20
0.0
 30
0.0
 11
-1.0
 21
-0.26794919
 31
0.0
  0
LINE
  5
449D
  8
0
  6
BYBLOCK
 62
     0
 10
0.0
 20
0.0
 30
0.0
 11
-1.0
 21
0.0
 31
0.0
  0
ENDBLK
  5
449E
  8
0
  0
ENDSEC
  0
SECTION
  2
ENTITIES
  0
LINE
  5
422D
  8
250
  6
CONTINUOUS
 10
-36.717665660000002
 20
-35.18463898000001
 30
0.0
 11
-49.784332319999997
 21
-35.18463898000001
 31
0.0
1001
ITEMNAME
1000
LNSP2
  0
TEXT
  5
422E
  8
241
  6
CONTINUOUS
 10
-50.0
 20
70.0
 30
0.0
 40
5.0
  1
CKB75-60
  7
YOKO
 11
-50.0
 21
70.0
 31
0.0
 73
     1
  0
LINE
  5
422F
  8
240
  6
CONTINUOUS
 10
-50.0
 20
-23.0
 30
0.0
 11
-21.001751349999999
 21
-23.0
 31
0.0
  0
LINE
  5
4230
  8
240
  6
CONTINUOUS
 10
-50.0
 20
23.0
 30
0.0
 11
-21.001751349999999
 21
23.0
 31
0.0
  0
LINE
  5
4231
  8
245
  6
CENTER2
 10
63.042175773780961
 20
0.0
 30
0.0
 11
-51.0
 21
0.0
 31
0.0
  0
LINE
  5
4232
  8
240
  6
CONTINUOUS
 10
-50.0
 20
-23.0
 30
0.0
 11
-50.0
 21
23.0
 31
0.0
  0
LINE
  5
4233
  8
240
  6
CONTINUOUS
 10
-2.9982486499999981
 20
-23.0
 30
0.0
 11
-5.884999999999998
 21
-28.0
 31
0.0
  0
LINE
  5
4234
  8
240
  6
CONTINUOUS
 10
0.0
 20
-45.0
 30
0.0
 11
0.0
 21
-23.0
 31
0.0
  0
LINE
  5
4235
  8
240
  6
CONTINUOUS
 10
-21.001751349999999
 20
-23.0
 30
0.0
 11
-18.114999999999998
 21
-28.0
 31
0.0
  0
LINE
  5
4236
  8
241
  6
CONTINUOUS
 10
12.0
 20
30.0
 30
0.0
 11
12.0
 21
-30.0
 31
0.0
  0
LINE
  5
4237
  8
240
  6
CONTINUOUS
 10
12.0
 20
-45.0
 30
0.0
 11
0.0
 21
-45.0
 31
0.0
  0
LINE
  5
4238
  8
240
  6
CONTINUOUS
 10
-18.114999999999998
 20
-28.0
 30
0.0
 11
-5.884999999999998
 21
-28.0
 31
0.0
  0
LINE
  5
4239
  8
240
  6
CONTINUOUS
 10
12.0
 20
-30.0
 30
0.0
 11
12.0
 21
-45.0
 31
0.0
  0
LINE
  5
423A
  8
240
  6
CONTINUOUS
 10
12.0
 20
30.0
 30
0.0
 11
12.0
 21
45.0
 31
0.0
  0
LINE
  5
423B
  8
240
  6
CONTINUOUS
 10
0.0
 20
45.0
 30
0.0
 11
0.0
 21
23.0
 31
0.0
  0
LINE
  5
423C
  8
245
  6
CENTER2
 10
-19.0
 20
13.188573870000001
 30
0.0
 11
-19.0
 21
-12.519302959999999
 31
0.0
  0
CIRCLE
  5
423D
  8
241
  6
CONTINUOUS
 10
-19.0
 20
0.0
 30
0.0
 40
7.5
  0
CIRCLE
  5
423E
  8
241
  6
CONTINUOUS
 10
-19.0
 20
0.0
 30
0.0
 40
10.0
  0
LINE
  5
423F
  8
241
  6
CONTINUOUS
 10
-2.9982486499999981
 20
-23.0
 30
0.0
 11
-21.001751349999999
 21
-23.0
 31
0.0
  0
LINE
  5
4240
  8
241
  6
CONTINUOUS
 10
0.0
 20
-23.0
 30
0.0
 11
0.0
 21
23.0
 31
0.0
  0
LINE
  5
4241
  8
240
  6
CONTINUOUS
 10
-2.9982486499999981
 20
-23.0
 30
0.0
 11
0.0
 21
-23.0
 31
0.0
  0
LINE
  5
4242
  8
241
  6
CONTINUOUS
 10
-2.9982486499999981
 20
23.0
 30
0.0
 11
-21.001751349999999
 21
23.0
 31
0.0
  0
LINE
  5
4243
  8
240
  6
CONTINUOUS
 10
-18.114999999999998
 20
28.0
 30
0.0
 11
-5.884999999999998
 21
28.0
 31
0.0
  0
LINE
  5
4244
  8
240
  6
CONTINUOUS
 10
-21.001751349999999
 20
23.0
 30
0.0
 11
-18.114999999999998
 21
28.0
 31
0.0
  0
LINE
  5
4245
  8
240
  6
CONTINUOUS
 10
-2.9982486499999981
 20
23.0
 30
0.0
 11
0.0
 21
23.0
 31
0.0
  0
LINE
  5
4246
  8
240
  6
CONTINUOUS
 10
-2.9982486499999981
 20
23.0
 30
0.0
 11
-5.884999999999998
 21
28.0
 31
0.0
  0
LINE
  5
4247
  8
240
  6
CONTINUOUS
 10
12.0
 20
45.0
 30
0.0
 11
0.0
 21
45.0
 31
0.0
  0
TEXT
  5
4249
  8
250
  6
CONTINUOUS
 10
-47.384332319999999
 20
-34.18463898000001
 30
0.0
 40
2.799999999999998
  1
CK7
  7
YOKO
1001
ITEMNAME
1000
LNSP3
1001
ACAD
1000
MTEXTBEGIN
1070
    73
1070
     1
1070
    44
1040
1.0
1070
    74
1070
     0
1000
MTEXTEND
1000
MTEXTBEGIN
1070
    73
1070
     1
1070
    44
1040
1.0
1070
    74
1070
     0
1000
MTEXTEND
  0
LINE
  5
424D
  8
250
  6
CONTINUOUS
 10
-30.79786106058469
 20
-24.931236650101731
 30
0.0
 11
-36.717665660000002
 21
-35.18463898000001
 31
0.0
1001
ACAD
1000
DSTYLE
1002
{
1070
     6
1000
OPEN
1070
   343
1005
0
1002
}
  0
LINE
  5
424E
  8
250
  6
CONTINUOUS
 10
-31.1197338420391
 20
-24.745403312954291
 30
0.0
 11
-29.68286106
 21
-23.0
 31
0.0
  0
LINE
  5
424F
  8
250
  6
CONTINUOUS
 10
-30.475988279130281
 20
-25.117069987249181
 30
0.0
 11
-29.68286106
 21
-23.0
 31
0.0
  0
LINE
  5
4250
  8
250
  6
CONTINUOUS
 10
-29.68286106
 20
-23.0
 30
0.0
 11
-30.79786106058469
 21
-24.931236650101731
 31
0.0
  0
LINE
  5
4251
  8
247
  6
CONTINUOUS
 10
7.9999999999995071
 20
-24.25000000007039
 30
0.0
 11
7.9999999999995079
 21
-17.557692308030379
 31
0.0
  0
ARC
  5
4252
  8
247
  6
CONTINUOUS
 10
6.2500000000695071
 20
-24.25000000007039
 30
0.0
 40
1.7499999999299991
 50
180.0
 51
0.0
  0
ARC
  5
4253
  8
247
  6
CONTINUOUS
 10
6.2500000000695071
 20
-17.557692308030379
 30
0.0
 40
1.7499999999299991
 50
0.0
 51
180.0
  0
LINE
  5
4254
  8
247
  6
CONTINUOUS
 10
4.5000000001395071
 20
-23.384615384720391
 30
0.0
 11
7.5000000000195071
 21
-24.244851541962401
 31
0.0
  0
LINE
  5
4255
  8
247
  6
CONTINUOUS
 10
5.9230769231595071
 20
-22.484983818336222
 30
0.0
 11
5.9230769231595071
 21
-23.792676125976211
 31
0.0
  0
ARC
  5
4256
  8
247
  6
CONTINUOUS
 10
5.0495986677024831
 20
-22.145143816090179
 30
0.0
 40
0.5538165441895349
 50
72.997889675291589
 51
172.92416621851231
  0
ARC
  5
4257
  8
247
  6
CONTINUOUS
 10
4.936033044465284
 20
-22.566878323029179
 30
0.0
 40
0.9904354236226808
 50
4.7429368522013959
 51
73.849226273267604
1001
GENIUS_GENOBJ-N-FIL_13
1002
{
1000
OWNER
1000
GEN
1002
}
1001
GENIUS_GENODEF_13
1002
{
1000
HIER
1070
     0
1002
}
1002
{
1000
MANEDIT
1070
     0
1002
}
1002
{
1000
NOSEL
1070
     0
1002
}
1002
{
1000
BEHIND
1070
     0
1002
}
1002
{
1000
OTHER
1070
     0
1002
}
1002
{
1000
REACTOR
1002
}
  0
LINE
  5
4258
  8
247
  6
CONTINUOUS
 10
7.5000000000195071
 20
-22.937159234322401
 30
0.0
 11
7.5000000000195071
 21
-24.244851541962401
 31
0.0
  0
LINE
  5
4259
  8
247
  6
CONTINUOUS
 10
4.5000000001395071
 20
-23.384615384720391
 30
0.0
 11
4.5000000001395106
 21
-22.076923077080401
 31
0.0
  0
ARC
  5
425A
  8
247
  6
CONTINUOUS
 10
6.4820242326650641
 20
-22.560919636547361
 30
0.0
 40
0.5640818586791229
 50
65.990941652530523
 51
172.26344345906949
  0
ARC
  5
425B
  8
247
  6
CONTINUOUS
 10
6.4874290391861011
 20
-23.038262685347469
 30
0.0
 40
1.0176059446230981
 50
5.7019851642581392
 51
77.277338436820912
1001
GENIUS_GENOBJ-N-FIL_13
1002
{
1000
OWNER
1000
GEN
1002
}
1001
GENIUS_GENODEF_13
1002
{
1000
HIER
1070
     0
1002
}
1002
{
1000
MANEDIT
1070
     0
1002
}
1002
{
1000
NOSEL
1070
     0
1002
}
1002
{
1000
BEHIND
1070
     0
1002
}
1002
{
1000
OTHER
1070
     0
1002
}
1002
{
1000
REACTOR
1002
}
  0
LINE
  5
425C
  8
247
  6
CONTINUOUS
 10
7.5000000000195071
 20
-21.283313080542399
 30
0.0
 11
4.5000000001395106
 21
-20.4230769233004
 31
0.0
  0
LINE
  5
425D
  8
247
  6
CONTINUOUS
 10
4.5000000001395106
 20
-18.000000000320391
 30
0.0
 11
4.5000000001395106
 21
-18.565736619456992
 31
0.0
  0
LINE
  5
425E
  8
247
  6
CONTINUOUS
 10
7.5000000000195071
 20
-19.461538461800391
 30
0.0
 11
7.5000000000195071
 21
-18.846153846440391
 31
0.0
  0
ARC
  5
425F
  8
247
  6
CONTINUOUS
 10
6.5832851359728943
 20
-17.708791209123252
 30
0.0
 40
2.2526500823422122
 50
202.3594881415267
 51
254.9932485428466
  0
ARC
  5
4260
  8
247
  6
CONTINUOUS
 10
5.3083126551940252
 20
-18.37406947921362
 30
0.0
 40
0.8906723995727782
 50
94.994589319075104
 51
155.16632895730359
1001
GENIUS_GENOBJ-N-FIL_13
1002
{
1000
OWNER
1000
GEN
1002
}
1001
GENIUS_GENODEF_13
1002
{
1000
HIER
1070
     0
1002
}
1002
{
1000
MANEDIT
1070
     0
1002
}
1002
{
1000
NOSEL
1070
     0
1002
}
1002
{
1000
BEHIND
1070
     0
1002
}
1002
{
1000
OTHER
1070
     0
1002
}
1002
{
1000
REACTOR
1002
}
  0
ARC
  5
4261
  8
247
  6
CONTINUOUS
 10
6.1601458886672651
 20
-19.226458886212981
 30
0.0
 40
1.392781735586712
 50
15.84609655577945
 51
82.325137004170557
  0
ARC
  5
4262
  8
247
  6
CONTINUOUS
 10
6.4592434315267964
 20
-18.642212725840761
 30
0.0
 40
1.324563662670287
 50
249.71360167049801
 51
321.78874565640763
1001
GENIUS_GENOBJ-N-FIL_13
1002
{
1000
OWNER
1000
GEN
1002
}
1001
GENIUS_GENODEF_13
1002
{
1000
HIER
1070
     0
1002
}
1002
{
1000
MANEDIT
1070
     0
1002
}
1002
{
1000
NOSEL
1070
     0
1002
}
1002
{
1000
BEHIND
1070
     0
1002
}
1002
{
1000
OTHER
1070
     0
1002
}
1002
{
1000
REACTOR
1002
}
  0
LINE
  5
4263
  8
247
  6
CONTINUOUS
 10
6.3461538462195106
 20
-18.538461538760391
 30
0.0
 11
6.3461538462195106
 21
-17.846153846480391
 31
0.0
  0
LINE
  5
4264
  8
247
  6
CONTINUOUS
 10
4.5000000001395106
 20
-24.25000000007039
 30
0.0
 11
4.5000000001395106
 21
-23.576923077020389
 31
0.0
  0
LINE
  5
42AD
  8
250
  6
CONTINUOUS
 10
66.244153630000014
 20
45.857131849999988
 30
0.0
 11
80.167969200000002
 21
45.857131849999988
 31
0.0
1001
ITEMNAME
1000
LNSP2
  0
LINE
  5
42AE
  8
240
  6
CONTINUOUS
 10
17.0
 20
-25.0
 30
0.0
 11
60.0
 21
-25.0
 31
0.0
  0
LINE
  5
42AF
  8
240
  6
CONTINUOUS
 10
60.0
 20
25.0
 30
0.0
 11
17.0
 21
25.0
 31
0.0
  0
LINE
  5
42B0
  8
243
  6
HIDDEN2
 10
28.0
 20
13.999999999999989
 30
0.0
 11
60.0
 21
13.999999999999989
 31
0.0
  0
LINE
  5
42B1
  8
240
  6
CONTINUOUS
 10
60.0
 20
-25.0
 30
0.0
 11
60.0
 21
25.0
 31
0.0
  0
CIRCLE
  5
42B2
  8
241
  6
CONTINUOUS
 10
47.0
 20
-0.0000000000000037
 30
0.0
 40
5.0
  0
CIRCLE
  5
42B3
  8
242
  6
CONTINUOUS
 10
47.0
 20
-0.0000000000000037
 30
0.0
 40
4.5
  0
LINE
  5
42B4
  8
245
  6
CENTER2
 10
47.0
 20
5.9999999999999956
 30
0.0
 11
47.0
 21
-6.0000000000000027
 31
0.0
1001
GRPNAME
1000
PASTMD1U
  0
LINE
  5
42B5
  8
241
  6
CONTINUOUS
 10
44.5
 20
-1.4433756700000011
 30
0.0
 11
47.0
 21
-2.8867513500000022
 31
0.0
  0
LINE
  5
42B6
  8
241
  6
CONTINUOUS
 10
47.0
 20
-2.8867513500000022
 30
0.0
 11
49.5
 21
-1.4433756700000011
 31
0.0
  0
LINE
  5
42B7
  8
241
  6
CONTINUOUS
 10
49.5
 20
-1.4433756700000011
 30
0.0
 11
49.5
 21
1.443375669999994
 31
0.0
  0
LINE
  5
42B8
  8
241
  6
CONTINUOUS
 10
49.5
 20
1.443375669999994
 30
0.0
 11
47.0
 21
2.8867513499999951
 31
0.0
  0
LINE
  5
42B9
  8
241
  6
CONTINUOUS
 10
47.0
 20
2.8867513499999951
 30
0.0
 11
44.5
 21
1.443375669999994
 31
0.0
  0
LINE
  5
42BA
  8
241
  6
CONTINUOUS
 10
44.5
 20
1.443375669999994
 30
0.0
 11
44.5
 21
-1.4433756700000011
 31
0.0
  0
TEXT
  5
42BB
  8
250
  6
CONTINUOUS
 10
69.501302529999975
 20
46.857131850000002
 30
0.0
 40
2.799999999999998
  1
CK5
  7
YOKO
1001
ITEMNAME
1000
LNSP3
1001
ACAD
1000
MTEXTBEGIN
1070
    73
1070
     1
1070
    44
1040
1.0
1070
    74
1070
     0
1000
MTEXTEND
  0
LINE
  5
42BC
  8
250
  6
CONTINUOUS
 10
60.5
 20
-25.0
 30
0.0
 11
74.0
 21
-25.0
 31
0.0
  0
LINE
  5
42BD
  8
250
  6
CONTINUOUS
 10
60.5
 20
25.0
 30
0.0
 11
74.0
 21
25.0
 31
0.0
  0
LINE
  5
42BE
  8
250
  6
CONTINUOUS
 10
73.0
 20
-22.77000000000001
 30
0.0
 11
73.0
 21
22.77
 31
0.0
  0
LINE
  5
42BF
  8
250
  6
CONTINUOUS
 10
55.317282949436027
 20
26.931236650764909
 30
0.0
 11
66.244153630000014
 21
45.857131849999988
 31
0.0
1001
ACAD
1000
DSTYLE
1002
{
1070
     6
1000
OPEN
1002
}
  0
TEXT
  5
42C0
  8
250
  6
CONTINUOUS
 10
71.999999999999986
 20
-3.9333333333333349
 30
0.0
 40
2.799999999999998
  1
\U+220550
 50
90.0
1001
ACAD
1000
MTEXTBEGIN
1070
    73
1070
     1
1070
    44
1040
1.0
1070
    74
1070
     0
1000
MTEXTEND
  0
LINE
  5
42C1
  8
250
  6
CONTINUOUS
 10
72.628333325900002
 20
22.77
 30
0.0
 11
73.0
 21
25.0
 31
0.0
  0
LINE
  5
42C2
  8
250
  6
CONTINUOUS
 10
73.371666674099984
 20
22.77
 30
0.0
 11
73.0
 21
25.0
 31
0.0
  0
LINE
  5
42C3
  8
250
  6
CONTINUOUS
 10
73.0
 20
25.0
 30
0.0
 11
73.0
 21
22.77
 31
0.0
  0
LINE
  5
42C4
  8
250
  6
CONTINUOUS
 10
73.371666674099984
 20
-22.77000000000001
 30
0.0
 11
73.0
 21
-25.0
 31
0.0
  0
LINE
  5
42C5
  8
250
  6
CONTINUOUS
 10
72.628333325900002
 20
-22.77000000000001
 30
0.0
 11
73.0
 21
-25.0
 31
0.0
  0
LINE
  5
42C6
  8
250
  6
CONTINUOUS
 10
73.0
 20
-25.0
 30
0.0
 11
73.0
 21
-22.77000000000001
 31
0.0
  0
LINE
  5
42C7
  8
250
  6
CONTINUOUS
 10
55.639155731000962
 20
26.7454033138089
 30
0.0
 11
54.202282949999983
 21
25.0
 31
0.0
  0
LINE
  5
42C8
  8
250
  6
CONTINUOUS
 10
54.995410167871093
 20
27.11706998772091
 30
0.0
 11
54.202282949999983
 21
25.0
 31
0.0
  0
LINE
  5
42C9
  8
250
  6
CONTINUOUS
 10
54.202282949999983
 20
25.0
 30
0.0
 11
55.317282949436027
 21
26.931236650764909
 31
0.0
  0
LINE
  5
42CA
  8
243
  6
HIDDEN2
 10
28.0
 20
-14.0
 30
0.0
 11
60.0
 21
-14.0
 31
0.0
  0
ARC
  5
42CB
  8
240
  6
CONTINUOUS
 10
17.0
 20
30.0
 30
0.0
 40
5.0
 50
180.0
 51
270.0
1001
GENIUS_GENOBJ-N-FIL_13
1002
{
1000
OWNER
1000
GEN
1002
}
1001
GENIUS_GENODEF_13
1002
{
1000
HIER
1070
     0
1002
}
1002
{
1000
MANEDIT
1070
     0
1002
}
1002
{
1000
NOSEL
1070
     0
1002
}
1002
{
1000
BEHIND
1070
     0
1002
}
1002
{
1000
OTHER
1070
     0
1002
}
1002
{
1000
REACTOR
1002
}
  0
ARC
  5
42CC
  8
240
  6
CONTINUOUS
 10
17.0
 20
-30.0
 30
0.0
 40
5.0
 50
90.0
 51
180.0
1001
GENIUS_GENODEF_13
1002
{
1000
HIER
1070
     0
1002
}
1002
{
1000
MANEDIT
1070
     0
1002
}
1002
{
1000
NOSEL
1070
     0
1002
}
1002
{
1000
BEHIND
1070
     0
1002
}
1002
{
1000
OTHER
1070
     0
1002
}
1002
{
1000
REACTOR
1002
}
1001
GENIUS_GENOBJ-N-FIL_13
1002
{
1000
OWNER
1000
GEN
1002
}
  0
LINE
  5
4348
  8
250
  6
CONTINUOUS
 10
0.0
 20
45.499999999999993
 30
0.0
 11
0.0000000000000007
 21
57.0
 31
0.0
  0
LINE
  5
4349
  8
250
  6
CONTINUOUS
 10
60.0
 20
25.5
 30
0.0
 11
60.0
 21
57.0
 31
0.0
  0
LINE
  5
434A
  8
250
  6
CONTINUOUS
 10
2.23
 20
56.0
 30
0.0
 11
57.77000000000001
 21
56.0
 31
0.0
  0
TEXT
  5
434E
  8
250
  6
CONTINUOUS
 10
27.266666666666669
 20
57.0
 30
0.0
 40
2.7999999999999989
  1
60
  0
LINE
  5
434F
  8
250
  6
CONTINUOUS
 10
57.77000000000001
 20
56.37166666666667
 30
0.0
 11
60.0
 21
56.0
 31
0.0
  0
LINE
  5
4350
  8
250
  6
CONTINUOUS
 10
57.77000000000001
 20
55.62833333333333
 30
0.0
 11
60.0
 21
56.0
 31
0.0
  0
LINE
  5
4351
  8
250
  6
CONTINUOUS
 10
60.0
 20
56.0
 30
0.0
 11
57.77000000000001
 21
56.0
 31
0.0
  0
LINE
  5
4352
  8
250
  6
CONTINUOUS
 10
2.23
 20
55.62833333333333
 30
0.0
 11
0.0000000000000007
 21
56.0
 31
0.0
  0
LINE
  5
4353
  8
250
  6
CONTINUOUS
 10
2.23
 20
56.37166666666667
 30
0.0
 11
0.0000000000000007
 21
56.0
 31
0.0
  0
LINE
  5
4354
  8
250
  6
CONTINUOUS
 10
0.0000000000000007
 20
56.0
 30
0.0
 11
2.23
 21
56.0
 31
0.0
  0
VIEWPORT
  5
22
 67
     1
  8
0
 10
261.51769911504419
 20
148.5
 30
0.0
 40
523.0353982300885
 41
297.0
 68
     1
 69
     1
1001
ACAD
1000
MVIEW
1002
{
1070
    16
1010
0.0
1020
0.0
1030
0.0
1010
0.0
1020
0.0
1030
1.0
1040
0.0
1040
297.0
1040
261.51769911504419
1040
148.5
1040
50.0
1040
0.0
1040
0.0
1070
     0
1070
   100
1070
     1
1070
     1
1070
     0
1070
     0
1070
     0
1070
     0
1040
0.0
1040
0.0
1040
0.0
1040
1.0
1040
1.0
1040
10.0
1040
10.0
1070
     0
1002
{
1002
}
1002
}
1001
GENIUS_GENODEF_13
1002
{
1000
HIER
1070
     0
1002
}
1002
{
1000
MANEDIT
1070
     0
1002
}
1002
{
1000
NOSEL
1070
     0
1002
}
1002
{
1000
BEHIND
1070
     0
1002
}
1002
{
1000
OTHER
1070
     0
1002
}
1002
{
1000
REACTOR
1002
}
1001
GENIUS_GENOBJ-N-SDF_13
1002
{
1000
OWNER
1000
GEN
1002
}
1001
GENIUS_GENSCREG_15
1000
PF
1040
1.0
1000
DF
1040
1.0
1000
MIN
1011
0.0
1021
0.0
1031
0.0
1021
0.0
1031
0.0
1000
MAX
1011
523.0353982300885
1021
0.0
1031
0.0
1021
297.0
1031
0.0
1000
FLAGS
1070
     4
  0
ENDSEC
  0
EOF
