  0
SECTION
  2
HEADER
  9
$ACADVER
  1
AC1009
  9
$INSBASE
 10
0.0
 20
0.0
 30
0.0
  9
$EXTMIN
 10
-62.428571428571409
 20
-108.0000018625871
 30
0.0
  9
$EXTMAX
 10
267.0
 20
158.0
 30
0.0
  9
$LIMMIN
 10
0.0
 20
0.0
  9
$LIMMAX
 10
297.0
 20
210.0
  9
$ORTHOMODE
 70
     1
  9
$REGENMODE
 70
     1
  9
$FILLMODE
 70
     1
  9
$QTEXTMODE
 70
     0
  9
$MIRRTEXT
 70
     1
  9
$DRAGMODE
 70
     2
  9
$LTSCALE
 40
10.0
  9
$OSMODE
 70
    47
  9
$ATTMODE
 70
     1
  9
$TEXTSIZE
 40
3.0
  9
$TRACEWID
 40
1.0
  9
$TEXTSTYLE
  7
YOKO
  9
$CLAYER
  8
246
  9
$CELTYPE
  6
BYLAYER
  9
$CECOLOR
 62
   256
  9
$DIMSCALE
 40
1.0
  9
$DIMASZ
 40
2.2299999999999991
  9
$DIMEXO
 40
0.5
  9
$DIMDLI
 40
7.0
  9
$DIMRND
 40
0.0
  9
$DIMDLE
 40
0.0
  9
$DIMEXE
 40
1.0
  9
$DIMTP
 40
0.0
  9
$DIMTM
 40
0.01
  9
$DIMTXT
 40
2.799999999999998
  9
$DIMCEN
 40
0.0
  9
$DIMTSZ
 40
0.0
  9
$DIMTOL
 70
     0
  9
$DIMLIM
 70
     0
  9
$DIMTIH
 70
     0
  9
$DIMTOH
 70
     0
  9
$DIMSE1
 70
     0
  9
$DIMSE2
 70
     0
  9
$DIMTAD
 70
     3
  9
$DIMZIN
 70
     9
  9
$DIMBLK
  1
OPEN
  9
$DIMASO
 70
     1
  9
$DIMSHO
 70
     1
  9
$DIMPOST
  1

  9
$DIMAPOST
  1

  9
$DIMALT
 70
     0
  9
$DIMALTD
 70
     2
  9
$DIMALTF
 40
25.399999999999999
  9
$DIMLFAC
 40
1.0
  9
$DIMTOFL
 70
     1
  9
$DIMTVP
 40
0.0
  9
$DIMTIX
 70
     1
  9
$DIMSOXD
 70
     0
  9
$DIMSAH
 70
     0
  9
$DIMBLK1
  1

  9
$DIMBLK2
  1

  9
$DIMSTYLE
  2
BIGT
  9
$DIMCLRD
 70
   256
  9
$DIMCLRE
 70
   256
  9
$DIMCLRT
 70
    40
  9
$DIMTFAC
 40
1.0
  9
$DIMGAP
 40
1.0
  9
$LUNITS
 70
     2
  9
$LUPREC
 70
     6
  9
$SKETCHINC
 40
1.0
  9
$FILLETRAD
 40
0.0
  9
$AUNITS
 70
     0
  9
$AUPREC
 70
     6
  9
$MENU
  1
.
  9
$ELEVATION
 40
0.0
  9
$PELEVATION
 40
0.0
  9
$THICKNESS
 40
0.0
  9
$LIMCHECK
 70
     0
  9
$BLIPMODE
 70
     0
  9
$CHAMFERA
 40
0.2
  9
$CHAMFERB
 40
0.2
  9
$SKPOLY
 70
     0
  9
$TDCREATE
 40
2460014.4274896882
  9
$TDUPDATE
 40
2460416.6060160068
  9
$TDINDWG
 40
0.0692210764
  9
$TDUSRTIMER
 40
0.0692209606
  9
$USRTIMER
 70
     1
  9
$ANGBASE
 50
0.0
  9
$ANGDIR
 70
     0
  9
$PDMODE
 70
     1
  9
$PDSIZE
 40
0.0
  9
$PLINEWID
 40
0.0
  9
$COORDS
 70
     1
  9
$SPLFRAME
 70
     0
  9
$SPLINETYPE
 70
     6
  9
$SPLINESEGS
 70
     4
  9
$ATTDIA
 70
     1
  9
$ATTREQ
 70
     1
  9
$HANDLING
 70
     1
  9
$HANDSEED
  5
528A
  9
$SURFTAB1
 70
     6
  9
$SURFTAB2
 70
     6
  9
$SURFTYPE
 70
     6
  9
$SURFU
 70
     6
  9
$SURFV
 70
     6
  9
$UCSNAME
  2

  9
$UCSORG
 10
0.0
 20
0.0
 30
0.0
  9
$UCSXDIR
 10
1.0
 20
0.0
 30
0.0
  9
$UCSYDIR
 10
0.0
 20
1.0
 30
0.0
  9
$PUCSNAME
  2

  9
$PUCSORG
 10
0.0
 20
0.0
 30
0.0
  9
$PUCSXDIR
 10
1.0
 20
0.0
 30
0.0
  9
$PUCSYDIR
 10
0.0
 20
1.0
 30
0.0
  9
$USERI1
 70
     1
  9
$USERI2
 70
     0
  9
$USERI3
 70
     0
  9
$USERI4
 70
     0
  9
$USERI5
 70
     0
  9
$USERR1
 40
0.0
  9
$USERR2
 40
0.0
  9
$USERR3
 40
0.0
  9
$USERR4
 40
0.0
  9
$USERR5
 40
0.0
  9
$WORLDVIEW
 70
     1
  9
$SHADEDGE
 70
     3
  9
$SHADEDIF
 70
    70
  9
$TILEMODE
 70
     1
  9
$MAXACTVP
 70
    16
  9
$PLIMCHECK
 70
     0
  9
$PEXTMIN
 10
1.0000000000000000E+020
 20
1.0000000000000000E+020
 30
1.0000000000000000E+020
  9
$PEXTMAX
 10
-1.0000000000000000E+020
 20
-1.0000000000000000E+020
 30
-1.0000000000000000E+020
  9
$PLIMMIN
 10
0.0
 20
0.0
  9
$PLIMMAX
 10
420.0
 20
297.0
  9
$UNITMODE
 70
     0
  9
$VISRETAIN
 70
     1
  9
$PLINEGEN
 70
     0
  9
$PSLTSCALE
 70
     1
  0
ENDSEC
  0
SECTION
  2
TABLES
  0
TABLE
  2
VPORT
 70
     1
  0
VPORT
  2
*ACTIVE
 70
     0
 10
0.0
 20
0.0
 11
1.0
 21
1.0
 12
159.86296686435591
 22
37.407619300466543
 13
0.0
 23
0.0
 14
7.0
 24
7.0
 15
7.0
 25
7.0
 16
0.0
 26
0.0
 36
1.0
 17
0.0
 27
0.0
 37
0.0
 40
324.3696224803266
 41
2.0486842105263152
 42
50.0
 43
0.0
 44
0.0
 50
0.0
 51
0.0
 71
     0
 72
  2000
 73
     1
 74
     0
 75
     0
 76
     1
 77
     0
 78
     0
  0
ENDTAB
  0
TABLE
  2
LTYPE
 70
    18
  0
LTYPE
  2
CONTINUOUS
 70
     0
  3
Solid line
 72
    65
 73
     0
 40
0.0
  0
LTYPE
  2
CENTER2
 70
     0
  3
___ _ ___ _ ___ _ ___ _ ___ _ ___ _ ___ _ ___ _
 72
    65
 73
     4
 40
1.125
 49
0.75
 49
-0.125
 49
0.125
 49
-0.125
  0
LTYPE
  2
HIDDEN2
 70
     0
  3
_ _ _ _ _ _ _ _ _ _ _ _ _ _ _ _ _ _ _ _ _ _ _ _
 72
    65
 73
     2
 40
0.1875
 49
0.125
 49
-0.0625
  0
LTYPE
  2
PHANTOM2
 70
     0
  3
___ _ _ ___ _ _ ___ _ _ ___ _ _ ___ _ _ ___ _ _
 72
    65
 73
     6
 40
1.25
 49
0.625
 49
-0.125
 49
0.125
 49
-0.125
 49
0.125
 49
-0.125
  0
LTYPE
  2
AMCONSTR
 70
     0
  3
_______________________
 72
    65
 73
     2
 40
9999.0
 49
9999.0
 49
0.0
  0
LTYPE
  2
HIDDEN
 70
     0
  3
Hidden __ __ __ __ __ __ __ __ __ __ __ __ __ _
 72
    65
 73
     2
 40
0.375
 49
0.25
 49
-0.125
  0
LTYPE
  2
CENTER
 70
     0
  3
Center ____ _ ____ _ ____ _ ____ _ ____ _ ____
 72
    65
 73
     4
 40
2.0
 49
1.25
 49
-0.25
 49
0.25
 49
-0.25
  0
LTYPE
  2
AMZIGZAG2
 70
     0
  3
/\/-/\/-/\/-/\/-/\/-/\/
 72
    65
 73
     2
 40
0.4401
 49
0.0001
 49
-0.4400000000000003
  0
LTYPE
  2
ACANSTGB
 70
     0
  3
__ . . __ . .
 72
    65
 73
     6
 40
0.35433070866
 49
0.15748031496
 49
-0.03937007874
 49
0.03937007874
 49
-0.03937007874
 49
0.03937007874
 49
-0.03937007874
  0
LTYPE
  2
ACANSTGL
 70
     0
  3
_ _ _ _ _
 72
    65
 73
     2
 40
0.11811023622
 49
0.07874015748
 49
-0.03937007874
  0
ENDTAB
  0
TABLE
  2
LAYER
 70
     8
  0
LAYER
  2
0
 70
     0
 62
     7
  6
CONTINUOUS
  0
LAYER
  2
246
 70
     0
 62
     3
  6
PHANTOM2
  0
LAYER
  2
240
 70
     0
 62
     4
  6
CONTINUOUS
  0
LAYER
  2
DEFPOINTS
 70
     0
 62
     7
  6
CONTINUOUS
  0
LAYER
  2
245
 70
     0
 62
     2
  6
CENTER2
  0
LAYER
  2
241
 70
     0
 62
   211
  6
CONTINUOUS
  0
LAYER
  2
247
 70
     0
 62
    60
  6
CONTINUOUS
  0
LAYER
  2
250
 70
     0
 62
     3
  6
CONTINUOUS
  0
ENDTAB
  0
TABLE
  2
STYLE
 70
     7
  0
STYLE
  2
STANDARD
 70
     0
 40
0.0
 41
1.0
 50
0.0
 71
     0
 42
3.0
  3
romans.shx
  4
extfont.shx
  0
STYLE
  2
YOKO
 70
     0
 40
0.0
 41
1.0
 50
0.0
 71
     0
 42
3.0
  3
romans.shx
  4
extfont.shx
  0
STYLE
  2
ACJISTS
 70
     0
 40
1.0
 41
1.0
 50
0.0
 71
     0
 42
3.0
  3
amgdt.shx
  4
extfont.shx
  0
STYLE
  2
ACANSGDT
 70
     0
 40
0.0
 41
1.0
 50
0.0
 71
     0
 42
3.0
  3
amgdt.shx
  4

  0
ENDTAB
  0
TABLE
  2
VIEW
 70
     0
  0
ENDTAB
  0
TABLE
  2
UCS
 70
     0
  0
ENDTAB
  0
TABLE
  2
APPID
 70
    39
  0
APPID
  2
ACAD
 70
     0
  0
APPID
  2
ACADANNOTATIVE
 70
     0
  0
APPID
  2
GLOBAL
 70
     0
  0
APPID
  2
DETAIL
 70
     0
  0
APPID
  2
GRPNAME
 70
     0
  0
APPID
  2
GPARA
 70
     0
  0
APPID
  2
MCAD_NO_VIS
 70
     0
  0
APPID
  2
ACAD_TEMP_GRAPHIC
 70
     0
  0
APPID
  2
ACATTRIBSERVICES
 70
     0
  0
APPID
  2
GENIUS_GENSCREG_15
 70
     0
  0
APPID
  2
GENIUS_GENODEF_13
 70
     0
  0
APPID
  2
GENIUS_GENOBJ-N-SDF_13
 70
     0
  0
APPID
  2
GENIUS_GENREC_14
 70
     0
  0
APPID
  2
GENIUS_GENOBJ-N-REC_13
 70
     0
  0
APPID
  2
GENIUS_GENDIMSH_14
 70
     0
  0
APPID
  2
GENIUS_GENOBJ-N-DIM_13
 70
     0
  0
APPID
  2
GENIUS_GENDIM_13
 70
     0
  0
APPID
  2
GENIUS_GENDTOL_13
 70
     0
  0
APPID
  2
GENIUS_GENOLIS_13
 70
     0
  0
APPID
  2
GENIUS_GENOENT_13
 70
     0
  0
APPID
  2
GENIUS_GENOBJ-F-FEM_13
 70
     0
  0
APPID
  2
GENIUS_GENOREF_13
 70
     0
  0
APPID
  2
GENIUS_GEFFEM_13
 70
     0
  0
APPID
  2
GENIUS_GEFFEMP_13
 70
     0
  0
APPID
  2
AD_DRAW
 70
     0
  0
APPID
  2
DESIGNERASSEMBLIES
 70
     0
  0
APPID
  2
ACADM_DIM_EDIT
 70
     0
  0
APPID
  2
AMDT_DM_ADJ
 70
     0
  0
APPID
  2
ITEMNAME
 70
     0
  0
APPID
  2
GENIUS_GENOBJ-N-FIL_13
 70
     0
  0
APPID
  2
GENIUS_GENFIL_13
 70
     0
  0
APPID
  2
GENIUS_GENOBJ-N-CHA_13
 70
     0
  0
APPID
  2
ACAD_NAV_VCDISPLAY
 70
     0
  0
APPID
  2
ACAECLAYERSTANDARD
 70
     0
  0
APPID
  2
ACAD_DSTYLE_DIMINSPECT
 70
     0
  0
APPID
  2
ACAD_EXEMPT_FROM_CAD_STANDARDS
 70
     0
  0
APPID
  2
ACAD_MLEADERVER
 70
     0
  0
APPID
  2
ACAD_DSTYLE_DIMJAG
 70
     0
  0
APPID
  2
ACAD_DSTYLE_DIMBREAK
 70
     0
  0
ENDTAB
  0
TABLE
  2
DIMSTYLE
 70
    10
  0
DIMSTYLE
  2
STANDARD
 70
     0
  3

  4

  5

  6

  7

 40
1.0
 41
0.18
 42
0.0625
 43
0.38
 44
0.18
 45
0.0
 46
0.0
 47
0.0
 48
0.0
140
0.18
141
0.09
142
0.0
143
25.399999999999999
144
1.0
145
0.0
146
1.0
147
0.09
 71
     0
 72
     0
 73
     1
 74
     1
 75
     0
 76
     0
 77
     0
 78
     0
170
     0
171
     2
172
     0
173
     0
174
     0
175
     0
176
     0
177
     0
178
     0
  0
DIMSTYLE
  2
BIGT
 70
     0
  3

  4

  5

  6

  7

 40
1.0
 41
2.2299999999999991
 42
0.5
 43
7.0
 44
1.0
 45
0.0
 46
0.0
 47
0.0
 48
0.01
140
2.799999999999998
141
0.0
142
0.0
143
25.399999999999999
144
1.0
145
0.0
146
1.0
147
1.0
 71
     0
 72
     0
 73
     0
 74
     0
 75
     0
 76
     0
 77
     3
 78
     9
170
     0
171
     2
172
     1
173
     0
174
     1
175
     0
176
   256
177
   256
178
    40
  0
DIMSTYLE
  2
AM_ANSI
 70
     0
  3

  4
mm
  5

  6

  7

 40
1.0
 41
0.12
 42
0.05
 43
0.5
 44
0.1
 45
0.0
 46
0.0
 47
0.1
 48
0.1
140
0.12
141
0.0
142
0.0
143
25.399999999999999
144
1.0
145
0.0
146
0.71
147
0.06
 71
     0
 72
     0
 73
     1
 74
     1
 75
     0
 76
     0
 77
     0
 78
     7
170
     0
171
     2
172
     0
173
     0
174
     0
175
     0
176
   256
177
   256
178
     2
  0
DIMSTYLE
  2
AM_ANSI$3
 70
     0
  3

  4
mm
  5

  6

  7

 40
1.0
 41
0.12
 42
0.05
 43
0.5
 44
0.1
 45
0.0
 46
0.0
 47
0.1
 48
0.1
140
0.12
141
0.0
142
0.0
143
25.399999999999999
144
1.0
145
0.0
146
0.71
147
0.06
 71
     0
 72
     0
 73
     1
 74
     1
 75
     0
 76
     0
 77
     0
 78
     7
170
     0
171
     2
172
     0
173
     0
174
     0
175
     0
176
   256
177
   256
178
     2
  0
DIMSTYLE
  2
AM_ANSI$4
 70
     0
  3

  4
mm
  5

  6

  7

 40
1.0
 41
0.12
 42
0.05
 43
0.5
 44
0.1
 45
0.0
 46
0.0
 47
0.1
 48
0.1
140
0.12
141
0.0
142
0.0
143
25.399999999999999
144
1.0
145
0.0
146
0.71
147
0.06
 71
     0
 72
     0
 73
     1
 74
     1
 75
     0
 76
     0
 77
     0
 78
     7
170
     0
171
     2
172
     0
173
     0
174
     0
175
     0
176
   256
177
   256
178
     2
  0
DIMSTYLE
  2
AM_ANSI$7
 70
     0
  3

  4
mm
  5

  6

  7

 40
1.0
 41
0.12
 42
0.05
 43
0.5
 44
0.1
 45
0.0
 46
0.0
 47
0.1
 48
0.1
140
0.12
141
0.0
142
0.0
143
25.399999999999999
144
1.0
145
0.0
146
0.71
147
0.06
 71
     0
 72
     0
 73
     1
 74
     1
 75
     0
 76
     0
 77
     0
 78
     7
170
     0
171
     2
172
     0
173
     0
174
     0
175
     0
176
   256
177
   256
178
     2
  0
DIMSTYLE
  2
AM_ANSI$SF
 70
     0
  3

  4
mm
  5

  6

  7

 40
1.0
 41
0.12
 42
0.05
 43
0.5
 44
0.1
 45
0.0
 46
0.0
 47
0.1
 48
0.1
140
0.12
141
0.0
142
0.0
143
25.399999999999999
144
1.0
145
0.0
146
0.71
147
0.06
 71
     0
 72
     0
 73
     1
 74
     1
 75
     1
 76
     1
 77
     0
 78
     7
170
     0
171
     2
172
     0
173
     0
174
     0
175
     0
176
   256
177
   256
178
     2
  0
DIMSTYLE
  2
AM_ANSI$SH
 70
     0
  3

  4
mm
  5

  6

  7

 40
1.0
 41
0.12
 42
0.05
 43
0.5
 44
0.1
 45
0.0
 46
0.0
 47
0.1
 48
0.1
140
0.12
141
0.0
142
0.0
143
25.399999999999999
144
1.0
145
0.0
146
0.71
147
0.06
 71
     0
 72
     0
 73
     1
 74
     1
 75
     1
 76
     1
 77
     0
 78
     7
170
     0
171
     2
172
     0
173
     1
174
     0
175
     0
176
   256
177
   256
178
     2
  0
ENDTAB
  0
ENDSEC
  0
SECTION
  2
BLOCKS
  0
BLOCK
  8
0
  2
$MODEL_SPACE
 70
     0
 10
0.0
 20
0.0
 30
0.0
  3
$MODEL_SPACE
  1

  0
ENDBLK
  5
4EF1
  8
0
  0
BLOCK
 67
     1
  8
0
  2
$PAPER_SPACE
 70
     0
 10
0.0
 20
0.0
 30
0.0
  3
$PAPER_SPACE
  1

  0
ENDBLK
  5
4EED
 67
     1
  8
0
  0
BLOCK
  8
0
  2
_OPEN
 70
     0
 10
0.0
 20
0.0
 30
0.0
  3
_OPEN
  1

  0
LINE
  5
4A3B
  8
0
  6
BYBLOCK
 62
     0
 10
-1.0
 20
0.1666666666666666
 30
0.0
 11
0.0
 21
0.0
 31
0.0
  0
LINE
  5
4A3C
  8
0
  6
BYBLOCK
 62
     0
 10
-1.0
 20
-0.1666666666666666
 30
0.0
 11
0.0
 21
0.0
 31
0.0
  0
LINE
  5
4A3D
  8
0
  6
BYBLOCK
 62
     0
 10
0.0
 20
0.0
 30
0.0
 11
-1.0
 21
0.0
 31
0.0
  0
ENDBLK
  5
4A3E
  8
0
  0
BLOCK
  8
0
  2
_ACMFILLEDHALF
 70
     0
 10
0.0
 20
0.0
 30
0.0
  3
_ACMFILLEDHALF
  1

  0
TRACE
  5
4C65
  8
240
 62
     0
 10
-0.8
 20
0.0
 30
0.0
 11
-1.0
 21
0.166666666
 31
0.0
 12
0.0
 22
0.0
 32
0.0
 13
0.0
 23
0.0
 33
0.0
  0
LINE
  5
4C66
  8
240
 62
     0
 10
-1.0
 20
0.0
 30
0.0
 11
-0.8
 21
0.0
 31
0.0
  0
ENDBLK
  5
4C64
  8
0
  0
ENDSEC
  0
SECTION
  2
ENTITIES
  0
LINE
  5
42FD
  8
240
  6
CONTINUOUS
 10
144.999980926517
 20
-92.500003054682324
 30
0.0
 11
188.99998068809839
 21
-92.500003054682324
 31
0.0
  0
LINE
  5
42FE
  8
240
  6
CONTINUOUS
 10
188.99998068809839
 20
92.499999329503424
 30
0.0
 11
144.999980926517
 21
92.499999329503424
 31
0.0
  0
LINE
  5
42FF
  8
240
  6
CONTINUOUS
 10
188.99998068809839
 20
-92.500003054682324
 30
0.0
 11
189.99996781349509
 21
-91.500001028124345
 31
0.0
  0
LINE
  5
4300
  8
240
  6
CONTINUOUS
 10
189.99996781349509
 20
91.499997302945559
 30
0.0
 11
188.99998068809839
 21
92.499999329503424
 31
0.0
  0
LINE
  5
4301
  8
240
  6
CONTINUOUS
 10
0.0
 20
-45.000003650728729
 30
0.0
 11
144.999980926517
 21
-45.000003650728729
 31
0.0
  0
LINE
  5
4302
  8
240
  6
CONTINUOUS
 10
144.999980926517
 20
44.999999925549872
 30
0.0
 11
0.0
 21
44.999999925549872
 31
0.0
  0
ARC
  5
43AC
  8
241
  6
CONTINUOUS
 10
222.99998021126109
 20
-0.0000018625732991
 30
0.0
 40
44.999999999999893
 50
143.13010235415641
 51
216.8698976458447
  0
LINE
  5
43AD
  8
241
  6
CONTINUOUS
 10
188.35953027659929
 20
29.478801952260199
 30
0.0
 11
144.999980926517
 21
29.478801952260199
 31
0.0
  0
LINE
  5
43AE
  8
241
  6
CONTINUOUS
 10
144.999980926517
 20
44.999999925549872
 30
0.0
 11
144.999980926517
 21
-45.000003650728729
 31
0.0
  0
LINE
  5
43AF
  8
241
  6
CONTINUOUS
 10
188.99998068809839
 20
-33.000001683775508
 30
0.0
 11
188.99998068809839
 21
-92.500003054682324
 31
0.0
  0
ARC
  5
43B0
  8
241
  6
CONTINUOUS
 10
178.99998021126129
 20
-33.00000186257332
 30
0.0
 40
10.0
 50
0.0
 51
36.86989764584338
  0
ARC
  5
43B1
  8
241
  6
CONTINUOUS
 10
178.99998021126129
 20
32.999998137426822
 30
0.0
 40
10.0
 50
323.13010235415658
 51
0.0
  0
LINE
  5
43B2
  8
241
  6
CONTINUOUS
 10
188.99998068809839
 20
92.499999329503424
 30
0.0
 11
188.99998068809839
 21
32.99999795859668
 31
0.0
  0
LINE
  5
43B6
  8
240
  6
CONTINUOUS
 10
189.99996781349509
 20
-91.500001028124345
 30
0.0
 11
189.99996781349509
 21
91.499997302945559
 31
0.0
  0
LINE
  5
43BA
  8
240
  6
CONTINUOUS
 10
144.999980926517
 20
-45.000003650728729
 30
0.0
 11
144.999980926517
 21
-92.500003054682324
 31
0.0
  0
LINE
  5
43BB
  8
240
  6
CONTINUOUS
 10
144.999980926517
 20
92.499999329503424
 30
0.0
 11
144.999980926517
 21
44.999999925549872
 31
0.0
  0
LINE
  5
43BD
  8
241
  6
CONTINUOUS
 10
144.999980926517
 20
86.524703160771395
 30
0.0
 11
188.99998068809839
 21
86.524703160771395
 31
0.0
  0
LINE
  5
43C8
  8
241
  6
CONTINUOUS
 10
188.35953027659929
 20
-29.478805677439009
 30
0.0
 11
144.999980926517
 21
-29.478805677439009
 31
0.0
  0
LINE
  5
43C9
  8
241
  6
CONTINUOUS
 10
144.999980926517
 20
-86.524706885950209
 30
0.0
 11
188.99998068809839
 21
-86.524706885950209
 31
0.0
  0
LINE
  5
43F4
  8
240
  6
CONTINUOUS
 10
0.0
 20
44.999999925549872
 30
0.0
 11
0.0
 21
23.000000000000139
 31
0.0
  0
LINE
  5
43F5
  8
240
  6
CONTINUOUS
 10
0.0
 20
-45.000003650728729
 30
0.0
 11
0.0
 21
-22.999999999999861
 31
0.0
  0
LINE
  5
4405
  8
245
  6
CENTER2
 10
-56.0
 20
0.0
 30
0.0
 11
231.0
 21
0.0
 31
0.0
  0
LINE
  5
47F8
  8
240
  6
CONTINUOUS
 10
-50.000000000000099
 20
23.000000000000139
 30
0.0
 11
-50.000000000000099
 21
-22.999999999999861
 31
0.0
  0
LINE
  5
47F9
  8
241
  6
CONTINUOUS
 10
-0.0000000000000028
 20
23.000000000000139
 30
0.0
 11
-0.0000000000000028
 21
0.0000000000000284
 31
0.0
  0
LINE
  5
47FA
  8
240
  6
CONTINUOUS
 10
-18.11499988897107
 20
-27.999999999999861
 30
0.0
 11
-5.884999111028633
 21
-27.999999999999861
 31
0.0
  0
LINE
  5
47FB
  8
241
  6
CONTINUOUS
 10
-20.92770715923746
 20
-22.999999999999861
 30
0.0
 11
-3.0722930044481682
 21
-23.00000059215208
 31
0.0
  0
CIRCLE
  5
47FC
  8
241
  6
CONTINUOUS
 10
-18.999999999999879
 20
0.0000000000000284
 30
0.0
 40
7.5
  0
CIRCLE
  5
47FD
  8
241
  6
CONTINUOUS
 10
-18.999999999999879
 20
0.0000000000000284
 30
0.0
 40
10.124999999999989
  0
LINE
  5
47FE
  8
245
  6
CENTER2
 10
-18.999999999999879
 20
14.082403000000021
 30
0.0
 11
-18.999999999999879
 21
-14.082402999999969
 31
0.0
  0
LINE
  5
47FF
  8
240
  6
CONTINUOUS
 10
-50.000000000000099
 20
-22.999999999999861
 30
0.0
 11
-21.001750444115299
 21
-22.999999999999861
 31
0.0
  0
LINE
  5
4800
  8
240
  6
CONTINUOUS
 10
-21.001750444115299
 20
-22.999999999999861
 30
0.0
 11
-18.11499988897107
 21
-27.999999999999861
 31
0.0
  0
LINE
  5
4801
  8
241
  6
CONTINUOUS
 10
-0.0000000000000028
 20
-22.999999999999861
 30
0.0
 11
-0.0000000000000028
 21
0.0000000000000284
 31
0.0
  0
LINE
  5
4802
  8
240
  6
CONTINUOUS
 10
-2.9982485558847389
 20
-22.999999999999861
 30
0.0
 11
0.0
 21
-22.999999999999861
 31
0.0
  0
LINE
  5
4803
  8
240
  6
CONTINUOUS
 10
-2.9982485558847389
 20
-22.999999999999861
 30
0.0
 11
-5.884999111028633
 21
-27.999999999999861
 31
0.0
  0
LINE
  5
4804
  8
240
  6
CONTINUOUS
 10
-18.11499988897107
 20
28.000000000000139
 30
0.0
 11
-5.884999111028633
 21
28.000000000000139
 31
0.0
  0
LINE
  5
4805
  8
241
  6
CONTINUOUS
 10
-3.0722928407626591
 20
22.999999999999339
 30
0.0
 11
-20.927707173829049
 21
22.999999947212171
 31
0.0
  0
LINE
  5
4806
  8
240
  6
CONTINUOUS
 10
-50.000000000000099
 20
23.000000000000139
 30
0.0
 11
-21.001750444115299
 21
23.000000000000139
 31
0.0
  0
LINE
  5
4807
  8
240
  6
CONTINUOUS
 10
-2.9982485558842802
 20
22.99999999999935
 30
0.0
 11
0.0
 21
23.000000000000139
 31
0.0
  0
LINE
  5
4808
  8
240
  6
CONTINUOUS
 10
-2.9982485558842802
 20
22.99999999999935
 30
0.0
 11
-5.884999111028633
 21
28.000000000000139
 31
0.0
  0
TEXT
  5
4809
  8
241
  6
CONTINUOUS
 10
-63.0
 20
154.0
 30
0.0
 40
4.0
  1
CKB7-SLN200ALDP-190
  7
YOKO
  0
LINE
  5
480A
  8
247
  6
CONTINUOUS
 10
10.19999999999988
 20
-34.250000000070408
 30
0.0
 11
10.19999999999988
 21
-27.557692308030411
 31
0.0
  0
ARC
  5
480B
  8
247
  6
CONTINUOUS
 10
8.45000000006989
 20
-34.250000000070408
 30
0.0
 40
1.7499999999299991
 50
180.0
 51
0.0
  0
ARC
  5
480C
  8
247
  6
CONTINUOUS
 10
8.45000000006989
 20
-27.557692308030411
 30
0.0
 40
1.7499999999299991
 50
0.0
 51
180.0
  0
LINE
  5
480D
  8
247
  6
CONTINUOUS
 10
6.7000000001398901
 20
-33.384615384720412
 30
0.0
 11
9.7000000000198874
 21
-34.244851541962412
 31
0.0
  0
LINE
  5
480E
  8
247
  6
CONTINUOUS
 10
8.1230769231598892
 20
-32.484983818336232
 30
0.0
 11
8.1230769231598892
 21
-33.792676125976229
 31
0.0
  0
ARC
  5
480F
  8
247
  6
CONTINUOUS
 10
7.2495986677028652
 20
-32.145143816090197
 30
0.0
 40
0.5538165441895349
 50
72.997889675291589
 51
172.92416621851231
  0
ARC
  5
4810
  8
247
  6
CONTINUOUS
 10
7.136033044465667
 20
-32.566878323029187
 30
0.0
 40
0.9904354236226808
 50
4.7429368522013986
 51
73.849226273267618
1001
GENIUS_GENOBJ-N-FIL_13
1002
{
1000
OWNER
1000
GEN
1002
}
1001
GENIUS_GENODEF_13
1002
{
1000
HIER
1070
     0
1002
}
1002
{
1000
MANEDIT
1070
     0
1002
}
1002
{
1000
NOSEL
1070
     0
1002
}
1002
{
1000
BEHIND
1070
     0
1002
}
1002
{
1000
OTHER
1070
     0
1002
}
1002
{
1000
REACTOR
1002
}
  0
LINE
  5
4811
  8
247
  6
CONTINUOUS
 10
9.7000000000198874
 20
-32.937159234322408
 30
0.0
 11
9.7000000000198874
 21
-34.244851541962412
 31
0.0
  0
LINE
  5
4812
  8
247
  6
CONTINUOUS
 10
6.7000000001398901
 20
-33.384615384720412
 30
0.0
 11
6.7000000001398909
 21
-32.076923077080409
 31
0.0
  0
ARC
  5
4813
  8
247
  6
CONTINUOUS
 10
8.6820242326654462
 20
-32.560919636547389
 30
0.0
 40
0.5640818586791229
 50
65.990941652530523
 51
172.26344345906949
  0
ARC
  5
4814
  8
247
  6
CONTINUOUS
 10
8.6874290391864832
 20
-33.03826268534749
 30
0.0
 40
1.0176059446230981
 50
5.701985164258133
 51
77.277338436820912
1001
GENIUS_GENOBJ-N-FIL_13
1002
{
1000
OWNER
1000
GEN
1002
}
1001
GENIUS_GENODEF_13
1002
{
1000
HIER
1070
     0
1002
}
1002
{
1000
MANEDIT
1070
     0
1002
}
1002
{
1000
NOSEL
1070
     0
1002
}
1002
{
1000
BEHIND
1070
     0
1002
}
1002
{
1000
OTHER
1070
     0
1002
}
1002
{
1000
REACTOR
1002
}
  0
LINE
  5
4815
  8
247
  6
CONTINUOUS
 10
9.7000000000198874
 20
-31.28331308054241
 30
0.0
 11
6.7000000001398909
 21
-30.42307692330041
 31
0.0
  0
LINE
  5
4816
  8
247
  6
CONTINUOUS
 10
6.7000000001398909
 20
-28.000000000320409
 30
0.0
 11
6.7000000001398909
 21
-28.565736619456999
 31
0.0
  0
LINE
  5
4817
  8
247
  6
CONTINUOUS
 10
9.7000000000198874
 20
-29.461538461800401
 30
0.0
 11
9.7000000000198874
 21
-28.846153846440409
 31
0.0
  0
ARC
  5
4818
  8
247
  6
CONTINUOUS
 10
8.7832851359732729
 20
-27.708791209123259
 30
0.0
 40
2.2526500823422122
 50
202.3594881415267
 51
254.9932485428466
  0
ARC
  5
4819
  8
247
  6
CONTINUOUS
 10
7.5083126551944064
 20
-28.374069479213642
 30
0.0
 40
0.8906723995727782
 50
94.994589319075104
 51
155.16632895730359
1001
GENIUS_GENOBJ-N-FIL_13
1002
{
1000
OWNER
1000
GEN
1002
}
1001
GENIUS_GENODEF_13
1002
{
1000
HIER
1070
     0
1002
}
1002
{
1000
MANEDIT
1070
     0
1002
}
1002
{
1000
NOSEL
1070
     0
1002
}
1002
{
1000
BEHIND
1070
     0
1002
}
1002
{
1000
OTHER
1070
     0
1002
}
1002
{
1000
REACTOR
1002
}
  0
ARC
  5
481A
  8
247
  6
CONTINUOUS
 10
8.3601458886676472
 20
-29.226458886212988
 30
0.0
 40
1.392781735586712
 50
15.8460965557794
 51
82.325137004170557
  0
ARC
  5
481B
  8
247
  6
CONTINUOUS
 10
8.6592434315271802
 20
-28.642212725840778
 30
0.0
 40
1.324563662670287
 50
249.71360167049801
 51
321.78874565640751
1001
GENIUS_GENOBJ-N-FIL_13
1002
{
1000
OWNER
1000
GEN
1002
}
1001
GENIUS_GENODEF_13
1002
{
1000
HIER
1070
     0
1002
}
1002
{
1000
MANEDIT
1070
     0
1002
}
1002
{
1000
NOSEL
1070
     0
1002
}
1002
{
1000
BEHIND
1070
     0
1002
}
1002
{
1000
OTHER
1070
     0
1002
}
1002
{
1000
REACTOR
1002
}
  0
LINE
  5
481C
  8
247
  6
CONTINUOUS
 10
8.5461538462198945
 20
-28.538461538760409
 30
0.0
 11
8.5461538462198945
 21
-27.846153846480401
 31
0.0
  0
LINE
  5
481D
  8
247
  6
CONTINUOUS
 10
6.7000000001398909
 20
-34.250000000070408
 30
0.0
 11
6.7000000001398909
 21
-33.576923077020403
 31
0.0
  0
LINE
  5
481E
  8
240
  6
CONTINUOUS
 10
-21.00175044411527
 20
22.999999999999861
 30
0.0
 11
-18.114999888971042
 21
27.999999999999861
 31
0.0
  0
LINE
  5
48D9
  8
250
  6
CONTINUOUS
 10
189.9999678134958
 20
92.499996110855221
 30
0.0
 11
189.9999678134958
 21
134.0
 31
0.0
  0
LINE
  5
48DF
  8
250
  6
CONTINUOUS
 10
0.0
 20
45.499999925549872
 30
0.0
 11
0.0000000000000054
 21
134.0
 31
0.0
  0
LINE
  5
48E0
  8
250
  6
CONTINUOUS
 10
189.9999678134958
 20
92.499996110855221
 30
0.0
 11
189.9999678134958
 21
134.0
 31
0.0
  0
LINE
  5
48E1
  8
250
  6
CONTINUOUS
 10
2.2300000000000031
 20
133.0
 30
0.0
 11
187.76996781349581
 21
133.0
 31
0.0
  0
LINE
  5
48E5
  8
246
  6
PHANTOM2
 10
0.0
 20
45.499999925549872
 30
0.0
 11
0.0000000000000059
 21
141.0
 31
0.0
  0
TEXT
  5
48F2
  8
250
  6
CONTINUOUS
 10
90.799983906747912
 20
134.0
 30
0.0
 40
2.799999999999998
  1
190
  0
LINE
  5
48F3
  8
250
  6
CONTINUOUS
 10
187.76996781349581
 20
133.37166666666661
 30
0.0
 11
189.9999678134958
 21
133.0
 31
0.0
  0
LINE
  5
48F4
  8
250
  6
CONTINUOUS
 10
187.76996781349581
 20
132.6283333333333
 30
0.0
 11
189.9999678134958
 21
133.0
 31
0.0
  0
LINE
  5
48F5
  8
250
  6
CONTINUOUS
 10
189.9999678134958
 20
133.0
 30
0.0
 11
187.76996781349581
 21
133.0
 31
0.0
  0
LINE
  5
48F6
  8
250
  6
CONTINUOUS
 10
2.2300000000000031
 20
132.6283333333333
 30
0.0
 11
0.0000000000000054
 21
133.0
 31
0.0
  0
LINE
  5
48F7
  8
250
  6
CONTINUOUS
 10
2.2300000000000031
 20
133.37166666666661
 30
0.0
 11
0.0000000000000054
 21
133.0
 31
0.0
  0
LINE
  5
48F8
  8
250
  6
CONTINUOUS
 10
0.0000000000000054
 20
133.0
 30
0.0
 11
2.2300000000000031
 21
133.0
 31
0.0
  0
LINE
  5
48FD
  8
246
  6
PHANTOM2
 10
2.2300000000000031
 20
139.6283333333333
 30
0.0
 11
0.0000000000000058
 21
140.0
 31
0.0
  0
LINE
  5
48FE
  8
246
  6
PHANTOM2
 10
2.2300000000000031
 20
140.37166666666661
 30
0.0
 11
0.0000000000000058
 21
140.0
 31
0.0
  0
LINE
  5
48FF
  8
246
  6
PHANTOM2
 10
0.0000000000000058
 20
140.0
 30
0.0
 11
2.2300000000000031
 21
140.0
 31
0.0
  0
LINE
  5
490D
  8
250
  6
CONTINUOUS
 10
28.150827537748
 20
-61.844120214621647
 30
0.0
 11
80.752490498962743
 21
-61.844120214621647
 31
0.0
  0
TEXT
  5
490E
  8
250
  6
CONTINUOUS
 10
27.948090855574321
 20
-60.288727953879679
 30
0.0
 40
2.799999999999998
  1
CKB7-SLN200ALDP-190
  7
ACJISTS
  0
LINE
  5
490F
  8
250
  6
CONTINUOUS
 10
80.752490498962743
 20
-61.844120214621647
 30
0.0
 11
91.805704372067282
 21
-46.797214446177641
 31
0.0
  0
LINE
  5
4910
  8
250
  6
CONTINUOUS
 10
91.805704372067282
 20
-46.797214446177641
 30
0.0
 11
93.125906385806488
 21
-45.00000365082866
 31
0.0
  0
LINE
  5
4911
  8
250
  6
CONTINUOUS
 10
92.042311660910343
 20
-46.971022337830867
 30
0.0
 11
93.125906385806488
 21
-45.00000365082866
 31
0.0
  0
LINE
  5
4912
  8
250
  6
CONTINUOUS
 10
93.125906385806488
 20
-45.00000365082866
 30
0.0
 11
91.569097083224278
 21
-46.62340655452445
 31
0.0
  0
LINE
  5
5114
  8
246
  6
PHANTOM2
 10
190.99996786099311
 20
92.999998137412575
 30
0.0
 11
190.99996786099311
 21
87.523299858031805
 31
0.0
  0
LINE
  5
5115
  8
246
  6
PHANTOM2
 10
190.99996786099311
 20
-93.000001862586728
 30
0.0
 11
189.99996781349481
 21
-91.999999836028479
 31
0.0
  0
LINE
  5
5116
  8
246
  6
PHANTOM2
 10
190.99996786099311
 20
-93.000001862586728
 30
0.0
 11
205.9999660258691
 21
-93.000001862587183
 31
0.0
  0
LINE
  5
5117
  8
246
  6
PHANTOM2
 10
189.9999678134966
 20
-2.0000006835382642
 30
0.0
 11
190.99996786099371
 21
-1.000000694242785
 31
0.0
  0
LINE
  5
5118
  8
246
  6
PHANTOM2
 10
189.99996781349611
 20
-5.0000004767789772
 30
0.0
 11
211.9999676942866
 21
-5.0000004767789772
 31
0.0
  0
LINE
  5
5119
  8
246
  6
PHANTOM2
 10
211.49996854365321
 20
-1.000000694242785
 30
0.0
 11
190.99996786099371
 21
-1.000000694242785
 31
0.0
  0
LINE
  5
511A
  8
246
  6
PHANTOM2
 10
189.999967813495
 20
-87.523303583205916
 30
0.0
 11
211.9999676942864
 21
-87.523303583205916
 31
0.0
  0
LINE
  5
511B
  8
246
  6
PHANTOM2
 10
211.49996854365321
 20
0.9999969690688602
 30
0.0
 11
190.99996786099371
 21
0.9999969690686255
 31
0.0
  0
LINE
  5
511C
  8
246
  6
PHANTOM2
 10
189.99996781349611
 20
4.9999967516048081
 30
0.0
 11
211.99996769428691
 21
4.9999967516050381
 31
0.0
  0
LINE
  5
511D
  8
246
  6
PHANTOM2
 10
189.9999678134954
 20
87.523299858031805
 30
0.0
 11
211.9999676942864
 21
87.523299858031962
 31
0.0
  0
LINE
  5
511E
  8
246
  6
PHANTOM2
 10
206.00023653487821
 20
92.999998137412987
 30
0.0
 11
190.99996786099311
 21
92.999998137412575
 31
0.0
  0
LINE
  5
511F
  8
246
  6
PHANTOM2
 10
190.99996786099311
 20
92.999998137412575
 30
0.0
 11
189.9999678134958
 21
91.999996110855193
 31
0.0
  0
LINE
  5
5120
  8
246
  6
PHANTOM2
 10
190.99996786099371
 20
4.9999967516048081
 30
0.0
 11
190.99996786099371
 21
0.9999969690686255
 31
0.0
  0
LINE
  5
5121
  8
246
  6
PHANTOM2
 10
190.9999678609924
 20
-1.000000694242785
 30
0.0
 11
190.9999678609924
 21
-5.0000004767789772
 31
0.0
  0
LINE
  5
5122
  8
246
  6
PHANTOM2
 10
190.99996786099311
 20
-87.523303583205916
 30
0.0
 11
190.99996786099311
 21
-93.000001862586728
 31
0.0
  0
LINE
  5
5123
  8
246
  6
PHANTOM2
 10
211.9999676942864
 20
-9.5002723721574398
 30
0.0
 11
211.99996769428671
 21
-1.5000007179917521
 31
0.0
  0
LINE
  5
5124
  8
246
  6
PHANTOM2
 10
211.99996769428671
 20
-1.5000007179917521
 30
0.0
 11
211.49996854365321
 21
-1.000000694242785
 31
0.0
  0
LINE
  5
5125
  8
246
  6
PHANTOM2
 10
211.99996769428631
 20
-90.906292077671637
 30
0.0
 11
211.9999676942864
 21
-9.5002723721574398
 31
0.0
  0
LINE
  5
5126
  8
246
  6
PHANTOM2
 10
211.4999685436525
 20
-91.507404699863415
 30
0.0
 11
206.00023653448881
 21
-91.507404699863415
 31
0.0
  0
LINE
  5
5127
  8
246
  6
PHANTOM2
 10
206.00023653448881
 20
-91.507404699863415
 30
0.0
 11
206.00023653448881
 21
-93.000001862586799
 31
0.0
  0
LINE
  5
5128
  8
246
  6
PHANTOM2
 10
211.9999676942864
 20
90.906288352497569
 30
0.0
 11
211.99996769428691
 21
9.4999981374130886
 31
0.0
  0
LINE
  5
5129
  8
246
  6
PHANTOM2
 10
211.99996769428691
 20
1.4999969928173651
 30
0.0
 11
211.9999676942866
 21
9.4999981374130886
 31
0.0
  0
LINE
  5
512A
  8
246
  6
PHANTOM2
 10
211.49996854365261
 20
91.507400974689347
 30
0.0
 11
206.00023653448761
 21
91.507400974689347
 31
0.0
  0
LINE
  5
512B
  8
246
  6
PHANTOM2
 10
206.00023653448761
 20
91.507400974689347
 30
0.0
 11
206.00023653448761
 21
92.999998137412987
 31
0.0
  0
LINE
  5
512C
  8
246
  6
PHANTOM2
 10
205.72968300806679
 20
115.3353634376947
 30
0.0
 11
223.99634967473341
 21
115.3353634376947
 31
0.0
  0
LINE
  5
512D
  8
246
  6
PHANTOM2
 10
205.72968300806679
 20
115.3353634376947
 30
0.0
 11
213.22762578735461
 21
102.5169569205173
 31
0.0
  0
LINE
  5
512E
  8
246
  6
PHANTOM2
 10
213.22762578735461
 20
102.5169569205173
 30
0.0
 11
214.3535585723391
 21
100.5920737127103
 31
0.0
  0
LINE
  5
512F
  8
246
  6
PHANTOM2
 10
212.9742101066135
 20
102.3687250579198
 30
0.0
 11
214.3535585723391
 21
100.5920737127103
 31
0.0
  0
LINE
  5
5130
  8
246
  6
PHANTOM2
 10
214.3535585723391
 20
100.5920737127103
 30
0.0
 11
213.48104146809581
 21
102.6651887831145
 31
0.0
  0
LINE
  5
5131
  8
246
  6
PHANTOM2
 10
153.85923656426951
 20
106.7170057987875
 30
0.0
 11
188.9158109743546
 21
106.7170057987875
 31
0.0
  0
LINE
  5
5132
  8
246
  6
PHANTOM2
 10
188.9158109743546
 20
106.7170057987875
 30
0.0
 11
196.0451238530045
 21
94.909025456312264
 31
0.0
  0
LINE
  5
5133
  8
246
  6
PHANTOM2
 10
196.0451238530045
 20
94.909025456312264
 30
0.0
 11
197.19773794591271
 21
92.999999329505897
 31
0.0
  0
LINE
  5
5134
  8
246
  6
PHANTOM2
 10
195.79379579657231
 20
94.757280932903484
 30
0.0
 11
197.19773794591271
 21
92.999999329505897
 31
0.0
  0
LINE
  5
5135
  8
246
  6
PHANTOM2
 10
197.19773794591271
 20
92.999999329505897
 30
0.0
 11
196.29645190943691
 21
95.060769979721059
 31
0.0
  0
TEXT
  5
5136
  8
246
  6
PHANTOM2
 10
205.19634967473351
 20
116.7353634376947
 30
0.0
 40
2.799999999999998
  1
TW200E
  7
YOKO
  0
TEXT
  5
5137
  8
246
  6
PHANTOM2
 10
155.87793616936139
 20
108.1170057987874
 30
0.0
 40
2.799999999999998
  1
CB-TW200-AL
  7
YOKO
  0
LINE
  5
5138
  8
246
  6
PHANTOM2
 10
211.9999676942864
 20
90.906288352497569
 30
0.0
 11
211.49996854365261
 21
91.507400974689347
 31
0.0
  0
LINE
  5
5139
  8
246
  6
PHANTOM2
 10
211.4999685436525
 20
-91.507404699863415
 30
0.0
 11
211.99996769428631
 21
-90.906292077671637
 31
0.0
  0
LINE
  5
513A
  8
246
  6
PHANTOM2
 10
189.9999678135018
 20
1.999996958359465
 30
0.0
 11
190.99996786099641
 21
0.9999969690613912
 31
0.0
  0
LINE
  5
513B
  8
246
  6
PHANTOM2
 10
239.99996602535839
 20
107.5
 30
0.0
 11
239.99996602535839
 21
134.0
 31
0.0
  0
LINE
  5
513C
  8
246
  6
PHANTOM2
 10
192.2299678134957
 20
133.0
 30
0.0
 11
237.7699660253584
 21
133.0
 31
0.0
  0
LINE
  5
513D
  8
246
  6
PHANTOM2
 10
-0.0000000000000028
 20
45.499999925549872
 30
0.0
 11
0.0000000000000031
 21
141.0
 31
0.0
  0
LINE
  5
513E
  8
246
  6
PHANTOM2
 10
239.99996602535839
 20
107.5
 30
0.0
 11
239.99996602535839
 21
141.0
 31
0.0
  0
LINE
  5
513F
  8
246
  6
PHANTOM2
 10
2.23
 20
140.0
 30
0.0
 11
237.7699660253584
 21
140.0
 31
0.0
  0
TEXT
  5
5140
  8
246
  6
PHANTOM2
 10
212.33330025276041
 20
134.0
 30
0.0
 40
2.799999999999998
  1
(50)
  0
LINE
  5
5141
  8
246
  6
PHANTOM2
 10
237.7699660253584
 20
133.37166666666661
 30
0.0
 11
239.99996602535839
 21
133.0
 31
0.0
  0
LINE
  5
5142
  8
246
  6
PHANTOM2
 10
237.7699660253584
 20
132.6283333333333
 30
0.0
 11
239.99996602535839
 21
133.0
 31
0.0
  0
LINE
  5
5143
  8
246
  6
PHANTOM2
 10
239.99996602535839
 20
133.0
 30
0.0
 11
237.7699660253584
 21
133.0
 31
0.0
  0
LINE
  5
5144
  8
246
  6
PHANTOM2
 10
192.2299678134957
 20
132.6283333333333
 30
0.0
 11
189.9999678134958
 21
133.0
 31
0.0
  0
LINE
  5
5145
  8
246
  6
PHANTOM2
 10
192.2299678134957
 20
133.37166666666661
 30
0.0
 11
189.9999678134958
 21
133.0
 31
0.0
  0
LINE
  5
5146
  8
246
  6
PHANTOM2
 10
189.9999678134958
 20
133.0
 30
0.0
 11
192.2299678134957
 21
133.0
 31
0.0
  0
TEXT
  5
5147
  8
246
  6
PHANTOM2
 10
115.9999830126791
 20
141.0
 30
0.0
 40
2.799999999999998
  1
(240)
  0
LINE
  5
5148
  8
246
  6
PHANTOM2
 10
237.7699660253584
 20
140.37166666666661
 30
0.0
 11
239.99996602535839
 21
140.0
 31
0.0
  0
LINE
  5
5149
  8
246
  6
PHANTOM2
 10
237.7699660253584
 20
139.6283333333333
 30
0.0
 11
239.99996602535839
 21
140.0
 31
0.0
  0
LINE
  5
514A
  8
246
  6
PHANTOM2
 10
239.99996602535839
 20
140.0
 30
0.0
 11
237.7699660253584
 21
140.0
 31
0.0
  0
LINE
  5
514B
  8
246
  6
PHANTOM2
 10
2.23
 20
139.6283333333333
 30
0.0
 11
0.000000000000003
 21
140.0
 31
0.0
  0
LINE
  5
514C
  8
246
  6
PHANTOM2
 10
2.23
 20
140.37166666666661
 30
0.0
 11
0.000000000000003
 21
140.0
 31
0.0
  0
LINE
  5
514D
  8
246
  6
PHANTOM2
 10
0.000000000000003
 20
140.0
 30
0.0
 11
2.23
 21
140.0
 31
0.0
  0
LINE
  5
514E
  8
246
  6
PHANTOM2
 10
218.21616329557401
 20
100.5000194895398
 30
0.0
 11
221.0210273005257
 21
100.5000194895398
 31
0.0
  0
LINE
  5
514F
  8
246
  6
PHANTOM2
 10
223.99996602535771
 20
-9.4999999999999751
 30
0.0
 11
224.9999646047616
 21
-10.49999857940427
 31
0.0
  0
LINE
  5
5150
  8
246
  6
PHANTOM2
 10
227.29996602535689
 20
-105.03051941923241
 30
0.0
 11
226.98323667807369
 21
-104.9746714897241
 31
0.0
  0
LINE
  5
5151
  8
246
  6
PHANTOM2
 10
239.70996602535701
 20
-89.868062729858494
 30
0.0
 11
239.70996602535701
 21
-106.0269836572303
 31
0.0
  0
ARC
  5
5152
  8
246
  6
PHANTOM2
 10
239.19996602535679
 20
-95.928764608068079
 30
0.0
 40
0.8000000000000153
 50
0.0
 51
50.394347606170598
  0
ARC
  5
5153
  8
246
  6
PHANTOM2
 10
239.19996602535679
 20
-107.2
 30
0.0
 40
0.8000000000000046
 50
259.99999999998158
 51
0.0
  0
ARC
  5
5154
  8
246
  6
PHANTOM2
 10
228.09996602535699
 20
-105.2427705141358
 30
0.0
 40
0.7999999999999901
 50
180.0
 51
260.00000000000148
  0
LINE
  5
5155
  8
246
  6
PHANTOM2
 10
239.06104748322329
 20
-107.9878462024096
 30
0.0
 11
227.9610474832231
 21
-106.0306167165455
 31
0.0
  0
LINE
  5
5156
  8
246
  6
PHANTOM2
 10
239.999966025357
 20
-95.928764608068079
 30
0.0
 11
239.999966025357
 21
-107.2
 31
0.0
  0
LINE
  5
5157
  8
246
  6
PHANTOM2
 10
227.29996602535689
 20
-105.2427705141358
 30
0.0
 11
227.29996602535621
 21
-105.03051941923221
 31
0.0
  0
LINE
  5
5158
  8
246
  6
PHANTOM2
 10
205.9999660259185
 20
-100.50001948954061
 30
0.0
 11
205.9999660258691
 21
-93.000001862587183
 31
0.0
  0
LINE
  5
5159
  8
246
  6
PHANTOM2
 10
223.99996602535771
 20
-9.4999999999999751
 30
0.0
 11
211.99996514632841
 21
-9.4999999999999751
 31
0.0
  0
LINE
  5
515A
  8
246
  6
PHANTOM2
 10
224.9999646047616
 20
-10.49999857940427
 30
0.0
 11
239.70996602535701
 21
-89.868062729858494
 31
0.0
  0
LINE
  5
515B
  8
246
  6
PHANTOM2
 10
206.59996602535739
 20
99.016482023861684
 30
0.0
 11
206.59996602535739
 21
91.507402837276572
 31
0.0
  0
LINE
  5
515C
  8
246
  6
PHANTOM2
 10
205.99996602587169
 20
92.999999999999986
 30
0.0
 11
205.9999660259098
 21
99.105707675218611
 31
0.0
  0
LINE
  5
515D
  8
246
  6
PHANTOM2
 10
224.9999652510493
 20
90.460076856386195
 30
0.0
 11
224.9999652510501
 21
10.51750886440267
 31
0.0
  0
LINE
  5
515E
  8
246
  6
PHANTOM2
 10
223.99996525105001
 20
9.5175088644026644
 30
0.0
 11
223.99996525104919
 21
89.199598252772986
 31
0.0
  0
LINE
  5
515F
  8
246
  6
PHANTOM2
 10
239.70996857331431
 20
89.868062729858565
 30
0.0
 11
229.49996857348791
 21
34.779833178243003
 31
0.0
  0
LINE
  5
5160
  8
246
  6
PHANTOM2
 10
229.49996602553091
 20
26.0
 30
0.0
 11
229.49996602553091
 21
34.7798331782462
 31
0.0
  0
LINE
  5
5161
  8
246
  6
PHANTOM2
 10
223.99996602535791
 20
9.5000000000000604
 30
0.0
 11
211.99996514632861
 21
9.5000000000002913
 31
0.0
  0
LINE
  5
5162
  8
246
  6
PHANTOM2
 10
223.99996602535791
 20
9.5000000000000604
 30
0.0
 11
224.99996460476169
 21
10.49999857940384
 31
0.0
  0
LINE
  5
5163
  8
246
  6
PHANTOM2
 10
228.49996602553091
 20
25.0
 30
0.0
 11
228.15073193408321
 21
25.0
 31
0.0
  0
ARC
  5
5164
  8
246
  6
PHANTOM2
 10
228.49996602553091
 20
26.0
 30
0.0
 40
1.0
 50
270.0
 51
0.0
  0
LINE
  5
5165
  8
246
  6
PHANTOM2
 10
229.49996602553091
 20
40.0
 30
0.0
 11
229.49996602553091
 21
34.779833178243003
 31
0.0
  0
LINE
  5
5166
  8
246
  6
PHANTOM2
 10
205.99996602590889
 20
99.016479521989879
 30
0.0
 11
217.1261080211012
 21
99.016479521989879
 31
0.0
  0
LINE
  5
5167
  8
246
  6
PHANTOM2
 10
239.9999660253572
 20
95.928764608068164
 30
0.0
 11
239.9999660253572
 21
107.2
 31
0.0
  0
LINE
  5
5168
  8
246
  6
PHANTOM2
 10
227.29996602535701
 20
105.2427705141358
 30
0.0
 11
227.29996602535701
 21
93.971535122203974
 31
0.0
  0
LINE
  5
5169
  8
246
  6
PHANTOM2
 10
228.2388845674908
 20
93.183688919794406
 30
0.0
 11
239.33888456749091
 21
95.140918405658667
 31
0.0
  0
LINE
  5
516A
  8
246
  6
PHANTOM2
 10
217.1261080211012
 20
99.016479521989879
 30
0.0
 11
223.99996525104919
 21
89.199598252772986
 31
0.0
  0
LINE
  5
516B
  8
246
  6
PHANTOM2
 10
224.99996541496191
 20
94.817507386207595
 30
0.0
 11
224.99996541496191
 21
88.778029501438184
 31
0.0
  0
LINE
  5
516C
  8
246
  6
PHANTOM2
 10
223.99996525104919
 20
89.199598252772986
 30
0.0
 11
224.99996541496191
 21
88.778029501438184
 31
0.0
  0
LINE
  5
516D
  8
246
  6
PHANTOM2
 10
221.0210273005257
 20
100.5000194895398
 30
0.0
 11
224.99996541496191
 21
94.817507386207595
 31
0.0
  0
POLYLINE
  5
516E
  8
246
  6
PHANTOM2
 66
     1
 10
0.0
 20
0.0
 30
0.0
 70
     8
  0
VERTEX
  5
516F
  8
246
  6
PHANTOM2
 10
221.36356347740039
 20
100.0110000000001
 30
0.0
 70
    32
  0
VERTEX
  5
5170
  8
246
  6
PHANTOM2
 10
221.3287634774002
 20
100.005
 30
0.0
 70
    32
  0
VERTEX
  5
5171
  8
246
  6
PHANTOM2
 10
221.2940634774001
 20
99.999000000000095
 30
0.0
 70
    32
  0
VERTEX
  5
5172
  8
246
  6
PHANTOM2
 10
221.25936347740031
 20
99.994000000000085
 30
0.0
 70
    32
  0
VERTEX
  5
5173
  8
246
  6
PHANTOM2
 10
221.2246634774003
 20
99.988000000000085
 30
0.0
 70
    32
  0
VERTEX
  5
5174
  8
246
  6
PHANTOM2
 10
221.19006347740029
 20
99.982000000000127
 30
0.0
 70
    32
  0
VERTEX
  5
5175
  8
246
  6
PHANTOM2
 10
221.1554634774003
 20
99.97600000000007
 30
0.0
 70
    32
  0
VERTEX
  5
5176
  8
246
  6
PHANTOM2
 10
221.12086347740029
 20
99.970000000000056
 30
0.0
 70
    32
  0
VERTEX
  5
5177
  8
246
  6
PHANTOM2
 10
221.08626347740019
 20
99.964000000000084
 30
0.0
 70
    32
  0
VERTEX
  5
5178
  8
246
  6
PHANTOM2
 10
221.05166347740021
 20
99.958000000000084
 30
0.0
 70
    32
  0
VERTEX
  5
5179
  8
246
  6
PHANTOM2
 10
221.01716347740029
 20
99.95200000000014
 30
0.0
 70
    32
  0
VERTEX
  5
517A
  8
246
  6
PHANTOM2
 10
220.98266347740031
 20
99.946000000000083
 30
0.0
 70
    32
  0
VERTEX
  5
517B
  8
246
  6
PHANTOM2
 10
220.9482634774003
 20
99.940000000000083
 30
0.0
 70
    32
  0
VERTEX
  5
517C
  8
246
  6
PHANTOM2
 10
220.91376347740021
 20
99.934000000000083
 30
0.0
 70
    32
  0
VERTEX
  5
517D
  8
246
  6
PHANTOM2
 10
220.87936347740029
 20
99.928000000000097
 30
0.0
 70
    32
  0
VERTEX
  5
517E
  8
246
  6
PHANTOM2
 10
220.84496347740031
 20
99.922000000000139
 30
0.0
 70
    32
  0
VERTEX
  5
517F
  8
246
  6
PHANTOM2
 10
220.81056347740019
 20
99.916000000000082
 30
0.0
 70
    32
  0
VERTEX
  5
5180
  8
246
  6
PHANTOM2
 10
220.77626347740031
 20
99.910000000000082
 30
0.0
 70
    32
  0
VERTEX
  5
5181
  8
246
  6
PHANTOM2
 10
220.74196347740019
 20
99.903000000000105
 30
0.0
 70
    32
  0
VERTEX
  5
5182
  8
246
  6
PHANTOM2
 10
220.7076634774003
 20
99.897000000000077
 30
0.0
 70
    32
  0
VERTEX
  5
5183
  8
246
  6
PHANTOM2
 10
220.6733634774003
 20
99.891000000000076
 30
0.0
 70
    32
  0
VERTEX
  5
5184
  8
246
  6
PHANTOM2
 10
220.63916347740039
 20
99.884000000000071
 30
0.0
 70
    32
  0
VERTEX
  5
5185
  8
246
  6
PHANTOM2
 10
220.6049634774001
 20
99.878000000000071
 30
0.0
 70
    32
  0
VERTEX
  5
5186
  8
246
  6
PHANTOM2
 10
220.57076347740031
 20
99.872000000000099
 30
0.0
 70
    32
  0
VERTEX
  5
5187
  8
246
  6
PHANTOM2
 10
220.53656347740039
 20
99.86500000000008
 30
0.0
 70
    32
  0
VERTEX
  5
5188
  8
246
  6
PHANTOM2
 10
220.5024634774002
 20
99.859000000000066
 30
0.0
 70
    32
  0
VERTEX
  5
5189
  8
246
  6
PHANTOM2
 10
220.46836347740029
 20
99.852000000000089
 30
0.0
 70
    32
  0
VERTEX
  5
518A
  8
246
  6
PHANTOM2
 10
220.43426347740021
 20
99.846000000000089
 30
0.0
 70
    32
  0
VERTEX
  5
518B
  8
246
  6
PHANTOM2
 10
220.4001634774003
 20
99.83900000000007
 30
0.0
 70
    32
  0
VERTEX
  5
518C
  8
246
  6
PHANTOM2
 10
220.36616347740031
 20
99.833000000000055
 30
0.0
 70
    32
  0
VERTEX
  5
518D
  8
246
  6
PHANTOM2
 10
220.33216347740029
 20
99.826000000000107
 30
0.0
 70
    32
  0
VERTEX
  5
518E
  8
246
  6
PHANTOM2
 10
220.29816347740021
 20
99.819000000000102
 30
0.0
 70
    32
  0
VERTEX
  5
518F
  8
246
  6
PHANTOM2
 10
220.2641634774003
 20
99.812000000000083
 30
0.0
 70
    32
  0
VERTEX
  5
5190
  8
246
  6
PHANTOM2
 10
220.2302634774002
 20
99.806000000000097
 30
0.0
 70
    32
  0
VERTEX
  5
5191
  8
246
  6
PHANTOM2
 10
220.19636347740021
 20
99.799000000000063
 30
0.0
 70
    32
  0
VERTEX
  5
5192
  8
246
  6
PHANTOM2
 10
220.16246347740019
 20
99.792000000000073
 30
0.0
 70
    32
  0
VERTEX
  5
5193
  8
246
  6
PHANTOM2
 10
220.12866347740021
 20
99.785000000000096
 30
0.0
 70
    32
  0
VERTEX
  5
5194
  8
246
  6
PHANTOM2
 10
220.0948634774002
 20
99.778000000000091
 30
0.0
 70
    32
  0
VERTEX
  5
5195
  8
246
  6
PHANTOM2
 10
220.06106347740021
 20
99.772000000000105
 30
0.0
 70
    32
  0
VERTEX
  5
5196
  8
246
  6
PHANTOM2
 10
220.02726347740031
 20
99.765000000000086
 30
0.0
 70
    32
  0
VERTEX
  5
5197
  8
246
  6
PHANTOM2
 10
219.99346347740021
 20
99.758000000000081
 30
0.0
 70
    32
  0
VERTEX
  5
5198
  8
246
  6
PHANTOM2
 10
219.9597634774002
 20
99.751000000000104
 30
0.0
 70
    32
  0
VERTEX
  5
5199
  8
246
  6
PHANTOM2
 10
219.92606347740019
 20
99.744000000000085
 30
0.0
 70
    32
  0
VERTEX
  5
519A
  8
246
  6
PHANTOM2
 10
219.89236347740021
 20
99.73700000000008
 30
0.0
 70
    32
  0
VERTEX
  5
519B
  8
246
  6
PHANTOM2
 10
219.8587634774002
 20
99.729000000000084
 30
0.0
 70
    32
  0
VERTEX
  5
519C
  8
246
  6
PHANTOM2
 10
219.8251634774002
 20
99.722000000000065
 30
0.0
 70
    32
  0
VERTEX
  5
519D
  8
246
  6
PHANTOM2
 10
219.79156347740019
 20
99.715000000000089
 30
0.0
 70
    32
  0
VERTEX
  5
519E
  8
246
  6
PHANTOM2
 10
219.75796347740021
 20
99.708000000000069
 30
0.0
 70
    32
  0
VERTEX
  5
519F
  8
246
  6
PHANTOM2
 10
219.72446347740029
 20
99.701000000000093
 30
0.0
 70
    32
  0
VERTEX
  5
51A0
  8
246
  6
PHANTOM2
 10
219.69086347740031
 20
99.693000000000083
 30
0.0
 70
    32
  0
VERTEX
  5
51A1
  8
246
  6
PHANTOM2
 10
219.6573634774002
 20
99.686000000000092
 30
0.0
 70
    32
  0
VERTEX
  5
51A2
  8
246
  6
PHANTOM2
 10
219.6239634774002
 20
99.679000000000073
 30
0.0
 70
    32
  0
VERTEX
  5
51A3
  8
246
  6
PHANTOM2
 10
219.59046347740019
 20
99.671000000000092
 30
0.0
 70
    32
  0
VERTEX
  5
51A4
  8
246
  6
PHANTOM2
 10
219.55706347740039
 20
99.664000000000073
 30
0.0
 70
    32
  0
VERTEX
  5
51A5
  8
246
  6
PHANTOM2
 10
219.52366347740031
 20
99.657000000000082
 30
0.0
 70
    32
  0
VERTEX
  5
51A6
  8
246
  6
PHANTOM2
 10
219.49036347740031
 20
99.649000000000072
 30
0.0
 70
    32
  0
VERTEX
  5
51A7
  8
246
  6
PHANTOM2
 10
219.4570634774002
 20
99.642000000000081
 30
0.0
 70
    32
  0
VERTEX
  5
51A8
  8
246
  6
PHANTOM2
 10
219.4236634774002
 20
99.634000000000071
 30
0.0
 70
    32
  0
VERTEX
  5
51A9
  8
246
  6
PHANTOM2
 10
219.3904634774002
 20
99.627000000000081
 30
0.0
 70
    32
  0
VERTEX
  5
51AA
  8
246
  6
PHANTOM2
 10
219.35716347740029
 20
99.619000000000071
 30
0.0
 70
    32
  0
VERTEX
  5
51AB
  8
246
  6
PHANTOM2
 10
219.3239634774003
 20
99.611000000000075
 30
0.0
 70
    32
  0
VERTEX
  5
51AC
  8
246
  6
PHANTOM2
 10
219.2907634774003
 20
99.60400000000007
 30
0.0
 70
    32
  0
VERTEX
  5
51AD
  8
246
  6
PHANTOM2
 10
219.25756347740011
 20
99.596000000000075
 30
0.0
 70
    32
  0
VERTEX
  5
51AE
  8
246
  6
PHANTOM2
 10
219.22436347740029
 20
99.588000000000093
 30
0.0
 70
    32
  0
VERTEX
  5
51AF
  8
246
  6
PHANTOM2
 10
219.19126347740021
 20
99.581000000000074
 30
0.0
 70
    32
  0
VERTEX
  5
51B0
  8
246
  6
PHANTOM2
 10
219.15816347740019
 20
99.573000000000107
 30
0.0
 70
    32
  0
VERTEX
  5
51B1
  8
246
  6
PHANTOM2
 10
219.12506347740029
 20
99.565000000000083
 30
0.0
 70
    32
  0
VERTEX
  5
51B2
  8
246
  6
PHANTOM2
 10
219.0920634774003
 20
99.557000000000073
 30
0.0
 70
    32
  0
VERTEX
  5
51B3
  8
246
  6
PHANTOM2
 10
219.0590634774002
 20
99.549000000000092
 30
0.0
 70
    32
  0
VERTEX
  5
51B4
  8
246
  6
PHANTOM2
 10
219.0260634774003
 20
99.541000000000096
 30
0.0
 70
    32
  0
VERTEX
  5
51B5
  8
246
  6
PHANTOM2
 10
218.9930634774002
 20
99.533000000000072
 30
0.0
 70
    32
  0
VERTEX
  5
51B6
  8
246
  6
PHANTOM2
 10
218.9601634774001
 20
99.525000000000077
 30
0.0
 70
    32
  0
VERTEX
  5
51B7
  8
246
  6
PHANTOM2
 10
218.92716347740009
 20
99.517000000000095
 30
0.0
 70
    32
  0
VERTEX
  5
51B8
  8
246
  6
PHANTOM2
 10
218.89436347740019
 20
99.509000000000071
 30
0.0
 70
    32
  0
VERTEX
  5
51B9
  8
246
  6
PHANTOM2
 10
218.86146347740021
 20
99.501000000000076
 30
0.0
 70
    32
  0
VERTEX
  5
51BA
  8
246
  6
PHANTOM2
 10
218.82866347740011
 20
99.49300000000008
 30
0.0
 70
    32
  0
VERTEX
  5
51BB
  8
246
  6
PHANTOM2
 10
218.7957634774003
 20
99.485000000000085
 30
0.0
 70
    32
  0
VERTEX
  5
51BC
  8
246
  6
PHANTOM2
 10
218.76306347740021
 20
99.477000000000089
 30
0.0
 70
    32
  0
VERTEX
  5
51BD
  8
246
  6
PHANTOM2
 10
218.7302634774002
 20
99.469000000000094
 30
0.0
 70
    32
  0
VERTEX
  5
51BE
  8
246
  6
PHANTOM2
 10
218.69756347740019
 20
99.460000000000093
 30
0.0
 70
    32
  0
VERTEX
  5
51BF
  8
246
  6
PHANTOM2
 10
218.6648634774003
 20
99.452000000000098
 30
0.0
 70
    32
  0
VERTEX
  5
51C0
  8
246
  6
PHANTOM2
 10
218.6321634774003
 20
99.444000000000074
 30
0.0
 70
    32
  0
VERTEX
  5
51C1
  8
246
  6
PHANTOM2
 10
218.59946347740029
 20
99.435000000000102
 30
0.0
 70
    32
  0
VERTEX
  5
51C2
  8
246
  6
PHANTOM2
 10
218.56686347740029
 20
99.427000000000092
 30
0.0
 70
    32
  0
VERTEX
  5
51C3
  8
246
  6
PHANTOM2
 10
218.53426347740029
 20
99.419000000000096
 30
0.0
 70
    32
  0
VERTEX
  5
51C4
  8
246
  6
PHANTOM2
 10
218.50166347740031
 20
99.410000000000096
 30
0.0
 70
    32
  0
VERTEX
  5
51C5
  8
246
  6
PHANTOM2
 10
218.46916347740029
 20
99.402000000000072
 30
0.0
 70
    32
  0
VERTEX
  5
51C6
  8
246
  6
PHANTOM2
 10
218.4366634774002
 20
99.393000000000086
 30
0.0
 70
    32
  0
VERTEX
  5
51C7
  8
246
  6
PHANTOM2
 10
218.4041634774002
 20
99.385000000000105
 30
0.0
 70
    32
  0
VERTEX
  5
51C8
  8
246
  6
PHANTOM2
 10
218.37166347740029
 20
99.376000000000104
 30
0.0
 70
    32
  0
VERTEX
  5
51C9
  8
246
  6
PHANTOM2
 10
218.33916347740021
 20
99.36800000000008
 30
0.0
 70
    32
  0
VERTEX
  5
51CA
  8
246
  6
PHANTOM2
 10
218.3067634774003
 20
99.359000000000094
 30
0.0
 70
    32
  0
VERTEX
  5
51CB
  8
246
  6
PHANTOM2
 10
218.2743634774003
 20
99.350000000000094
 30
0.0
 70
    32
  0
VERTEX
  5
51CC
  8
246
  6
PHANTOM2
 10
218.24206347740019
 20
99.342000000000127
 30
0.0
 70
    32
  0
VERTEX
  5
51CD
  8
246
  6
PHANTOM2
 10
218.2096634774002
 20
99.333000000000084
 30
0.0
 70
    32
  0
VERTEX
  5
51CE
  8
246
  6
PHANTOM2
 10
218.17736347740029
 20
99.324000000000083
 30
0.0
 70
    32
  0
VERTEX
  5
51CF
  8
246
  6
PHANTOM2
 10
218.1450634774003
 20
99.315000000000083
 30
0.0
 70
    32
  0
VERTEX
  5
51D0
  8
246
  6
PHANTOM2
 10
218.11286347740011
 20
99.306000000000083
 30
0.0
 70
    32
  0
VERTEX
  5
51D1
  8
246
  6
PHANTOM2
 10
218.08066347740021
 20
99.298000000000073
 30
0.0
 70
    32
  0
VERTEX
  5
51D2
  8
246
  6
PHANTOM2
 10
218.0484634774003
 20
99.289000000000073
 30
0.0
 70
    32
  0
VERTEX
  5
51D3
  8
246
  6
PHANTOM2
 10
218.01626347740029
 20
99.280000000000072
 30
0.0
 70
    32
  0
VERTEX
  5
51D4
  8
246
  6
PHANTOM2
 10
217.98406347740021
 20
99.2710000000001
 30
0.0
 70
    32
  0
VERTEX
  5
51D5
  8
246
  6
PHANTOM2
 10
217.9519634774002
 20
99.262000000000086
 30
0.0
 70
    32
  0
VERTEX
  5
51D6
  8
246
  6
PHANTOM2
 10
217.9198634774003
 20
99.253000000000071
 30
0.0
 70
    32
  0
VERTEX
  5
51D7
  8
246
  6
PHANTOM2
 10
217.88776347740031
 20
99.244000000000071
 30
0.0
 70
    32
  0
VERTEX
  5
51D8
  8
246
  6
PHANTOM2
 10
217.8557634774003
 20
99.23500000000007
 30
0.0
 70
    32
  0
VERTEX
  5
51D9
  8
246
  6
PHANTOM2
 10
217.82376347740029
 20
99.22500000000008
 30
0.0
 70
    32
  0
VERTEX
  5
51DA
  8
246
  6
PHANTOM2
 10
217.79176347740031
 20
99.216000000000093
 30
0.0
 70
    32
  0
VERTEX
  5
51DB
  8
246
  6
PHANTOM2
 10
217.75976347740021
 20
99.207000000000093
 30
0.0
 70
    32
  0
VERTEX
  5
51DC
  8
246
  6
PHANTOM2
 10
217.72786347740021
 20
99.198000000000093
 30
0.0
 70
    32
  0
VERTEX
  5
51DD
  8
246
  6
PHANTOM2
 10
217.69596347740031
 20
99.189000000000064
 30
0.0
 70
    32
  0
VERTEX
  5
51DE
  8
246
  6
PHANTOM2
 10
217.6640634774003
 20
99.179000000000102
 30
0.0
 70
    32
  0
VERTEX
  5
51DF
  8
246
  6
PHANTOM2
 10
217.6321634774001
 20
99.170000000000087
 30
0.0
 70
    32
  0
VERTEX
  5
51E0
  8
246
  6
PHANTOM2
 10
217.60036347740021
 20
99.161000000000072
 30
0.0
 70
    32
  0
VERTEX
  5
51E1
  8
246
  6
PHANTOM2
 10
217.56856347740029
 20
99.151000000000096
 30
0.0
 70
    32
  0
VERTEX
  5
51E2
  8
246
  6
PHANTOM2
 10
217.53676347740031
 20
99.142000000000081
 30
0.0
 70
    32
  0
VERTEX
  5
51E3
  8
246
  6
PHANTOM2
 10
217.5050634774002
 20
99.132000000000104
 30
0.0
 70
    32
  0
VERTEX
  5
51E4
  8
246
  6
PHANTOM2
 10
217.4732634774002
 20
99.123000000000076
 30
0.0
 70
    32
  0
VERTEX
  5
51E5
  8
246
  6
PHANTOM2
 10
217.44156347740019
 20
99.113000000000071
 30
0.0
 70
    32
  0
VERTEX
  5
51E6
  8
246
  6
PHANTOM2
 10
217.4099634774002
 20
99.104000000000084
 30
0.0
 70
    32
  0
VERTEX
  5
51E7
  8
246
  6
PHANTOM2
 10
217.37826347740031
 20
99.094000000000094
 30
0.0
 70
    32
  0
VERTEX
  5
51E8
  8
246
  6
PHANTOM2
 10
217.3466634774002
 20
99.085000000000093
 30
0.0
 70
    32
  0
VERTEX
  5
51E9
  8
246
  6
PHANTOM2
 10
217.31506347740029
 20
99.075000000000117
 30
0.0
 70
    32
  0
VERTEX
  5
51EA
  8
246
  6
PHANTOM2
 10
217.28356347740029
 20
99.065000000000083
 30
0.0
 70
    32
  0
VERTEX
  5
51EB
  8
246
  6
PHANTOM2
 10
217.2519634774003
 20
99.056000000000083
 30
0.0
 70
    32
  0
VERTEX
  5
51EC
  8
246
  6
PHANTOM2
 10
217.2204634774003
 20
99.046000000000092
 30
0.0
 70
    32
  0
VERTEX
  5
51ED
  8
246
  6
PHANTOM2
 10
217.18896347740011
 20
99.036000000000072
 30
0.0
 70
    32
  0
VERTEX
  5
51EE
  8
246
  6
PHANTOM2
 10
217.15756347740029
 20
99.026000000000082
 30
0.0
 70
    32
  0
VERTEX
  5
51EF
  8
246
  6
PHANTOM2
 10
217.12606347740021
 20
99.016000000000091
 30
0.0
 70
    32
  0
SEQEND
  5
51F0
  8
246
  6
PHANTOM2
  0
LINE
  5
51F1
  8
246
  6
PHANTOM2
 10
218.2161428635923
 20
100.49914506077749
 30
0.0
 11
218.2161428635923
 21
100.5000018775461
 31
0.0
  0
ARC
  5
51F2
  8
246
  6
PHANTOM2
 10
228.09996602535739
 20
93.971535122203974
 30
0.0
 40
0.7999999999999901
 50
180.0
 51
280.00000000001842
  0
LINE
  5
51F3
  8
246
  6
PHANTOM2
 10
239.70996602535729
 20
89.868062729858565
 30
0.0
 11
239.70996602535729
 21
95.312404323818782
 31
0.0
  0
ARC
  5
51F4
  8
246
  6
PHANTOM2
 10
239.19996602535701
 20
95.928764608068164
 30
0.0
 40
0.8000000000000153
 50
279.99999999999852
 51
309.60565239382908
  0
LINE
  5
51F5
  8
246
  6
PHANTOM2
 10
239.0610474832234
 20
107.9878462024098
 30
0.0
 11
227.9610474832235
 21
106.03061671654569
 31
0.0
  0
ARC
  5
51F6
  8
246
  6
PHANTOM2
 10
228.09996602535739
 20
105.2427705141358
 30
0.0
 40
0.7999999999999901
 50
99.999999999998565
 51
180.0
  0
LINE
  5
51F7
  8
246
  6
PHANTOM2
 10
227.29996602535701
 20
105.03051941923481
 30
0.0
 11
226.98323667807421
 21
104.9746714897245
 31
0.0
  0
ARC
  5
51F8
  8
246
  6
PHANTOM2
 10
239.19996602535701
 20
107.2
 30
0.0
 40
0.8000000000000046
 50
0.0
 51
100.0000000000184
  0
LINE
  5
51F9
  8
246
  6
PHANTOM2
 10
238.53631784768999
 20
-107.01179141024249
 30
0.0
 11
226.9832302005278
 21
-104.9746703475581
 31
0.0
  0
ARC
  5
51FA
  8
246
  6
PHANTOM2
 10
228.0251192665294
 20
-99.065823829484884
 30
0.0
 40
6.0
 50
229.99999238711069
 51
260.00000000000148
1001
GENIUS_GENOBJ-N-FIL_13
1002
{
1000
OWNER
1000
GEN
1002
}
1001
GENIUS_GENODEF_13
1002
{
1000
HIER
1070
     0
1002
}
1002
{
1000
MANEDIT
1070
     0
1002
}
1002
{
1000
NOSEL
1070
     0
1002
}
1002
{
1000
BEHIND
1070
     0
1002
}
1002
{
1000
OTHER
1070
     0
1002
}
1002
{
1000
REACTOR
1002
}
  0
ARC
  5
51FB
  8
246
  6
PHANTOM2
 10
238.70996602535709
 20
-106.0269836572303
 30
0.0
 40
1.0
 50
260.00000000000148
 51
0.0
  0
LINE
  5
51FC
  8
246
  6
PHANTOM2
 10
224.99996602535751
 20
25.0
 30
0.0
 11
228.1507319340831
 21
25.0
 31
0.0
  0
LINE
  5
51FD
  8
246
  6
PHANTOM2
 10
227.68738105845321
 20
25.0
 30
0.0
 11
224.99996460476169
 21
10.49999857940384
 31
0.0
  0
LINE
  5
51FE
  8
246
  6
PHANTOM2
 10
205.9999660259098
 20
99.105707675218611
 30
0.0
 11
205.9999660259098
 21
100.50001948954041
 31
0.0
  0
ARC
  5
51FF
  8
246
  6
PHANTOM2
 10
239.1999660253575
 20
95.928764608068164
 30
0.0
 40
0.8000000000000153
 50
309.60565239382049
 51
0.0
  0
LINE
  5
5200
  8
246
  6
PHANTOM2
 10
228.49996602553091
 20
25.0
 30
0.0
 11
228.49996602553091
 21
40.999999999999972
 31
0.0
  0
LINE
  5
5201
  8
246
  6
PHANTOM2
 10
229.4999660255306
 20
-26.000000000000639
 30
0.0
 11
229.49996602553051
 21
-34.77983317824679
 31
0.0
  0
LINE
  5
5202
  8
246
  6
PHANTOM2
 10
228.4999660255306
 20
-25.000000000000671
 30
0.0
 11
228.15073193408301
 21
-25.000000000000671
 31
0.0
  0
ARC
  5
5203
  8
246
  6
PHANTOM2
 10
228.4999660255306
 20
-26.000000000000639
 30
0.0
 40
1.0
 50
0.0
 51
90.0
  0
LINE
  5
5204
  8
246
  6
PHANTOM2
 10
227.6873810584535
 20
-25.000000000000671
 30
0.0
 11
228.1507319340827
 21
-25.000000000000671
 31
0.0
  0
CIRCLE
  5
5205
  8
246
  6
PHANTOM2
 10
233.64996602535689
 20
100.5857675611022
 30
0.0
 40
6.3499999999998691
  0
LINE
  5
5206
  8
246
  6
PHANTOM2
 10
218.21616329557369
 20
-100.50001948954061
 30
0.0
 11
205.9999660259185
 21
-100.50001948954061
 31
0.0
  0
ARC
  5
5207
  8
246
  6
PHANTOM2
 10
218.21616329557369
 20
-106.50001948954061
 30
0.0
 40
6.0
 50
49.999992387115149
 51
90.0
1001
GENIUS_GENOBJ-N-FIL_13
1002
{
1000
OWNER
1000
GEN
1002
}
1001
GENIUS_GENODEF_13
1002
{
1000
HIER
1070
     0
1002
}
1002
{
1000
MANEDIT
1070
     0
1002
}
1002
{
1000
NOSEL
1070
     0
1002
}
1002
{
1000
BEHIND
1070
     0
1002
}
1002
{
1000
OTHER
1070
     0
1002
}
1002
{
1000
REACTOR
1002
}
  0
LINE
  5
5208
  8
246
  6
PHANTOM2
 10
222.07288956439859
 20
-101.9037533432697
 30
0.0
 11
224.16839299770439
 21
-103.66208997575561
 31
0.0
  0
ARC
  5
5209
  8
246
  6
PHANTOM2
 10
228.0251192665296
 20
99.065823829484103
 30
0.0
 40
6.0
 50
99.999999999998565
 51
130.0000076128909
1001
GENIUS_GENOBJ-N-FIL_13
1002
{
1000
OWNER
1000
GEN
1002
}
1001
GENIUS_GENODEF_13
1002
{
1000
HIER
1070
     0
1002
}
1002
{
1000
MANEDIT
1070
     0
1002
}
1002
{
1000
NOSEL
1070
     0
1002
}
1002
{
1000
BEHIND
1070
     0
1002
}
1002
{
1000
OTHER
1070
     0
1002
}
1002
{
1000
REACTOR
1002
}
  0
LINE
  5
520A
  8
246
  6
PHANTOM2
 10
218.21616329557401
 20
100.5000194895398
 30
0.0
 11
205.99996602591881
 21
100.5000194895398
 31
0.0
  0
ARC
  5
520B
  8
246
  6
PHANTOM2
 10
218.21616329557401
 20
106.5000194895397
 30
0.0
 40
6.0
 50
270.0
 51
310.00000761288931
1001
GENIUS_GENOBJ-N-FIL_13
1002
{
1000
OWNER
1000
GEN
1002
}
1001
GENIUS_GENODEF_13
1002
{
1000
HIER
1070
     0
1002
}
1002
{
1000
MANEDIT
1070
     0
1002
}
1002
{
1000
NOSEL
1070
     0
1002
}
1002
{
1000
BEHIND
1070
     0
1002
}
1002
{
1000
OTHER
1070
     0
1002
}
1002
{
1000
REACTOR
1002
}
  0
LINE
  5
520C
  8
246
  6
PHANTOM2
 10
222.07288956439899
 20
101.9037533432688
 30
0.0
 11
224.16839299770481
 21
103.66208997575499
 31
0.0
  0
LINE
  5
520D
  8
246
  6
PHANTOM2
 10
239.69996602535701
 20
108.0
 30
0.0
 11
267.0
 21
108.0
 31
0.0
  0
LINE
  5
520E
  8
246
  6
PHANTOM2
 10
239.69996602535679
 20
-108.0
 30
0.0
 11
267.0
 21
-108.0
 31
0.0
  0
LINE
  5
520F
  8
246
  6
PHANTOM2
 10
266.0
 20
105.77
 30
0.0
 11
266.0
 21
-105.77
 31
0.0
  0
TEXT
  5
5210
  8
246
  6
PHANTOM2
 10
265.00000000000011
 20
-10.99999999999995
 30
0.0
 40
2.799999999999998
  1
\U+2205200~270
 50
90.0
  0
LINE
  5
5211
  8
246
  6
PHANTOM2
 10
266.37166666666678
 20
-105.77
 30
0.0
 11
266.0
 21
-108.0
 31
0.0
  0
LINE
  5
5212
  8
246
  6
PHANTOM2
 10
265.62833333333327
 20
-105.77
 30
0.0
 11
266.0
 21
-108.0
 31
0.0
  0
LINE
  5
5213
  8
246
  6
PHANTOM2
 10
266.0
 20
-108.0
 30
0.0
 11
266.0
 21
-105.77
 31
0.0
  0
LINE
  5
5214
  8
246
  6
PHANTOM2
 10
265.62833333333327
 20
105.77
 30
0.0
 11
266.0
 21
108.0
 31
0.0
  0
LINE
  5
5215
  8
246
  6
PHANTOM2
 10
266.37166666666678
 20
105.77
 30
0.0
 11
266.0
 21
108.0
 31
0.0
  0
LINE
  5
5216
  8
246
  6
PHANTOM2
 10
266.0
 20
108.0
 30
0.0
 11
266.0
 21
105.77
 31
0.0
  0
LINE
  5
521D
  8
246
 10
189.99996781349509
 20
-91.500001028124345
 30
0.0
 11
189.99996781349481
 21
-91.999999836028479
 31
0.0
  0
LINE
  5
521F
  8
246
  6
PHANTOM2
 10
211.49996854365321
 20
0.9999969690688602
 30
0.0
 11
211.99996769428691
 21
1.4999969928173651
 31
0.0
  0
LINE
  5
5227
  8
246
  6
PHANTOM2
 10
228.49996602553091
 20
40.999999999999972
 30
0.0
 11
224.99996602535751
 21
40.999999999999972
 31
0.0
  0
ARC
  5
5228
  8
246
  6
PHANTOM2
 10
228.49996602553091
 20
40.0
 30
0.0
 40
1.0
 50
0.0
 51
90.0
  0
VIEWPORT
  5
22
 67
     1
  8
0
 10
261.51769911504419
 20
148.5
 30
0.0
 40
523.0353982300885
 41
297.0
 68
     1
 69
     1
1001
ACAD
1000
MVIEW
1002
{
1070
    16
1010
0.0
1020
0.0
1030
0.0
1010
0.0
1020
0.0
1030
1.0
1040
0.0
1040
297.0
1040
261.51769911504419
1040
148.5
1040
50.0
1040
0.0
1040
0.0
1070
     0
1070
   100
1070
     1
1070
     1
1070
     0
1070
     0
1070
     0
1070
     0
1040
0.0
1040
0.0
1040
0.0
1040
1.0
1040
1.0
1040
10.0
1040
10.0
1070
     0
1002
{
1002
}
1002
}
1001
GENIUS_GENODEF_13
1002
{
1000
HIER
1070
     0
1002
}
1002
{
1000
MANEDIT
1070
     0
1002
}
1002
{
1000
NOSEL
1070
     0
1002
}
1002
{
1000
BEHIND
1070
     0
1002
}
1002
{
1000
OTHER
1070
     0
1002
}
1002
{
1000
REACTOR
1002
}
1001
GENIUS_GENOBJ-N-SDF_13
1002
{
1000
OWNER
1000
GEN
1002
}
1001
GENIUS_GENSCREG_15
1000
PF
1040
1.0
1000
DF
1040
1.0
1000
MIN
1011
0.0
1021
0.0
1031
0.0
1021
0.0
1031
0.0
1000
MAX
1011
523.0353982300885
1021
0.0
1031
0.0
1021
297.0
1031
0.0
1000
FLAGS
1070
     4
  0
ENDSEC
  0
EOF
