  0
SECTION
  2
HEADER
  9
$ACADVER
  1
AC1009
  9
$INSBASE
 10
0.0
 20
0.0
 30
0.0
  9
$EXTMIN
 10
-55.5032054763217033
 20
-47.0000000000026077
 30
0.0
  9
$EXTMAX
 10
158.7223094199985951
 20
89.0000000000000711
 30
0.0
  9
$LIMMIN
 10
0.0
 20
0.0
  9
$LIMMAX
 10
297.0
 20
210.0
  9
$ORTHOMODE
 70
     1
  9
$REGENMODE
 70
     1
  9
$FILLMODE
 70
     1
  9
$QTEXTMODE
 70
     0
  9
$MIRRTEXT
 70
     1
  9
$DRAGMODE
 70
     2
  9
$LTSCALE
 40
10.0
  9
$OSMODE
 70
   807
  9
$ATTMODE
 70
     1
  9
$TEXTSIZE
 40
3.0
  9
$TRACEWID
 40
1.0
  9
$TEXTSTYLE
  7
YOKO
  9
$CLAYER
  8
240
  9
$CELTYPE
  6
BYLAYER
  9
$CECOLOR
 62
   256
  9
$DIMSCALE
 40
1.0
  9
$DIMASZ
 40
2.2299999999999991
  9
$DIMEXO
 40
0.5
  9
$DIMDLI
 40
7.0
  9
$DIMRND
 40
0.0
  9
$DIMDLE
 40
0.0
  9
$DIMEXE
 40
1.0
  9
$DIMTP
 40
0.0
  9
$DIMTM
 40
0.01
  9
$DIMTXT
 40
2.799999999999998
  9
$DIMCEN
 40
0.0
  9
$DIMTSZ
 40
0.0
  9
$DIMTOL
 70
     0
  9
$DIMLIM
 70
     0
  9
$DIMTIH
 70
     0
  9
$DIMTOH
 70
     0
  9
$DIMSE1
 70
     0
  9
$DIMSE2
 70
     0
  9
$DIMTAD
 70
     3
  9
$DIMZIN
 70
     9
  9
$DIMBLK
  1
OPEN
  9
$DIMASO
 70
     1
  9
$DIMSHO
 70
     1
  9
$DIMPOST
  1

  9
$DIMAPOST
  1

  9
$DIMALT
 70
     0
  9
$DIMALTD
 70
     2
  9
$DIMALTF
 40
25.3999999999999986
  9
$DIMLFAC
 40
1.0
  9
$DIMTOFL
 70
     1
  9
$DIMTVP
 40
0.0
  9
$DIMTIX
 70
     1
  9
$DIMSOXD
 70
     0
  9
$DIMSAH
 70
     0
  9
$DIMBLK1
  1

  9
$DIMBLK2
  1

  9
$DIMSTYLE
  2
BIGT
  9
$DIMCLRD
 70
   256
  9
$DIMCLRE
 70
   256
  9
$DIMCLRT
 70
    40
  9
$DIMTFAC
 40
1.0
  9
$DIMGAP
 40
1.0
  9
$LUNITS
 70
     2
  9
$LUPREC
 70
     6
  9
$SKETCHINC
 40
1.0
  9
$FILLETRAD
 40
0.0
  9
$AUNITS
 70
     0
  9
$AUPREC
 70
     6
  9
$MENU
  1
.
  9
$ELEVATION
 40
0.0
  9
$PELEVATION
 40
0.0
  9
$THICKNESS
 40
0.0
  9
$LIMCHECK
 70
     0
  9
$BLIPMODE
 70
     0
  9
$CHAMFERA
 40
0.2
  9
$CHAMFERB
 40
0.2
  9
$SKPOLY
 70
     0
  9
$TDCREATE
 40
2457745.7053587958216667
  9
$TDUPDATE
 40
2458296.6831944449804723
  9
$TDINDWG
 40
0.0592789931
  9
$TDUSRTIMER
 40
0.0592789583
  9
$USRTIMER
 70
     1
  9
$ANGBASE
 50
0.0
  9
$ANGDIR
 70
     0
  9
$PDMODE
 70
     1
  9
$PDSIZE
 40
0.0
  9
$PLINEWID
 40
0.0
  9
$COORDS
 70
     1
  9
$SPLFRAME
 70
     0
  9
$SPLINETYPE
 70
     6
  9
$SPLINESEGS
 70
     4
  9
$ATTDIA
 70
     1
  9
$ATTREQ
 70
     1
  9
$HANDLING
 70
     1
  9
$HANDSEED
  5
4A8E
  9
$SURFTAB1
 70
     6
  9
$SURFTAB2
 70
     6
  9
$SURFTYPE
 70
     6
  9
$SURFU
 70
     6
  9
$SURFV
 70
     6
  9
$UCSNAME
  2

  9
$UCSORG
 10
0.0
 20
0.0
 30
0.0
  9
$UCSXDIR
 10
1.0
 20
0.0
 30
0.0
  9
$UCSYDIR
 10
0.0
 20
1.0
 30
0.0
  9
$PUCSNAME
  2

  9
$PUCSORG
 10
0.0
 20
0.0
 30
0.0
  9
$PUCSXDIR
 10
1.0
 20
0.0
 30
0.0
  9
$PUCSYDIR
 10
0.0
 20
1.0
 30
0.0
  9
$USERI1
 70
     1
  9
$USERI2
 70
     0
  9
$USERI3
 70
     0
  9
$USERI4
 70
     0
  9
$USERI5
 70
     0
  9
$USERR1
 40
0.0
  9
$USERR2
 40
0.0
  9
$USERR3
 40
0.0
  9
$USERR4
 40
0.0
  9
$USERR5
 40
0.0
  9
$WORLDVIEW
 70
     1
  9
$SHADEDGE
 70
     3
  9
$SHADEDIF
 70
    70
  9
$TILEMODE
 70
     1
  9
$MAXACTVP
 70
    16
  9
$PLIMCHECK
 70
     0
  9
$PEXTMIN
 10
1.0000000000000000E+20
 20
1.0000000000000000E+20
 30
1.0000000000000000E+20
  9
$PEXTMAX
 10
-1.0000000000000000E+20
 20
-1.0000000000000000E+20
 30
-1.0000000000000000E+20
  9
$PLIMMIN
 10
0.0
 20
0.0
  9
$PLIMMAX
 10
420.0
 20
297.0
  9
$UNITMODE
 70
     0
  9
$VISRETAIN
 70
     1
  9
$PLINEGEN
 70
     0
  9
$PSLTSCALE
 70
     1
  0
ENDSEC
  0
SECTION
  2
TABLES
  0
TABLE
  2
VPORT
 70
     1
  0
VPORT
  2
*ACTIVE
 70
     0
 10
0.0
 20
0.0
 11
1.0
 21
1.0
 12
89.2903845289726235
 22
22.8549260012869695
 13
0.0
 23
0.0
 14
7.0
 24
7.0
 15
7.0
 25
7.0
 16
0.0
 26
0.0
 36
1.0
 17
0.0
 27
0.0
 37
0.0
 40
235.7139978099737903
 41
1.887387387387387
 42
50.0
 43
0.0
 44
0.0
 50
0.0
 51
0.0
 71
     0
 72
  2000
 73
     1
 74
     0
 75
     0
 76
     1
 77
     0
 78
     0
  0
ENDTAB
  0
TABLE
  2
LTYPE
 70
    22
  0
LTYPE
  2
CONTINUOUS
 70
     0
  3
Solid line
 72
    65
 73
     0
 40
0.0
  0
LTYPE
  2
CENTER2
 70
     0
  3
___ _ ___ _ ___ _ ___ _ ___ _ ___ _ ___ _ ___ _
 72
    65
 73
     4
 40
1.125
 49
0.75
 49
-0.125
 49
0.125
 49
-0.125
  0
LTYPE
  2
HIDDEN2
 70
     0
  3
_ _ _ _ _ _ _ _ _ _ _ _ _ _ _ _ _ _ _ _ _ _ _ _
 72
    65
 73
     2
 40
0.1875
 49
0.125
 49
-0.0625
  0
LTYPE
  2
PHANTOM2
 70
     0
  3
___ _ _ ___ _ _ ___ _ _ ___ _ _ ___ _ _ ___ _ _
 72
    65
 73
     6
 40
1.25
 49
0.625
 49
-0.125
 49
0.125
 49
-0.125
 49
0.125
 49
-0.125
  0
LTYPE
  2
AMCONSTR
 70
     0
  3
_______________________
 72
    65
 73
     2
 40
9999.0
 49
9999.0
 49
0.0
  0
LTYPE
  2
HIDDEN
 70
     0
  3
Hidden __ __ __ __ __ __ __ __ __ __ __ __ __ _
 72
    65
 73
     2
 40
0.375
 49
0.25
 49
-0.125
  0
LTYPE
  2
CENTER
 70
     0
  3
Center ____ _ ____ _ ____ _ ____ _ ____ _ ____
 72
    65
 73
     4
 40
2.0
 49
1.25
 49
-0.25
 49
0.25
 49
-0.25
  0
LTYPE
  2
AMZIGZAG2
 70
     0
  3
/\/-/\/-/\/-/\/-/\/-/\/
 72
    65
 73
     2
 40
0.4401
 49
0.0001
 49
-0.4400000000000001
  0
LTYPE
  2
ACANSTGB
 70
     0
  3
__ . . __ . .
 72
    65
 73
     6
 40
0.35433070866
 49
0.15748031496
 49
-0.03937007874
 49
0.03937007874
 49
-0.03937007874
 49
0.03937007874
 49
-0.03937007874
  0
LTYPE
  2
ACANSTGL
 70
     0
  3
_ _ _ _ _
 72
    65
 73
     2
 40
0.11811023622
 49
0.07874015748
 49
-0.03937007874
  0
ENDTAB
  0
TABLE
  2
LAYER
 70
     8
  0
LAYER
  2
0
 70
     0
 62
     7
  6
CONTINUOUS
  0
LAYER
  2
240
 70
     0
 62
     4
  6
CONTINUOUS
  0
LAYER
  2
DEFPOINTS
 70
     0
 62
     7
  6
CONTINUOUS
  0
LAYER
  2
245
 70
     0
 62
     2
  6
CENTER2
  0
LAYER
  2
241
 70
     0
 62
   211
  6
CONTINUOUS
  0
LAYER
  2
243
 70
     0
 62
   211
  6
HIDDEN2
  0
LAYER
  2
250
 70
     0
 62
     3
  6
CONTINUOUS
  0
LAYER
  2
247
 70
     0
 62
    60
  6
CONTINUOUS
  0
ENDTAB
  0
TABLE
  2
STYLE
 70
    10
  0
STYLE
  2
STANDARD
 70
     0
 40
0.0
 41
1.0
 50
0.0
 71
     0
 42
3.0
  3
romans.shx
  4
extfont.shx
  0
STYLE
  2
YOKO
 70
     0
 40
0.0
 41
1.0
 50
0.0
 71
     0
 42
3.0
  3
romans.shx
  4
extfont.shx
  0
STYLE
  2

 70
     1
 40
0.0
 41
1.0
 50
0.0
 71
     0
 42
3.0
  3
genltshp.shx
  4

  0
STYLE
  2
ACANSGDT
 70
     0
 40
0.0
 41
1.0
 50
0.0
 71
     0
 42
3.0
  3
amgdt.shx
  4

  0
ENDTAB
  0
TABLE
  2
VIEW
 70
     0
  0
ENDTAB
  0
TABLE
  2
UCS
 70
     0
  0
ENDTAB
  0
TABLE
  2
APPID
 70
    42
  0
APPID
  2
ACAD
 70
     0
  0
APPID
  2
ACADANNOTATIVE
 70
     0
  0
APPID
  2
GLOBAL
 70
     0
  0
APPID
  2
DETAIL
 70
     0
  0
APPID
  2
GRPNAME
 70
     0
  0
APPID
  2
GPARA
 70
     0
  0
APPID
  2
MCAD_NO_VIS
 70
     0
  0
APPID
  2
ACAD_TEMP_GRAPHIC
 70
     0
  0
APPID
  2
ACATTRIBSERVICES
 70
     0
  0
APPID
  2
GENIUS_GENSCREG_15
 70
     0
  0
APPID
  2
GENIUS_GENODEF_13
 70
     0
  0
APPID
  2
GENIUS_GENOBJ-N-SDF_13
 70
     0
  0
APPID
  2
GENIUS_GENREC_14
 70
     0
  0
APPID
  2
GENIUS_GENOBJ-N-REC_13
 70
     0
  0
APPID
  2
GENIUS_GENDIMSH_14
 70
     0
  0
APPID
  2
GENIUS_GENOBJ-N-DIM_13
 70
     0
  0
APPID
  2
GENIUS_GENDIM_13
 70
     0
  0
APPID
  2
GENIUS_GENDTOL_13
 70
     0
  0
APPID
  2
GENIUS_GENOLIS_13
 70
     0
  0
APPID
  2
GENIUS_GENOENT_13
 70
     0
  0
APPID
  2
GENIUS_GENOBJ-F-FEM_13
 70
     0
  0
APPID
  2
GENIUS_GENOREF_13
 70
     0
  0
APPID
  2
GENIUS_GEFFEM_13
 70
     0
  0
APPID
  2
GENIUS_GEFFEMP_13
 70
     0
  0
APPID
  2
AD_DRAW
 70
     0
  0
APPID
  2
DESIGNERASSEMBLIES
 70
     0
  0
APPID
  2
ACADM_DIM_EDIT
 70
     0
  0
APPID
  2
AMDT_DM_ADJ
 70
     0
  0
APPID
  2
ITEMNAME
 70
     0
  0
APPID
  2
GENIUS_GENOBJ-N-FIL_13
 70
     0
  0
APPID
  2
GENIUS_GENFIL_13
 70
     0
  0
APPID
  2
GENIUS_GENOBJ-N-CHA_13
 70
     0
  0
APPID
  2
ACAD_NAV_VCDISPLAY
 70
     0
  0
APPID
  2
ACAD_PSEXT
 70
     0
  0
APPID
  2
GENIUS_GENOBJ-N-HTC_13
 70
     0
  0
APPID
  2
GENIUS_GENHATCH_13
 70
     0
  0
APPID
  2
ACAD_EXEMPT_FROM_CAD_STANDARDS
 70
     0
  0
APPID
  2
GENIUS_GENOBJ-N-CRS_13
 70
     0
  0
APPID
  2
ACAD_MLEADERVER
 70
     0
  0
APPID
  2
ACAECLAYERSTANDARD
 70
     0
  0
APPID
  2
ACAD_DSTYLE_DIMJAG
 70
     0
  0
APPID
  2
ACAD_DSTYLE_DIMBREAK
 70
     0
  0
ENDTAB
  0
TABLE
  2
DIMSTYLE
 70
    31
  0
DIMSTYLE
  2
STANDARD
 70
     0
  3

  4

  5

  6

  7

 40
1.0
 41
0.18
 42
0.0625
 43
0.38
 44
0.18
 45
0.0
 46
0.0
 47
0.0
 48
0.0
140
0.18
141
0.09
142
0.0
143
25.3999999999999986
144
1.0
145
0.0
146
1.0
147
0.09
 71
     0
 72
     0
 73
     1
 74
     1
 75
     0
 76
     0
 77
     0
 78
     0
170
     0
171
     2
172
     0
173
     0
174
     0
175
     0
176
     0
177
     0
178
     0
  0
DIMSTYLE
  2
BIGT
 70
     0
  3

  4

  5

  6

  7

 40
1.0
 41
2.2299999999999991
 42
0.5
 43
7.0
 44
1.0
 45
0.0
 46
0.0
 47
0.0
 48
0.01
140
2.799999999999998
141
0.0
142
0.0
143
25.3999999999999986
144
1.0
145
0.0
146
1.0
147
1.0
 71
     0
 72
     0
 73
     0
 74
     0
 75
     0
 76
     0
 77
     3
 78
     9
170
     0
171
     2
172
     1
173
     0
174
     1
175
     0
176
   256
177
   256
178
    40
  0
DIMSTYLE
  2
AM_ANSI
 70
     0
  3

  4
mm
  5

  6

  7

 40
1.0
 41
0.12
 42
0.05
 43
0.5
 44
0.1
 45
0.0
 46
0.0
 47
0.1
 48
0.1
140
0.12
141
0.0
142
0.0
143
25.3999999999999986
144
1.0
145
0.0
146
0.71
147
0.06
 71
     0
 72
     0
 73
     1
 74
     1
 75
     0
 76
     0
 77
     0
 78
     7
170
     0
171
     2
172
     0
173
     0
174
     0
175
     0
176
   256
177
   256
178
     2
  0
DIMSTYLE
  2
AM_ANSI$3
 70
     0
  3

  4
mm
  5

  6

  7

 40
1.0
 41
0.12
 42
0.05
 43
0.5
 44
0.1
 45
0.0
 46
0.0
 47
0.1
 48
0.1
140
0.12
141
0.0
142
0.0
143
25.3999999999999986
144
1.0
145
0.0
146
0.71
147
0.06
 71
     0
 72
     0
 73
     1
 74
     1
 75
     0
 76
     0
 77
     0
 78
     7
170
     0
171
     2
172
     0
173
     0
174
     0
175
     0
176
   256
177
   256
178
     2
  0
DIMSTYLE
  2
AM_ANSI$4
 70
     0
  3

  4
mm
  5

  6

  7

 40
1.0
 41
0.12
 42
0.05
 43
0.5
 44
0.1
 45
0.0
 46
0.0
 47
0.1
 48
0.1
140
0.12
141
0.0
142
0.0
143
25.3999999999999986
144
1.0
145
0.0
146
0.71
147
0.06
 71
     0
 72
     0
 73
     1
 74
     1
 75
     0
 76
     0
 77
     0
 78
     7
170
     0
171
     2
172
     0
173
     0
174
     0
175
     0
176
   256
177
   256
178
     2
  0
DIMSTYLE
  2
AM_ANSI$7
 70
     0
  3

  4
mm
  5

  6

  7

 40
1.0
 41
0.12
 42
0.05
 43
0.5
 44
0.1
 45
0.0
 46
0.0
 47
0.1
 48
0.1
140
0.12
141
0.0
142
0.0
143
25.3999999999999986
144
1.0
145
0.0
146
0.71
147
0.06
 71
     0
 72
     0
 73
     1
 74
     1
 75
     0
 76
     0
 77
     0
 78
     7
170
     0
171
     2
172
     0
173
     0
174
     0
175
     0
176
   256
177
   256
178
     2
  0
DIMSTYLE
  2
AM_ANSI$SF
 70
     0
  3

  4
mm
  5

  6

  7

 40
1.0
 41
0.12
 42
0.05
 43
0.5
 44
0.1
 45
0.0
 46
0.0
 47
0.1
 48
0.1
140
0.12
141
0.0
142
0.0
143
25.3999999999999986
144
1.0
145
0.0
146
0.71
147
0.06
 71
     0
 72
     0
 73
     1
 74
     1
 75
     1
 76
     1
 77
     0
 78
     7
170
     0
171
     2
172
     0
173
     0
174
     0
175
     0
176
   256
177
   256
178
     2
  0
DIMSTYLE
  2
AM_ANSI$SH
 70
     0
  3

  4
mm
  5

  6
GENAXEH
  7

 40
1.0
 41
0.12
 42
0.05
 43
0.5
 44
0.1
 45
0.0
 46
0.0
 47
0.1
 48
0.1
140
0.12
141
0.0
142
0.0
143
25.3999999999999986
144
1.0
145
0.0
146
0.71
147
0.06
 71
     0
 72
     0
 73
     1
 74
     1
 75
     1
 76
     1
 77
     0
 78
     7
170
     0
171
     2
172
     0
173
     1
174
     0
175
     0
176
   256
177
   256
178
     2
  0
ENDTAB
  0
ENDSEC
  0
SECTION
  2
BLOCKS
  0
BLOCK
  8
0
  2
$MODEL_SPACE
 70
     0
 10
0.0
 20
0.0
 30
0.0
  3
$MODEL_SPACE
  1

  0
ENDBLK
  5
494B
  8
0
  0
BLOCK
 67
     1
  8
0
  2
$PAPER_SPACE
 70
     0
 10
0.0
 20
0.0
 30
0.0
  3
$PAPER_SPACE
  1

  0
ENDBLK
  5
4947
 67
     1
  8
0
  0
BLOCK
  8
0
  2
_OPEN
 70
     0
 10
0.0
 20
0.0
 30
0.0
  3
_OPEN
  1

  0
LINE
  5
47E2
  8
0
  6
BYBLOCK
 62
     0
 10
-1.0
 20
0.1666666666666666
 30
0.0
 11
0.0
 21
0.0
 31
0.0
  0
LINE
  5
47E3
  8
0
  6
BYBLOCK
 62
     0
 10
-1.0
 20
-0.1666666666666666
 30
0.0
 11
0.0
 21
0.0
 31
0.0
  0
LINE
  5
47E4
  8
0
  6
BYBLOCK
 62
     0
 10
0.0
 20
0.0
 30
0.0
 11
-1.0
 21
0.0
 31
0.0
  0
ENDBLK
  5
47E5
  8
0
  0
BLOCK
  8
0
  2
GENAXEH
 70
     0
 10
0.0
 20
0.0
 30
0.0
  3
GENAXEH
  1

  0
LINE
  5
481D
  8
0
 10
-1.0
 20
0.0
 30
0.0
 11
1.0
 21
0.0
 31
0.0
  0
ENDBLK
  5
481E
  8
0
  0
BLOCK
  8
0
  2
*U5
 70
     1
 10
0.0
 20
0.0
 30
0.0
  3
*U5
  1

  0
TEXT
  5
44ED
  8
250
 10
130.8556427466685079
 20
58.0589882706822493
 30
0.0
 40
2.799999999999998
  1
MGT36
  7
YOKO
  0
ENDBLK
  5
44EE
  8
0
  0
BLOCK
  8
0
  2
_ACMFILLEDHALF
 70
     0
 10
0.0
 20
0.0
 30
0.0
  3
_ACMFILLEDHALF
  1

  0
TRACE
  5
4A11
  8
240
 62
     0
 10
-0.8
 20
0.0
 30
0.0
 11
-1.0
 21
0.166666666
 31
0.0
 12
0.0
 22
0.0
 32
0.0
 13
0.0
 23
0.0
 33
0.0
  0
LINE
  5
4A12
  8
240
 62
     0
 10
-1.0
 20
0.0
 30
0.0
 11
-0.8
 21
0.0
 31
0.0
  0
ENDBLK
  5
4A10
  8
0
  0
ENDSEC
  0
SECTION
  2
ENTITIES
  0
LINE
  5
42EA
  8
241
  6
CONTINUOUS
 10
90.0000000000016627
 20
-46.9999999999988631
 30
0.0
 11
90.0000000000016627
 21
46.9999999999988916
 31
0.0
  0
LINE
  5
42EB
  8
240
  6
CONTINUOUS
 10
-0.0000000000019909
 20
-46.999999999995822
 30
0.0
 11
124.5000000000254943
 21
-47.0000000000000071
 31
0.0
  0
LINE
  5
430B
  8
245
  6
CENTER2
 10
-54.1720175792568099
 20
0.0
 30
0.0
 11
141.0594181567605858
 21
-0.0000000000000284
 31
0.0
  0
LINE
  5
434C
  8
240
  6
CONTINUOUS
 10
0.0
 20
46.9999999999959002
 30
0.0
 11
0.0
 21
23.000000000000199
 31
0.0
  0
LINE
  5
435A
  8
240
  6
CONTINUOUS
 10
-0.0000000000019909
 20
-46.999999999995822
 30
0.0
 11
0.0000000000000708
 21
-23.0000000000000995
 31
0.0
  0
LINE
  5
4370
  8
241
  6
CONTINUOUS
 10
0.0000000000000711
 20
-23.0000000000000995
 30
0.0
 11
-0.0000000000000838
 21
23.000000000000199
 31
0.0
  0
LINE
  5
43A6
  8
241
  6
CONTINUOUS
 10
112.0000000000007958
 20
-46.9999999999996092
 30
0.0
 11
111.9999999999430003
 21
46.9999999999996092
 31
0.0
  0
LINE
  5
4412
  8
240
  6
CONTINUOUS
 10
124.5000000000254943
 20
-47.0000000000000071
 30
0.0
 11
136.9999999999938893
 21
-43.6506350946144011
 31
0.0
  0
LINE
  5
4424
  8
240
  6
CONTINUOUS
 10
124.5000000000252953
 20
47.0000000000000071
 30
0.0
 11
136.9999999999994884
 21
43.6506350946128308
 31
0.0
  0
LINE
  5
442F
  8
240
  6
CONTINUOUS
 10
136.9999999999994884
 20
43.6506350946128308
 30
0.0
 11
136.9999999999938893
 21
-43.6506350946144011
 31
0.0
  0
LINE
  5
4433
  8
240
  6
CONTINUOUS
 10
0.0
 20
46.9999999999959002
 30
0.0
 11
124.5000000000252953
 21
47.0000000000000071
 31
0.0
  0
LINE
  5
4461
  8
241
  6
CONTINUOUS
 10
124.5000000000252953
 20
47.0000000000000071
 30
0.0
 11
124.5000000000254943
 21
-47.0000000000000071
 31
0.0
  0
LINE
  5
44B7
  8
240
  6
CONTINUOUS
 10
-50.0000000000000284
 20
22.9999999999999716
 30
0.0
 11
0.0
 21
23.000000000000199
 31
0.0
  0
LINE
  5
44B8
  8
240
  6
CONTINUOUS
 10
-50.0000000000000284
 20
-22.9999999999999893
 30
0.0
 11
0.0000000000000711
 21
-23.0000000000000995
 31
0.0
  0
CIRCLE
  5
44B9
  8
241
  6
CONTINUOUS
 10
-19.0000000000000391
 20
-0.0000000000000071
 30
0.0
 40
10.125
  0
CIRCLE
  5
44BA
  8
241
  6
CONTINUOUS
 10
-19.0000000000000391
 20
-0.0000000000000071
 30
0.0
 40
7.5
  0
LINE
  5
44BB
  8
245
  6
CENTER2
 10
-19.0000000000000391
 20
14.15068199999995
 30
0.0
 11
-19.0000000000000391
 21
-14.0141240000000398
 31
0.0
  0
LINE
  5
44BC
  8
240
  6
CONTINUOUS
 10
-50.0000000000000284
 20
22.9999999999999716
 30
0.0
 11
-50.0000000000000284
 21
-22.9999999999999893
 31
0.0
  0
LINE
  5
450E
  8
245
  6
CENTER2
 10
70.9999999999948557
 20
-10.0000000000000195
 30
0.0
 11
70.9999999999943014
 21
9.9999999999999751
 31
0.0
1001
GENIUS_GENOREF_13
1005
4527
  0
LINE
  5
450F
  8
243
  6
HIDDEN2
 10
45.9999999999976623
 20
19.9999999999974882
 30
0.0
 11
127.9999999999968026
 21
19.9999999999988205
 31
0.0
  0
LINE
  5
4510
  8
243
  6
HIDDEN2
 10
136.9999999999978968
 20
27.199999999994489
 30
0.0
 11
127.9999999999978968
 21
27.1999999999944997
 31
0.0
  0
LINE
  5
4511
  8
250
  6
CONTINUOUS
 10
125.0000000000252953
 20
46.9999999999992966
 30
0.0
 11
152.9999999999967883
 21
47.000000000001009
 31
0.0
  0
LINE
  5
4512
  8
250
  6
CONTINUOUS
 10
125.0000000000254943
 20
-47.0000000000026077
 30
0.0
 11
152.9999999999967883
 21
-47.0000000000026077
 31
0.0
  0
LINE
  5
4513
  8
250
  6
CONTINUOUS
 10
151.9999999999967883
 20
44.7700000000009908
 30
0.0
 11
151.9999999999967883
 21
-44.7700000000026108
 31
0.0
  0
TEXT
  5
4514
  8
250
  6
CONTINUOUS
 10
150.9999999999967883
 20
-3.8666666666674332
 30
0.0
 40
2.799999999999998
  1
\U+220594
 50
90.0
  0
LINE
  5
4515
  8
250
  6
CONTINUOUS
 10
152.3716666666634865
 20
-44.7700000000026108
 30
0.0
 11
151.9999999999967883
 21
-47.0000000000026077
 31
0.0
  0
LINE
  5
4516
  8
250
  6
CONTINUOUS
 10
151.6283333333300902
 20
-44.7700000000026108
 30
0.0
 11
151.9999999999967883
 21
-47.0000000000026077
 31
0.0
  0
LINE
  5
4517
  8
250
  6
CONTINUOUS
 10
151.9999999999967883
 20
-47.0000000000026077
 30
0.0
 11
151.9999999999967883
 21
-44.7700000000026108
 31
0.0
  0
LINE
  5
4518
  8
250
  6
CONTINUOUS
 10
151.6283333333300902
 20
44.7700000000009908
 30
0.0
 11
151.9999999999967883
 21
47.000000000001009
 31
0.0
  0
LINE
  5
4519
  8
250
  6
CONTINUOUS
 10
152.3716666666634865
 20
44.7700000000009908
 30
0.0
 11
151.9999999999967883
 21
47.000000000001009
 31
0.0
  0
LINE
  5
451A
  8
250
  6
CONTINUOUS
 10
151.9999999999967883
 20
47.000000000001009
 30
0.0
 11
151.9999999999967883
 21
44.7700000000009908
 31
0.0
  0
LINE
  5
451B
  8
243
  6
HIDDEN2
 10
45.9999999999968665
 20
-19.9999999999964402
 30
0.0
 11
127.9999999999960067
 21
-20.0000000000010303
 31
0.0
  0
LINE
  5
451C
  8
243
  6
HIDDEN2
 10
136.9999999999967883
 20
-27.1999999999970612
 30
0.0
 11
127.999999999996902
 21
-27.1999999999966917
 31
0.0
  0
LINE
  5
451D
  8
243
  6
HIDDEN2
 10
127.9999999999956941
 20
-27.1999999999966917
 30
0.0
 11
127.9999999999978968
 21
27.1999999999944997
 31
0.0
  0
LINE
  5
451E
  8
250
  6
CONTINUOUS
 10
134.6926430047307122
 20
46.179573141470712
 30
0.0
 11
133.4039678699984961
 21
44.6141890006814705
 31
0.0
  0
LINE
  5
451F
  8
250
  6
CONTINUOUS
 10
134.1152927355703071
 20
46.5129064748546597
 30
0.0
 11
133.4039678699984961
 21
44.6141890006814705
 31
0.0
  0
LINE
  5
4520
  8
250
  6
CONTINUOUS
 10
133.4039678699984961
 20
44.6141890006814705
 30
0.0
 11
134.4039678701504954
 21
46.3462398081626716
 31
0.0
  0
POLYLINE
  5
4521
  8
250
  6
CONTINUOUS
 66
     1
 10
0.0
 20
0.0
 30
0.0
1001
ACAD
1000
DSTYLE
1002
{
1070
     6
1000
OPEN
1070
    41
1040
2.0
1070
    42
1040
2.0
1070
    44
1040
2.0
1070
    79
1070
     2
1070
   140
1040
4.0
1070
   179
1070
     3
1070
   371
1070
    -1
1070
   372
1070
    -1
1002
}
  0
VERTEX
  5
4522
  8
250
  6
CONTINUOUS
 10
134.4039678701504954
 20
46.3462398081626716
 30
0.0
  0
VERTEX
  5
4523
  8
250
  6
CONTINUOUS
 10
140.5889760799985879
 20
57.0589882706814606
 30
0.0
  0
SEQEND
  5
4524
  8
250
  6
CONTINUOUS
  0
INSERT
  5
4525
  8
250
  6
CONTINUOUS
  2
*U5
 10
11.9999999999968097
 20
-0.0000000000007816
 30
0.0
  0
LINE
  5
4526
  8
250
  6
CONTINUOUS
 10
140.5889760799985879
 20
57.0589882706814606
 30
0.0
 11
158.7223094199985951
 21
57.0589882706814606
 31
0.0
1001
ITEMNAME
1000
LNSP2
  0
POINT
  5
4527
  8
0
 10
-12548.2156560377497954
 20
-819.7427139561083322
 30
0.0
1001
GENIUS_GENOLIS_13
1002
{
1000
ENT
1005
0
1005
0
1005
450E
1005
0
1002
}
1001
GENIUS_GENOENT_13
1002
{
1000
MYREF
1005
4527
1002
}
1002
{
1000
GRP
1005
0
1002
}
1001
GENIUS_GENOBJ-N-CRS_13
1002
{
1000
OWNER
1000
GEN
1002
}
1001
GENIUS_GENODEF_13
1002
{
1000
HIER
1070
    10
1002
}
1002
{
1000
MANEDIT
1070
     1
1002
}
1002
{
1000
NOSEL
1070
     0
1002
}
1002
{
1000
BEHIND
1070
     0
1002
}
1002
{
1000
OTHER
1070
     0
1002
}
1002
{
1000
REACTOR
1002
}
  0
TEXT
  5
4541
  8
241
  6
CONTINUOUS
 10
-54.658098656575028
 20
84.0
 30
0.0
 40
5.0
  1
CKB7-MGT36-137
  7
YOKO
  0
LINE
  5
4542
  8
250
  6
CONTINUOUS
 10
-41.5032054763217175
 20
-39.9999999999999574
 30
0.0
 11
-55.5032054763217033
 21
-39.9999999999999574
 31
0.0
1001
ITEMNAME
1000
LNSP2
  0
TEXT
  5
4543
  8
250
  6
CONTINUOUS
 10
-52.9317769048931765
 20
-38.9999999999999716
 30
0.0
 40
3.0
  1
CK7
  7
YOKO
  0
LINE
  5
4544
  8
250
  6
CONTINUOUS
 10
-32.8032509000980923
 20
-24.931236650439299
 30
0.0
 11
-41.5032054763217175
 21
-39.9999999999999574
 31
0.0
  0
LINE
  5
4545
  8
250
  6
CONTINUOUS
 10
-33.1251236751713094
 20
-24.7454033171059713
 30
0.0
 11
-31.6882509000980797
 21
-23.0000000000000107
 31
0.0
  0
LINE
  5
4546
  8
250
  6
CONTINUOUS
 10
-32.4813781250248823
 20
-25.117069983772641
 30
0.0
 11
-31.6882509000980797
 21
-23.0000000000000107
 31
0.0
  0
LINE
  5
4547
  8
250
  6
CONTINUOUS
 10
-31.6882509000980797
 20
-23.0000000000000107
 30
0.0
 11
-32.8032509000980923
 21
-24.931236650439299
 31
0.0
  0
LINE
  5
4548
  8
250
  6
CONTINUOUS
 10
-0.0000000000018252
 20
47.4999999999959002
 30
0.0
 11
-0.0000000000018238
 21
71.0
 31
0.0
  0
LINE
  5
4549
  8
250
  6
CONTINUOUS
 10
137.0000000000017906
 20
44.1682731848173233
 30
0.0
 11
137.0000000000017906
 21
71.0
 31
0.0
  0
LINE
  5
454A
  8
250
  6
CONTINUOUS
 10
2.2299999999981752
 20
70.0
 30
0.0
 11
134.7700000000018008
 21
70.0
 31
0.0
  0
TEXT
  5
454B
  8
250
  6
CONTINUOUS
 10
64.2999999999999829
 20
71.0
 30
0.0
 40
2.799999999999998
  1
137
  0
LINE
  5
454C
  8
250
  6
CONTINUOUS
 10
134.7700000000018008
 20
70.3716666666666697
 30
0.0
 11
137.0000000000017906
 21
70.0
 31
0.0
  0
LINE
  5
454D
  8
250
  6
CONTINUOUS
 10
134.7700000000018008
 20
69.6283333333333303
 30
0.0
 11
137.0000000000017906
 21
70.0
 31
0.0
  0
LINE
  5
454E
  8
250
  6
CONTINUOUS
 10
137.0000000000017906
 20
70.0
 30
0.0
 11
134.7700000000018008
 21
70.0
 31
0.0
  0
LINE
  5
454F
  8
250
  6
CONTINUOUS
 10
2.2299999999981752
 20
69.6283333333333303
 30
0.0
 11
-0.0000000000018239
 21
70.0
 31
0.0
  0
LINE
  5
4550
  8
250
  6
CONTINUOUS
 10
2.2299999999981752
 20
70.3716666666666697
 30
0.0
 11
-0.0000000000018239
 21
70.0
 31
0.0
  0
LINE
  5
4551
  8
250
  6
CONTINUOUS
 10
-0.0000000000018239
 20
70.0
 30
0.0
 11
2.2299999999981752
 21
70.0
 31
0.0
  0
LINE
  5
470C
  8
247
  6
CONTINUOUS
 10
10.4999999999999805
 20
-26.2500000000700418
 30
0.0
 11
10.4999999999999805
 21
-19.5576923080300311
 31
0.0
  0
ARC
  5
470D
  8
247
  6
CONTINUOUS
 10
8.7500000000700222
 20
-26.2500000000700418
 30
0.0
 40
1.7499999999299991
 50
180.0
 51
0.0
  0
ARC
  5
470E
  8
247
  6
CONTINUOUS
 10
8.7500000000700222
 20
-19.5576923080300311
 30
0.0
 40
1.7499999999299991
 50
0.0
 51
180.0
  0
LINE
  5
470F
  8
247
  6
CONTINUOUS
 10
7.0000000001400551
 20
-25.3846153847200107
 30
0.0
 11
10.00000000002
 21
-26.2448515419620314
 31
0.0
  0
LINE
  5
4710
  8
247
  6
CONTINUOUS
 10
8.4230769231600036
 20
-24.4849838183358308
 30
0.0
 11
8.4230769231600036
 21
-25.7926761259758486
 31
0.0
  0
ARC
  5
4711
  8
247
  6
CONTINUOUS
 10
7.5495986677029743
 20
-24.1451438160897993
 30
0.0
 40
0.5538165441895349
 50
72.9978896752953403
 51
172.9241662185135908
  0
ARC
  5
4712
  8
247
  6
CONTINUOUS
 10
7.436033044465824
 20
-24.5668783230287993
 30
0.0
 40
0.9904354236226808
 50
4.7429368522022122
 51
73.8492262732665381
1001
GENIUS_GENOBJ-N-FIL_13
1002
{
1000
OWNER
1000
GEN
1002
}
1001
GENIUS_GENODEF_13
1002
{
1000
HIER
1070
     0
1002
}
1002
{
1000
MANEDIT
1070
     0
1002
}
1002
{
1000
NOSEL
1070
     0
1002
}
1002
{
1000
BEHIND
1070
     0
1002
}
1002
{
1000
OTHER
1070
     0
1002
}
1002
{
1000
REACTOR
1002
}
  0
LINE
  5
4713
  8
247
  6
CONTINUOUS
 10
10.00000000002
 20
-24.9371592343219994
 30
0.0
 11
10.00000000002
 21
-26.2448515419620314
 31
0.0
  0
LINE
  5
4714
  8
247
  6
CONTINUOUS
 10
7.0000000001400551
 20
-25.3846153847200107
 30
0.0
 11
7.0000000001400551
 21
-24.0769230770799894
 31
0.0
  0
ARC
  5
4715
  8
247
  6
CONTINUOUS
 10
8.9820242326655872
 20
-24.5609196365469487
 30
0.0
 40
0.5640818586791229
 50
65.990941652528889
 51
172.2634434590690944
  0
ARC
  5
4716
  8
247
  6
CONTINUOUS
 10
8.9874290391866136
 20
-25.0382626853470995
 30
0.0
 40
1.0176059446230981
 50
5.7019851642564632
 51
77.2773384368221912
1001
GENIUS_GENOBJ-N-FIL_13
1002
{
1000
OWNER
1000
GEN
1002
}
1001
GENIUS_GENODEF_13
1002
{
1000
HIER
1070
     0
1002
}
1002
{
1000
MANEDIT
1070
     0
1002
}
1002
{
1000
NOSEL
1070
     0
1002
}
1002
{
1000
BEHIND
1070
     0
1002
}
1002
{
1000
OTHER
1070
     0
1002
}
1002
{
1000
REACTOR
1002
}
  0
LINE
  5
4717
  8
247
  6
CONTINUOUS
 10
10.00000000002
 20
-23.2833130805420403
 30
0.0
 11
7.0000000001400551
 21
-22.4230769233000196
 31
0.0
  0
LINE
  5
4718
  8
247
  6
CONTINUOUS
 10
7.0000000001400551
 20
-20.0000000003199716
 30
0.0
 11
7.0000000001400551
 21
-20.5657366194565796
 31
0.0
  0
LINE
  5
4719
  8
247
  6
CONTINUOUS
 10
10.00000000002
 20
-21.4615384618
 30
0.0
 11
10.00000000002
 21
-20.8461538464400284
 31
0.0
  0
ARC
  5
471A
  8
247
  6
CONTINUOUS
 10
9.0832851359733624
 20
-19.7087912091228716
 30
0.0
 40
2.2526500823422122
 50
202.359488141525901
 51
254.9932485428460893
  0
ARC
  5
471B
  8
247
  6
CONTINUOUS
 10
7.808312655194519
 20
-20.3740694792132402
 30
0.0
 40
0.8906723995727782
 50
94.9945893190753736
 51
155.1663289573039037
1001
GENIUS_GENOBJ-N-FIL_13
1002
{
1000
OWNER
1000
GEN
1002
}
1001
GENIUS_GENODEF_13
1002
{
1000
HIER
1070
     0
1002
}
1002
{
1000
MANEDIT
1070
     0
1002
}
1002
{
1000
NOSEL
1070
     0
1002
}
1002
{
1000
BEHIND
1070
     0
1002
}
1002
{
1000
OTHER
1070
     0
1002
}
1002
{
1000
REACTOR
1002
}
  0
ARC
  5
471C
  8
247
  6
CONTINUOUS
 10
8.6601458886677776
 20
-21.2264588862125905
 30
0.0
 40
1.392781735586712
 50
15.8460965557808002
 51
82.3251370041690649
  0
ARC
  5
471D
  8
247
  6
CONTINUOUS
 10
8.9592434315272786
 20
-20.6422127258403592
 30
0.0
 40
1.324563662670287
 50
249.7136016704968995
 51
321.7887456564068884
1001
GENIUS_GENOBJ-N-FIL_13
1002
{
1000
OWNER
1000
GEN
1002
}
1001
GENIUS_GENODEF_13
1002
{
1000
HIER
1070
     0
1002
}
1002
{
1000
MANEDIT
1070
     0
1002
}
1002
{
1000
NOSEL
1070
     0
1002
}
1002
{
1000
BEHIND
1070
     0
1002
}
1002
{
1000
OTHER
1070
     0
1002
}
1002
{
1000
REACTOR
1002
}
  0
LINE
  5
471E
  8
247
  6
CONTINUOUS
 10
8.8461538462199716
 20
-20.5384615387599787
 30
0.0
 11
8.8461538462199716
 21
-19.8461538464799716
 31
0.0
  0
LINE
  5
471F
  8
247
  6
CONTINUOUS
 10
7.0000000001399991
 20
-26.2500000000700418
 30
0.0
 11
7.0000000001399991
 21
-25.5769230770200799
 31
0.0
  0
VIEWPORT
  5
22
 67
     1
  8
0
 10
261.517699115044195
 20
148.5
 30
0.0
 40
523.0353982300885036
 41
297.0
 68
     1
 69
     1
1001
ACAD
1000
MVIEW
1002
{
1070
    16
1010
0.0
1020
0.0
1030
0.0
1010
0.0
1020
0.0
1030
1.0
1040
0.0
1040
297.0
1040
261.517699115044195
1040
148.5
1040
50.0
1040
0.0
1040
0.0
1070
     0
1070
   100
1070
     1
1070
     1
1070
     0
1070
     0
1070
     0
1070
     0
1040
0.0
1040
0.0
1040
0.0
1040
1.0
1040
1.0
1040
10.0
1040
10.0
1070
     0
1002
{
1002
}
1002
}
1001
GENIUS_GENODEF_13
1002
{
1000
HIER
1070
     0
1002
}
1002
{
1000
MANEDIT
1070
     0
1002
}
1002
{
1000
NOSEL
1070
     0
1002
}
1002
{
1000
BEHIND
1070
     0
1002
}
1002
{
1000
OTHER
1070
     0
1002
}
1002
{
1000
REACTOR
1002
}
1001
GENIUS_GENOBJ-N-SDF_13
1002
{
1000
OWNER
1000
GEN
1002
}
1001
GENIUS_GENSCREG_15
1000
PF
1040
1.0
1000
DF
1040
1.0
1000
MIN
1011
0.0
1021
0.0
1031
0.0
1021
0.0
1031
0.0
1000
MAX
1011
523.0353982300885036
1021
0.0
1031
0.0
1021
297.0
1031
0.0
1000
FLAGS
1070
     4
  0
ENDSEC
  0
EOF
