  0
SECTION
  2
HEADER
  9
$ACADVER
  1
AC1009
  9
$INSBASE
 10
0.0
 20
0.0
 30
0.0
  9
$EXTMIN
 10
-51.0
 20
-45.0
 30
0.0
  9
$EXTMAX
 10
123.2999999999999972
 20
82.0000000000000568
 30
0.0
  9
$LIMMIN
 10
0.0
 20
0.0
  9
$LIMMAX
 10
420.0
 20
297.0
  9
$ORTHOMODE
 70
     0
  9
$REGENMODE
 70
     1
  9
$FILLMODE
 70
     1
  9
$QTEXTMODE
 70
     0
  9
$MIRRTEXT
 70
     1
  9
$DRAGMODE
 70
     2
  9
$LTSCALE
 40
10.0
  9
$OSMODE
 70
   807
  9
$ATTMODE
 70
     1
  9
$TEXTSIZE
 40
3.0
  9
$TRACEWID
 40
1.0
  9
$TEXTSTYLE
  7
YOKO
  9
$CLAYER
  8
240
  9
$CELTYPE
  6
BYLAYER
  9
$CECOLOR
 62
   256
  9
$DIMSCALE
 40
1.0
  9
$DIMASZ
 40
2.2299999999999991
  9
$DIMEXO
 40
0.5
  9
$DIMDLI
 40
2.5
  9
$DIMRND
 40
0.0
  9
$DIMDLE
 40
0.0
  9
$DIMEXE
 40
1.0
  9
$DIMTP
 40
0.0
  9
$DIMTM
 40
0.0
  9
$DIMTXT
 40
2.799999999999998
  9
$DIMCEN
 40
0.0
  9
$DIMTSZ
 40
0.0
  9
$DIMTOL
 70
     0
  9
$DIMLIM
 70
     0
  9
$DIMTIH
 70
     0
  9
$DIMTOH
 70
     0
  9
$DIMSE1
 70
     0
  9
$DIMSE2
 70
     0
  9
$DIMTAD
 70
     3
  9
$DIMZIN
 70
     8
  9
$DIMBLK
  1

  9
$DIMASO
 70
     1
  9
$DIMSHO
 70
     1
  9
$DIMPOST
  1

  9
$DIMAPOST
  1

  9
$DIMALT
 70
     0
  9
$DIMALTD
 70
     2
  9
$DIMALTF
 40
25.3999999999999986
  9
$DIMLFAC
 40
1.0
  9
$DIMTOFL
 70
     1
  9
$DIMTVP
 40
0.0
  9
$DIMTIX
 70
     1
  9
$DIMSOXD
 70
     0
  9
$DIMSAH
 70
     1
  9
$DIMBLK1
  1
OPEN
  9
$DIMBLK2
  1
OPEN
  9
$DIMSTYLE
  2
BIGT
  9
$DIMCLRD
 70
   256
  9
$DIMCLRE
 70
   256
  9
$DIMCLRT
 70
    40
  9
$DIMTFAC
 40
1.0
  9
$DIMGAP
 40
1.0
  9
$LUNITS
 70
     2
  9
$LUPREC
 70
     2
  9
$SKETCHINC
 40
1.0
  9
$FILLETRAD
 40
2.0
  9
$AUNITS
 70
     0
  9
$AUPREC
 70
     3
  9
$MENU
  1
.
  9
$ELEVATION
 40
0.0
  9
$PELEVATION
 40
0.0
  9
$THICKNESS
 40
0.0
  9
$LIMCHECK
 70
     0
  9
$BLIPMODE
 70
     0
  9
$CHAMFERA
 40
10.0
  9
$CHAMFERB
 40
10.0
  9
$SKPOLY
 70
     0
  9
$TDCREATE
 40
2455454.391608796082437
  9
$TDUPDATE
 40
2458296.6214004629291594
  9
$TDINDWG
 40
0.0756758102
  9
$TDUSRTIMER
 40
0.0756758102
  9
$USRTIMER
 70
     1
  9
$ANGBASE
 50
0.0
  9
$ANGDIR
 70
     0
  9
$PDMODE
 70
     1
  9
$PDSIZE
 40
-5.0
  9
$PLINEWID
 40
0.0
  9
$COORDS
 70
     1
  9
$SPLFRAME
 70
     0
  9
$SPLINETYPE
 70
     6
  9
$SPLINESEGS
 70
     8
  9
$ATTDIA
 70
     1
  9
$ATTREQ
 70
     1
  9
$HANDLING
 70
     1
  9
$HANDSEED
  5
122F
  9
$SURFTAB1
 70
     6
  9
$SURFTAB2
 70
     6
  9
$SURFTYPE
 70
     6
  9
$SURFU
 70
     6
  9
$SURFV
 70
     6
  9
$UCSNAME
  2

  9
$UCSORG
 10
0.0
 20
0.0
 30
0.0
  9
$UCSXDIR
 10
1.0
 20
0.0
 30
0.0
  9
$UCSYDIR
 10
0.0
 20
1.0
 30
0.0
  9
$PUCSNAME
  2

  9
$PUCSORG
 10
0.0
 20
0.0
 30
0.0
  9
$PUCSXDIR
 10
1.0
 20
0.0
 30
0.0
  9
$PUCSYDIR
 10
0.0
 20
1.0
 30
0.0
  9
$USERI1
 70
     1
  9
$USERI2
 70
     0
  9
$USERI3
 70
     0
  9
$USERI4
 70
     0
  9
$USERI5
 70
     0
  9
$USERR1
 40
0.0
  9
$USERR2
 40
0.0
  9
$USERR3
 40
0.0
  9
$USERR4
 40
0.0
  9
$USERR5
 40
0.0
  9
$WORLDVIEW
 70
     1
  9
$SHADEDGE
 70
     3
  9
$SHADEDIF
 70
    70
  9
$TILEMODE
 70
     1
  9
$MAXACTVP
 70
    16
  9
$PLIMCHECK
 70
     0
  9
$PEXTMIN
 10
1.0000000000000000E+20
 20
1.0000000000000000E+20
 30
1.0000000000000000E+20
  9
$PEXTMAX
 10
-1.0000000000000000E+20
 20
-1.0000000000000000E+20
 30
-1.0000000000000000E+20
  9
$PLIMMIN
 10
0.0
 20
0.0
  9
$PLIMMAX
 10
420.0
 20
297.0
  9
$UNITMODE
 70
     0
  9
$VISRETAIN
 70
     0
  9
$PLINEGEN
 70
     0
  9
$PSLTSCALE
 70
     1
  0
ENDSEC
  0
SECTION
  2
TABLES
  0
TABLE
  2
VPORT
 70
     1
  0
VPORT
  2
*ACTIVE
 70
     0
 10
0.0
 20
0.0
 11
1.0
 21
1.0
 12
67.1125336964428811
 22
11.5992574202559595
 13
0.0
 23
0.0
 14
7.0
 24
7.0
 15
7.0
 25
7.0
 16
0.0
 26
0.0
 36
1.0
 17
0.0
 27
0.0
 37
0.0
 40
210.604943343104793
 41
1.887387387387387
 42
50.0
 43
0.0
 44
0.0
 50
0.0
 51
0.0
 71
     0
 72
  2000
 73
     1
 74
     0
 75
     0
 76
     1
 77
     0
 78
     0
  0
ENDTAB
  0
TABLE
  2
LTYPE
 70
    20
  0
LTYPE
  2
CONTINUOUS
 70
     0
  3
Solid line
 72
    65
 73
     0
 40
0.0
  0
LTYPE
  2
CENTER2
 70
     0
  3
___ _ ___ _ ___ _ ___ _ ___ _ ___ _ ___ _ ___ _
 72
    65
 73
     4
 40
1.125
 49
0.75
 49
-0.125
 49
0.125
 49
-0.125
  0
LTYPE
  2
HIDDEN2
 70
     0
  3
_ _ _ _ _ _ _ _ _ _ _ _ _ _ _ _ _ _ _ _ _ _ _ _
 72
    65
 73
     2
 40
0.1875
 49
0.125
 49
-0.0625
  0
LTYPE
  2
HIDDEN
 70
     0
  3
Hidden __ __ __ __ __ __ __ __ __ __ __ __ __ _
 72
    65
 73
     2
 40
9.5249999999999986
 49
6.3499999999999979
 49
-3.174999999999998
  0
LTYPE
  2
PHANTOM2
 70
     0
  3
Phantom (.5x) ___ _ _ ___ _ _ ___ _ _ ___ _ _
 72
    65
 73
     6
 40
31.75
 49
15.875
 49
-3.174999999999998
 49
3.174999999999998
 49
-3.174999999999998
 49
3.174999999999998
 49
-3.174999999999998
  0
LTYPE
  2
CENTER
 70
     0
  3
Center ____ _ ____ _ ____ _ ____ _ ____ _ ____
 72
    65
 73
     4
 40
50.7999999999999972
 49
31.75
 49
-6.3499999999999979
 49
6.3499999999999979
 49
-6.3499999999999979
  0
LTYPE
  2
AMCONSTR
 70
     0
  3
_______________________
 72
    65
 73
     2
 40
9999.0
 49
9999.0
 49
0.0
  0
LTYPE
  2
AMZIGZAG2
 70
     0
  3
/\/-/\/-/\/-/\/-/\/-/\/
 72
    65
 73
     2
 40
0.4401
 49
0.0001
 49
-0.4400000000000002
  0
LTYPE
  2
ACANSTGB
 70
     0
  3
__ . . __ . .
 72
    65
 73
     6
 40
0.35433070866
 49
0.15748031496
 49
-0.03937007874
 49
0.03937007874
 49
-0.03937007874
 49
0.03937007874
 49
-0.03937007874
  0
LTYPE
  2
ACANSTGL
 70
     0
  3
_ _ _ _ _
 72
    65
 73
     2
 40
0.11811023622
 49
0.07874015748
 49
-0.03937007874
  0
ENDTAB
  0
TABLE
  2
LAYER
 70
     8
  0
LAYER
  2
0
 70
     0
 62
     7
  6
CONTINUOUS
  0
LAYER
  2
240
 70
     0
 62
     4
  6
CONTINUOUS
  0
LAYER
  2
241
 70
     0
 62
   211
  6
CONTINUOUS
  0
LAYER
  2
245
 70
     0
 62
     2
  6
CENTER2
  0
LAYER
  2
250
 70
     0
 62
     3
  6
CONTINUOUS
  0
LAYER
  2
DEFPOINTS
 70
     0
 62
     7
  6
CONTINUOUS
  0
LAYER
  2
243
 70
     0
 62
   211
  6
HIDDEN2
  0
LAYER
  2
247
 70
     0
 62
    60
  6
CONTINUOUS
  0
ENDTAB
  0
TABLE
  2
STYLE
 70
     7
  0
STYLE
  2
STANDARD
 70
     0
 40
0.0
 41
1.0
 50
0.0
 71
     0
 42
3.0
  3
romans.shx
  4
BIGFONT.SHX
  0
STYLE
  2
YOKO
 70
     0
 40
0.0
 41
1.0
 50
0.0
 71
     0
 42
3.0
  3
romans.shx
  4
extfont.shx
  0
STYLE
  2
ACANSGDT
 70
     0
 40
0.0
 41
1.0
 50
0.0
 71
     0
 42
3.0
  3
amgdt.shx
  4

  0
ENDTAB
  0
TABLE
  2
VIEW
 70
     0
  0
ENDTAB
  0
TABLE
  2
UCS
 70
     0
  0
ENDTAB
  0
TABLE
  2
APPID
 70
    24
  0
APPID
  2
ACAD
 70
     0
  0
APPID
  2
ACADANNOTATIVE
 70
     0
  0
APPID
  2
GLOBAL
 70
     0
  0
APPID
  2
DETAIL
 70
     0
  0
APPID
  2
GRPNAME
 70
     0
  0
APPID
  2
GPARA
 70
     0
  0
APPID
  2
DCO15
 70
     0
  0
APPID
  2
ITEMNAME
 70
     0
  0
APPID
  2
GRADE_0
 70
     0
  0
APPID
  2
CONTENTBLOCKICON
 70
     0
  0
APPID
  2
MCAD_NO_VIS
 70
     0
  0
APPID
  2
ACAD_TEMP_GRAPHIC
 70
     0
  0
APPID
  2
ACATTRIBSERVICES
 70
     0
  0
APPID
  2
DESIGNERASSEMBLIES
 70
     0
  0
APPID
  2
ACAD_DSTYLE_DIMJAG
 70
     0
  0
APPID
  2
ACAD_DSTYLE_DIMBREAK
 70
     0
  0
APPID
  2
GENIUS_GENSCREG_15
 70
     0
  0
APPID
  2
GENIUS_GENOBJ-N-SDF_13
 70
     0
  0
APPID
  2
GENIUS_GENODEF_13
 70
     0
  0
APPID
  2
ACAD_NAV_VCDISPLAY
 70
     0
  0
APPID
  2
GENIUS_GENOBJ-N-FIL_13
 70
     0
  0
APPID
  2
ACAECLAYERSTANDARD
 70
     0
  0
APPID
  2
ACAD_MLEADERVER
 70
     0
  0
APPID
  2
ACAD_EXEMPT_FROM_CAD_STANDARDS
 70
     0
  0
ENDTAB
  0
TABLE
  2
DIMSTYLE
 70
    16
  0
DIMSTYLE
  2
STANDARD
 70
     0
  3

  4

  5

  6

  7

 40
1.0
 41
0.18
 42
0.0625
 43
0.38
 44
0.18
 45
0.0
 46
0.0
 47
0.0
 48
0.0
140
0.18
141
0.09
142
0.0
143
25.3999999999999986
144
1.0
145
0.0
146
1.0
147
0.09
 71
     0
 72
     0
 73
     1
 74
     1
 75
     0
 76
     0
 77
     0
 78
     0
170
     0
171
     2
172
     0
173
     0
174
     0
175
     0
176
     0
177
     0
178
     0
  0
DIMSTYLE
  2
BIGT
 70
     0
  3

  4

  5

  6

  7

 40
1.0
 41
2.2299999999999991
 42
0.5
 43
2.5
 44
1.0
 45
0.0
 46
0.0
 47
0.0
 48
0.0
140
2.799999999999998
141
0.0
142
0.0
143
25.3999999999999986
144
1.0
145
0.0
146
1.0
147
1.0
 71
     0
 72
     0
 73
     0
 74
     0
 75
     0
 76
     0
 77
     3
 78
     8
170
     0
171
     2
172
     1
173
     1
174
     1
175
     0
176
   256
177
   256
178
    40
  0
DIMSTYLE
  2
AM_ANSI
 70
     0
  3

  4
mm
  5

  6

  7

 40
1.0
 41
0.12
 42
0.05
 43
0.5
 44
0.1
 45
0.0
 46
0.0
 47
0.1
 48
0.1
140
0.12
141
0.0
142
0.0
143
25.3999999999999986
144
1.0
145
0.0
146
0.71
147
0.06
 71
     0
 72
     0
 73
     1
 74
     1
 75
     0
 76
     0
 77
     0
 78
     7
170
     0
171
     2
172
     0
173
     0
174
     0
175
     0
176
   256
177
   256
178
     2
  0
DIMSTYLE
  2
AM_ANSI$3
 70
     0
  3

  4
mm
  5

  6

  7

 40
1.0
 41
0.12
 42
0.05
 43
0.5
 44
0.1
 45
0.0
 46
0.0
 47
0.1
 48
0.1
140
0.12
141
0.0
142
0.0
143
25.3999999999999986
144
1.0
145
0.0
146
0.71
147
0.06
 71
     0
 72
     0
 73
     1
 74
     1
 75
     0
 76
     0
 77
     0
 78
     7
170
     0
171
     2
172
     0
173
     0
174
     0
175
     0
176
   256
177
   256
178
     2
  0
DIMSTYLE
  2
AM_ANSI$4
 70
     0
  3

  4
mm
  5

  6

  7

 40
1.0
 41
0.12
 42
0.05
 43
0.5
 44
0.1
 45
0.0
 46
0.0
 47
0.1
 48
0.1
140
0.12
141
0.0
142
0.0
143
25.3999999999999986
144
1.0
145
0.0
146
0.71
147
0.06
 71
     0
 72
     0
 73
     1
 74
     1
 75
     0
 76
     0
 77
     0
 78
     7
170
     0
171
     2
172
     0
173
     0
174
     0
175
     0
176
   256
177
   256
178
     2
  0
DIMSTYLE
  2
AM_ANSI$7
 70
     0
  3

  4
mm
  5

  6

  7

 40
1.0
 41
0.12
 42
0.05
 43
0.5
 44
0.1
 45
0.0
 46
0.0
 47
0.1
 48
0.1
140
0.12
141
0.0
142
0.0
143
25.3999999999999986
144
1.0
145
0.0
146
0.71
147
0.06
 71
     0
 72
     0
 73
     1
 74
     1
 75
     0
 76
     0
 77
     0
 78
     7
170
     0
171
     2
172
     0
173
     0
174
     0
175
     0
176
   256
177
   256
178
     2
  0
DIMSTYLE
  2
AM_ANSI$SF
 70
     0
  3

  4
mm
  5

  6

  7

 40
1.0
 41
0.12
 42
0.05
 43
0.5
 44
0.1
 45
0.0
 46
0.0
 47
0.1
 48
0.1
140
0.12
141
0.0
142
0.0
143
25.3999999999999986
144
1.0
145
0.0
146
0.71
147
0.06
 71
     0
 72
     0
 73
     1
 74
     1
 75
     1
 76
     1
 77
     0
 78
     7
170
     0
171
     2
172
     0
173
     0
174
     0
175
     0
176
   256
177
   256
178
     2
  0
DIMSTYLE
  2
AM_ANSI$SH
 70
     0
  3

  4
mm
  5

  6

  7

 40
1.0
 41
0.12
 42
0.05
 43
0.5
 44
0.1
 45
0.0
 46
0.0
 47
0.1
 48
0.1
140
0.12
141
0.0
142
0.0
143
25.3999999999999986
144
1.0
145
0.0
146
0.71
147
0.06
 71
     0
 72
     0
 73
     1
 74
     1
 75
     1
 76
     1
 77
     0
 78
     7
170
     0
171
     2
172
     0
173
     1
174
     0
175
     0
176
   256
177
   256
178
     2
  0
ENDTAB
  0
ENDSEC
  0
SECTION
  2
BLOCKS
  0
BLOCK
  8
0
  2
$MODEL_SPACE
 70
     0
 10
0.0
 20
0.0
 30
0.0
  3
$MODEL_SPACE
  1

  0
ENDBLK
  5
1113
  8
0
  0
BLOCK
 67
     1
  8
0
  2
$PAPER_SPACE
 70
     0
 10
0.0
 20
0.0
 30
0.0
  3
$PAPER_SPACE
  1

  0
ENDBLK
  5
110F
 67
     1
  8
0
  0
BLOCK
  8
0
  2
_OPEN
 70
     0
 10
0.0
 20
0.0
 30
0.0
  3
_OPEN
  1

  0
LINE
  5
595
  8
0
  6
BYBLOCK
 62
     0
 10
-1.0
 20
0.16666667
 30
0.0
 11
0.0
 21
0.0
 31
0.0
  0
LINE
  5
596
  8
0
  6
BYBLOCK
 62
     0
 10
-1.0
 20
-0.16666667
 30
0.0
 11
0.0
 21
0.0
 31
0.0
  0
LINE
  5
597
  8
0
  6
BYBLOCK
 62
     0
 10
0.0
 20
0.0
 30
0.0
 11
-1.0
 21
0.0
 31
0.0
  0
ENDBLK
  5
599
  8
0
  0
BLOCK
  8
0
  2
矢印なし
 70
     0
 10
0.0
 20
0.0
 30
0.0
  3
矢印なし
  1

  0
ENDBLK
  5
6E5
  8
0
  0
BLOCK
  8
0
  2
_ACMFILLEDHALF
 70
     0
 10
0.0
 20
0.0
 30
0.0
  3
_ACMFILLEDHALF
  1

  0
TRACE
  5
11B1
  8
240
 62
     0
 10
-0.8
 20
0.0
 30
0.0
 11
-1.0
 21
0.166666666
 31
0.0
 12
0.0
 22
0.0
 32
0.0
 13
0.0
 23
0.0
 33
0.0
  0
LINE
  5
11B2
  8
240
 62
     0
 10
-1.0
 20
0.0
 30
0.0
 11
-0.8
 21
0.0
 31
0.0
  0
ENDBLK
  5
11B0
  8
0
  0
ENDSEC
  0
SECTION
  2
ENTITIES
  0
INSERT
  5
6E6
  8
245
  2
矢印なし
 10
175.6238269700000103
 20
90.551235719999994
 30
0.0
  0
TEXT
  5
BC6
  8
241
  6
CONTINUOUS
 10
-50.0
 20
77.0
 30
0.0
 40
5.0
  1
CKB7-HMC32
  7
YOKO
 11
-50.0
 21
77.0
 31
0.0
 73
     1
  0
LINE
  5
E13
  8
245
  6
CENTER2
 10
104.2999999999999972
 20
0.0
 30
0.0
 11
-51.0
 21
0.0
 31
0.0
  0
ARC
  5
E18
  8
241
  6
CONTINUOUS
 10
79.0715728800000051
 20
-27.9648216500000011
 30
0.0
 40
2.8284271247461961
 50
270.0
 51
90.0
  0
ARC
  5
E19
  8
241
  6
CONTINUOUS
 10
67.7284271200000063
 20
-27.9648216500000011
 30
0.0
 40
2.8284271247461961
 50
90.0
 51
270.0
  0
LINE
  5
E1A
  8
240
  6
CONTINUOUS
 10
103.2999999999999972
 20
32.8456075400000103
 30
0.0
 11
103.2999999999999972
 21
-32.8456075400000103
 31
0.0
1001
GRPNAME
1000
PASTMDAL
  0
ARC
  5
E1B
  8
240
  6
CONTINUOUS
 10
39.6000000000000014
 20
-30.1499999999999986
 30
0.0
 40
4.0
 50
90.0
 51
180.0
1001
GRPNAME
1000
PASTMD0B
  0
LINE
  5
E1C
  8
241
  6
CONTINUOUS
 10
35.6000000000000014
 20
0.0
 30
0.0
 11
35.6000000000000014
 21
-30.1499999999999986
 31
0.0
1001
GRPNAME
1000
PASTMD0B
  0
LINE
  5
E1F
  8
240
  6
CONTINUOUS
 10
0.0
 20
-45.0
 30
0.0
 11
0.0
 21
-23.0
 31
0.0
  0
LINE
  5
E21
  8
241
  6
CONTINUOUS
 10
48.6000000000000014
 20
-40.0
 30
0.0
 11
48.6000000000000014
 21
0.0
 31
0.0
  0
LINE
  5
E22
  8
241
  6
CONTINUOUS
 10
46.6000000000000014
 20
-40.4999999999999929
 30
0.0
 11
46.6000000000000014
 21
0.0
 31
0.0
  0
LINE
  5
E23
  8
241
  6
CONTINUOUS
 10
63.6000000000000014
 20
-40.0
 30
0.0
 11
63.6000000000000014
 21
0.0
 31
0.0
  0
LINE
  5
E24
  8
240
  6
CONTINUOUS
 10
40.6000000000000014
 20
-26.1499999999999986
 30
0.0
 11
40.6000000000000014
 21
-38.5
 31
0.0
1001
GRPNAME
1000
PASTMDAM
  0
LINE
  5
E25
  8
241
  6
CONTINUOUS
 10
25.0
 20
-45.0
 30
0.0
 11
25.0
 21
0.0
 31
0.0
  0
LINE
  5
E26
  8
241
  6
CONTINUOUS
 10
15.0
 20
-45.0
 30
0.0
 11
15.0
 21
0.0
 31
0.0
  0
LINE
  5
E27
  8
241
  6
CONTINUOUS
 10
34.2000000000000028
 20
-41.3999999999999915
 30
0.0
 11
34.2000000000000028
 21
0.0
 31
0.0
  0
LINE
  5
E28
  8
240
  6
CONTINUOUS
 10
47.0999999999999872
 20
-40.0
 30
0.0
 11
63.6000000000000014
 21
-40.0
 31
0.0
  0
LINE
  5
E29
  8
240
  6
CONTINUOUS
 10
34.2000000000000028
 20
-45.0
 30
0.0
 11
0.0
 21
-45.0
 31
0.0
  0
LINE
  5
E2F
  8
240
  6
CONTINUOUS
 10
34.2000000000000028
 20
-45.0
 30
0.0
 11
34.2000000000000028
 21
-41.3999999999999915
 31
0.0
  0
LINE
  5
E30
  8
240
  6
CONTINUOUS
 10
42.6000000000000014
 20
-40.4999999999999929
 30
0.0
 11
46.6000000000000014
 21
-40.4999999999999929
 31
0.0
  0
LINE
  5
E31
  8
240
  6
CONTINUOUS
 10
35.6000000000000014
 20
-30.1499999999999986
 30
0.0
 11
35.6000000000000014
 21
-40.0
 31
0.0
1001
GRPNAME
1000
PASTMD0B
  0
LINE
  5
E32
  8
240
  6
CONTINUOUS
 10
34.2000000000000028
 20
-41.3999999999999915
 30
0.0
 11
35.6000000000000014
 21
-40.0
 31
0.0
  0
ARC
  5
E33
  8
240
  6
CONTINUOUS
 10
42.6000000000000014
 20
-38.5
 30
0.0
 40
2.0
 50
180.0
 51
270.0
1001
GRPNAME
1000
PASTMDAM
  0
LINE
  5
E34
  8
240
  6
CONTINUOUS
 10
47.0999999999999872
 20
-40.0
 30
0.0
 11
46.6000000000000014
 21
-40.4999999999999929
 31
0.0
  0
ARC
  5
E35
  8
240
  6
CONTINUOUS
 10
98.2999999999999972
 20
-32.8456075400000103
 30
0.0
 40
5.0000000000000062
 50
275.0
 51
0.0
  0
LINE
  5
E36
  8
241
  6
CONTINUOUS
 10
67.7284271200000063
 20
-28.2489159100000009
 30
0.0
 11
79.0715728800000051
 21
-28.2489159100000009
 31
0.0
  0
LINE
  5
E37
  8
241
  6
CONTINUOUS
 10
67.7284271200000063
 20
-30.793248779999999
 30
0.0
 11
79.0715728800000051
 21
-30.793248779999999
 31
0.0
  0
LINE
  5
E38
  8
240
  6
CONTINUOUS
 10
63.8500000000000014
 20
-39.75
 30
0.0
 11
80.5999999999999801
 21
-39.75
 31
0.0
  0
ARC
  5
E39
  8
241
  6
CONTINUOUS
 10
67.7284271200000063
 20
-25.4204887799999995
 30
0.0
 40
2.8284271247462112
 50
206.7294900599999039
 51
270.0
  0
LINE
  5
E3A
  8
241
  6
CONTINUOUS
 10
66.5999999999999943
 20
-39.75
 30
0.0
 11
66.5999999999999943
 21
-30.5584006899999991
 31
0.0
  0
LINE
  5
E3B
  8
240
  6
CONTINUOUS
 10
63.8500000000000014
 20
-39.75
 30
0.0
 11
63.6000000000000014
 21
-40.0
 31
0.0
  0
LINE
  5
E3C
  8
240
  6
CONTINUOUS
 10
98.7357787100000053
 20
-37.8265810299999998
 30
0.0
 11
82.4660254000000066
 21
-39.25
 31
0.0
  0
LINE
  5
E3D
  8
241
  6
CONTINUOUS
 10
80.5999999999999801
 20
-39.75
 30
0.0
 11
80.5999999999999801
 21
-30.3447188200000006
 31
0.0
  0
LINE
  5
E3E
  8
240
  6
CONTINUOUS
 10
82.4660254000000066
 20
-39.25
 30
0.0
 11
80.5999999999999801
 21
-39.75
 31
0.0
  0
ARC
  5
E3F
  8
241
  6
CONTINUOUS
 10
79.0715728800000051
 20
-25.4204887799999995
 30
0.0
 40
2.8284271247462112
 50
270.0
 51
333.2705099400000108
  0
LINE
  5
E40
  8
243
  6
HIDDEN2
 10
38.2660253999999966
 20
16.0
 30
0.0
 11
102.0
 21
16.0
 31
0.0
1001
GRPNAME
1000
PASTMDAR
  0
LINE
  5
E41
  8
240
  6
CONTINUOUS
 10
47.0999999999999872
 20
40.0
 30
0.0
 11
63.6000000000000014
 21
40.0
 31
0.0
1001
GRPNAME
1000
PASTMD04
  0
ARC
  5
E42
  8
240
  6
CONTINUOUS
 10
42.6000000000000014
 20
38.5
 30
0.0
 40
2.0
 50
90.0
 51
180.0
1001
GRPNAME
1000
PASTMDAM
  0
LINE
  5
E43
  8
240
  6
CONTINUOUS
 10
0.0
 20
45.0
 30
0.0
 11
0.0
 21
23.0
 31
0.0
  0
LINE
  5
E44
  8
241
  6
CONTINUOUS
 10
34.2000000000000028
 20
41.3999999999999915
 30
0.0
 11
34.2000000000000028
 21
0.0
 31
0.0
  0
LINE
  5
E45
  8
240
  6
CONTINUOUS
 10
35.6000000000000014
 20
30.1499999999999986
 30
0.0
 11
35.6000000000000014
 21
40.0
 31
0.0
1001
GRPNAME
1000
PASTMD0B
  0
LINE
  5
E46
  8
241
  6
CONTINUOUS
 10
48.6000000000000014
 20
40.0
 30
0.0
 11
48.6000000000000014
 21
0.0
 31
0.0
  0
LINE
  5
E47
  8
241
  6
CONTINUOUS
 10
46.6000000000000014
 20
40.4999999999999929
 30
0.0
 11
46.6000000000000014
 21
0.0
 31
0.0
  0
LINE
  5
E48
  8
241
  6
CONTINUOUS
 10
25.0
 20
0.0
 30
0.0
 11
25.0
 21
45.0
 31
0.0
  0
LINE
  5
E49
  8
241
  6
CONTINUOUS
 10
15.0
 20
45.0
 30
0.0
 11
15.0
 21
0.0
 31
0.0
  0
LINE
  5
E4B
  8
241
  6
CONTINUOUS
 10
0.0
 20
23.0
 30
0.0
 11
0.0
 21
0.0
 31
0.0
  0
LINE
  5
E50
  8
241
  6
CONTINUOUS
 10
0.0
 20
-23.0
 30
0.0
 11
0.0
 21
0.0
 31
0.0
  0
LINE
  5
E5A
  8
241
  6
CONTINUOUS
 10
35.6000000000000014
 20
0.0
 30
0.0
 11
35.6000000000000014
 21
30.1499999999999986
 31
0.0
1001
GRPNAME
1000
PASTMD0B
  0
LINE
  5
E5B
  8
241
  6
CONTINUOUS
 10
40.6000000000000014
 20
26.1499999999999986
 30
0.0
 11
40.6000000000000014
 21
0.0
 31
0.0
  0
LINE
  5
E5C
  8
241
  6
CONTINUOUS
 10
40.6000000000000014
 20
-26.1499999999999986
 30
0.0
 11
40.6000000000000014
 21
0.0
 31
0.0
  0
LINE
  5
E5D
  8
240
  6
CONTINUOUS
 10
39.6000000000000014
 20
-26.1499999999999986
 30
0.0
 11
40.6000000000000014
 21
-26.1499999999999986
 31
0.0
  0
LINE
  5
E5E
  8
240
  6
CONTINUOUS
 10
40.6000000000000014
 20
26.1499999999999986
 30
0.0
 11
40.6000000000000014
 21
38.5
 31
0.0
1001
GRPNAME
1000
PASTMDAM
  0
ARC
  5
E5F
  8
240
  6
CONTINUOUS
 10
39.6000000000000014
 20
30.1499999999999986
 30
0.0
 40
4.0
 50
180.0
 51
270.0
1001
GRPNAME
1000
PASTMD0B
  0
LINE
  5
E60
  8
240
  6
CONTINUOUS
 10
39.6000000000000014
 20
26.1499999999999986
 30
0.0
 11
40.6000000000000014
 21
26.1499999999999986
 31
0.0
  0
LINE
  5
E61
  8
240
  6
CONTINUOUS
 10
34.2000000000000028
 20
45.0
 30
0.0
 11
0.0
 21
45.0
 31
0.0
  0
LINE
  5
E64
  8
240
  6
CONTINUOUS
 10
42.6000000000000014
 20
40.4999999999999929
 30
0.0
 11
46.6000000000000014
 21
40.4999999999999929
 31
0.0
1001
GRPNAME
1000
PASTMD04
  0
LINE
  5
E65
  8
240
  6
CONTINUOUS
 10
34.2000000000000028
 20
41.3999999999999915
 30
0.0
 11
35.6000000000000014
 21
40.0
 31
0.0
  0
LINE
  5
E66
  8
240
  6
CONTINUOUS
 10
34.2000000000000028
 20
45.0
 30
0.0
 11
34.2000000000000028
 21
41.3999999999999915
 31
0.0
  0
LINE
  5
E67
  8
240
  6
CONTINUOUS
 10
47.0999999999999872
 20
40.0
 30
0.0
 11
46.6000000000000014
 21
40.4999999999999929
 31
0.0
1001
GRPNAME
1000
PASTMD04
  0
LINE
  5
E68
  8
240
  6
CONTINUOUS
 10
82.4660254000000066
 20
39.25
 30
0.0
 11
80.5999999999999801
 21
39.75
 31
0.0
1001
GRPNAME
1000
PASTMD04
  0
LINE
  5
E69
  8
241
  6
CONTINUOUS
 10
63.6000000000000014
 20
40.0
 30
0.0
 11
63.6000000000000014
 21
0.0
 31
0.0
  0
LINE
  5
E6A
  8
241
  6
CONTINUOUS
 10
66.5999999999999943
 20
39.75
 30
0.0
 11
66.5999999999999943
 21
30.5584006899999991
 31
0.0
  0
LINE
  5
E6B
  8
241
  6
CONTINUOUS
 10
80.5999999999999801
 20
39.75
 30
0.0
 11
80.5999999999999801
 21
30.3447188200000006
 31
0.0
  0
ARC
  5
E6C
  8
240
  6
CONTINUOUS
 10
98.2999999999999972
 20
32.8456075400000103
 30
0.0
 40
5.0
 50
0.0
 51
85.0
  0
LINE
  5
E6E
  8
241
  6
CONTINUOUS
 10
80.5999999999999801
 20
25.5849244800000015
 30
0.0
 11
80.5999999999999801
 21
3.6000000000000001
 31
0.0
  0
LINE
  5
E6F
  8
241
  6
CONTINUOUS
 10
66.5999999999999943
 20
25.3712426099999995
 30
0.0
 11
66.5999999999999943
 21
3.8678159199999991
 31
0.0
  0
ARC
  5
E70
  8
241
  6
CONTINUOUS
 10
77.9000000000000057
 20
0.0
 30
0.0
 40
4.5
 50
0.0
 51
90.0
  0
ARC
  5
E71
  8
241
  6
CONTINUOUS
 10
77.9000000000000057
 20
0.0
 30
0.0
 40
4.5
 50
0.0
 51
90.0
  0
ARC
  5
E72
  8
241
  6
CONTINUOUS
 10
77.9000000000000057
 20
0.0
 30
0.0
 40
4.0
 50
0.0
 51
90.0
  0
LINE
  5
E73
  8
241
  6
CONTINUOUS
 10
67.7284271200000063
 20
-25.1363945300000005
 30
0.0
 11
79.0715728800000051
 21
-25.1363945300000005
 31
0.0
  0
ARC
  5
E74
  8
241
  6
CONTINUOUS
 10
77.9000000000000057
 20
0.0
 30
0.0
 40
4.0
 50
270.0
 51
0.0
  0
ARC
  5
E75
  8
241
  6
CONTINUOUS
 10
77.9000000000000057
 20
0.0
 30
0.0
 40
4.5
 50
270.0
 51
0.0
  0
ARC
  5
E76
  8
241
  6
CONTINUOUS
 10
77.9000000000000057
 20
0.0
 30
0.0
 40
4.5
 50
270.0
 51
0.0
  0
LINE
  5
E77
  8
241
  6
CONTINUOUS
 10
66.5999999999999943
 20
-25.3712426099999995
 30
0.0
 11
66.5999999999999943
 21
-3.8678159199999991
 31
0.0
  0
ARC
  5
E78
  8
241
  6
CONTINUOUS
 10
68.9000000000000057
 20
0.0
 30
0.0
 40
4.0
 50
90.0
 51
180.0
  0
ARC
  5
E79
  8
241
  6
CONTINUOUS
 10
68.9000000000000057
 20
0.0
 30
0.0
 40
4.5
 50
90.0
 51
180.0
  0
ARC
  5
E7A
  8
241
  6
CONTINUOUS
 10
68.9000000000000057
 20
0.0
 30
0.0
 40
4.0
 50
180.0
 51
270.0
  0
ARC
  5
E7B
  8
241
  6
CONTINUOUS
 10
68.9000000000000057
 20
0.0
 30
0.0
 40
4.5
 50
180.0
 51
270.0
  0
LINE
  5
E7C
  8
241
  6
CONTINUOUS
 10
68.9000000000000057
 20
-4.0
 30
0.0
 11
77.9000000000000057
 21
-4.0
 31
0.0
  0
LINE
  5
E7D
  8
241
  6
CONTINUOUS
 10
68.9000000000000057
 20
-4.5
 30
0.0
 11
77.9000000000000057
 21
-4.5
 31
0.0
  0
LINE
  5
E7E
  8
241
  6
CONTINUOUS
 10
68.9000000000000057
 20
-4.5
 30
0.0
 11
77.9000000000000057
 21
-4.5
 31
0.0
  0
LINE
  5
E7F
  8
241
  6
CONTINUOUS
 10
68.9000000000000057
 20
4.5
 30
0.0
 11
77.9000000000000057
 21
4.5
 31
0.0
  0
LINE
  5
E80
  8
241
  6
CONTINUOUS
 10
68.9000000000000057
 20
4.5
 30
0.0
 11
77.9000000000000057
 21
4.5
 31
0.0
  0
LINE
  5
E81
  8
241
  6
CONTINUOUS
 10
68.9000000000000057
 20
4.0
 30
0.0
 11
77.9000000000000057
 21
4.0
 31
0.0
  0
LINE
  5
E82
  8
241
  6
CONTINUOUS
 10
80.5999999999999801
 20
-25.5849244800000015
 30
0.0
 11
80.5999999999999801
 21
-3.6000000000000001
 31
0.0
  0
LINE
  5
E83
  8
241
  6
CONTINUOUS
 10
67.7284271200000063
 20
30.793248779999999
 30
0.0
 11
79.0715728800000051
 21
30.793248779999999
 31
0.0
  0
LINE
  5
E84
  8
241
  6
CONTINUOUS
 10
67.7284271200000063
 20
28.2489159100000009
 30
0.0
 11
79.0715728800000051
 21
28.2489159100000009
 31
0.0
  0
LINE
  5
E85
  8
241
  6
CONTINUOUS
 10
67.7284271200000063
 20
25.1363945300000005
 30
0.0
 11
79.0715728800000051
 21
25.1363945300000005
 31
0.0
  0
ARC
  5
E86
  8
241
  6
CONTINUOUS
 10
67.7284271200000063
 20
25.4204887799999995
 30
0.0
 40
2.8284271247462112
 50
90.0
 51
153.2705099400000108
  0
ARC
  5
E87
  8
241
  6
CONTINUOUS
 10
67.7284271200000063
 20
27.9648216500000011
 30
0.0
 40
2.8284271247461961
 50
90.0
 51
270.0
  0
LINE
  5
E88
  8
240
  6
CONTINUOUS
 10
98.7357787100000053
 20
37.8265810299999998
 30
0.0
 11
82.4660254000000066
 21
39.25
 31
0.0
1001
GRPNAME
1000
PASTMD04
  0
ARC
  5
E89
  8
241
  6
CONTINUOUS
 10
79.0715728800000051
 20
25.4204887799999995
 30
0.0
 40
2.8284271247462112
 50
26.7294900599999998
 51
90.0
  0
ARC
  5
E8A
  8
241
  6
CONTINUOUS
 10
79.0715728800000051
 20
27.9648216500000011
 30
0.0
 40
2.8284271247461961
 50
270.0
 51
90.0
  0
LINE
  5
E8B
  8
240
  6
CONTINUOUS
 10
63.8500000000000014
 20
39.75
 30
0.0
 11
80.5999999999999801
 21
39.75
 31
0.0
1001
GRPNAME
1000
PASTMD04
  0
LINE
  5
E8C
  8
240
  6
CONTINUOUS
 10
63.8500000000000014
 20
39.75
 30
0.0
 11
63.6000000000000014
 21
40.0
 31
0.0
1001
GRPNAME
1000
PASTMD04
  0
LINE
  5
E8E
  8
250
  6
CONTINUOUS
 10
0.0
 20
45.4999999999999929
 30
0.0
 11
0.0
 21
64.0
 31
0.0
  0
LINE
  5
E8F
  8
250
  6
CONTINUOUS
 10
102.0
 20
25.1000000000000014
 30
0.0
 11
102.0
 21
64.0
 31
0.0
  0
LINE
  5
E90
  8
250
  6
CONTINUOUS
 10
2.2299999999999991
 20
63.0
 30
0.0
 11
99.769999999999996
 21
63.0
 31
0.0
  0
LINE
  5
E94
  8
250
  6
CONTINUOUS
 10
102.5
 20
16.0
 30
0.0
 11
116.2999999999999972
 21
16.0
 31
0.0
  0
LINE
  5
E95
  8
250
  6
CONTINUOUS
 10
115.2999999999999972
 20
-13.7699999999999996
 30
0.0
 11
115.2999999999999972
 21
13.7699999999999996
 31
0.0
  0
INSERT
  5
E96
  8
250
  6
CONTINUOUS
  2
矢印なし
 10
115.2999999999999972
 20
-16.0
 30
0.0
 41
2.2299999999999991
 42
2.2299999999999991
 43
2.2299999999999991
 50
270.0
  0
LINE
  5
E99
  8
250
  6
CONTINUOUS
 10
64.0999999999999943
 20
-40.0
 30
0.0
 11
123.2999999999999972
 21
-40.0
 31
0.0
  0
LINE
  5
E9A
  8
250
  6
CONTINUOUS
 10
64.0999999999999943
 20
40.0
 30
0.0
 11
123.2999999999999972
 21
40.0
 31
0.0
  0
LINE
  5
E9B
  8
250
  6
CONTINUOUS
 10
122.2999999999999972
 20
-37.7700000000000102
 30
0.0
 11
122.2999999999999972
 21
37.7700000000000102
 31
0.0
  0
TEXT
  5
F18
  8
250
  6
CONTINUOUS
 10
46.5
 20
64.0
 30
0.0
 40
3.0
  1
102
1001
ACAD
1000
MTEXTBEGIN
1070
    73
1070
     1
1070
    44
1040
1.0
1070
    74
1070
     0
1000
MTEXTEND
  0
LINE
  5
F19
  8
250
  6
CONTINUOUS
 10
99.769999999999996
 20
63.3716666740999983
 30
0.0
 11
102.0
 21
63.0
 31
0.0
  0
LINE
  5
F1A
  8
250
  6
CONTINUOUS
 10
99.769999999999996
 20
62.6283333259000017
 30
0.0
 11
102.0
 21
63.0
 31
0.0
  0
LINE
  5
F1B
  8
250
  6
CONTINUOUS
 10
102.0
 20
63.0
 30
0.0
 11
99.769999999999996
 21
63.0
 31
0.0
  0
LINE
  5
F1C
  8
250
  6
CONTINUOUS
 10
2.2299999999999991
 20
62.6283333259000017
 30
0.0
 11
0.0
 21
63.0
 31
0.0
  0
LINE
  5
F1D
  8
250
  6
CONTINUOUS
 10
2.2299999999999991
 20
63.3716666740999983
 30
0.0
 11
0.0
 21
63.0
 31
0.0
  0
LINE
  5
F1E
  8
250
  6
CONTINUOUS
 10
0.0
 20
63.0
 30
0.0
 11
2.2299999999999991
 21
63.0
 31
0.0
  0
TEXT
  5
F1F
  8
250
  6
CONTINUOUS
 10
114.2999999999999972
 20
-3.9333333333333309
 30
0.0
 40
2.799999999999998
  1
\U+220532
 50
90.0
  0
LINE
  5
F20
  8
250
  6
CONTINUOUS
 10
114.9283333258999988
 20
13.7699999999999996
 30
0.0
 11
115.2999999999999972
 21
16.0
 31
0.0
  0
LINE
  5
F21
  8
250
  6
CONTINUOUS
 10
115.6716666740999955
 20
13.7699999999999996
 30
0.0
 11
115.2999999999999972
 21
16.0
 31
0.0
  0
LINE
  5
F22
  8
250
  6
CONTINUOUS
 10
115.2999999999999972
 20
16.0
 30
0.0
 11
115.2999999999999972
 21
13.7699999999999996
 31
0.0
  0
TEXT
  5
F23
  8
250
  6
CONTINUOUS
 10
121.2999999999999972
 20
-4.2142857142857126
 30
0.0
 40
3.0
  1
\U+220580
 50
90.0
1001
ACAD
1000
MTEXTBEGIN
1070
    73
1070
     1
1070
    44
1040
1.0
1070
    74
1070
     0
1000
MTEXTEND
  0
LINE
  5
F24
  8
250
  6
CONTINUOUS
 10
121.9283333258999988
 20
37.7700000000000102
 30
0.0
 11
122.2999999999999972
 21
40.0
 31
0.0
  0
LINE
  5
F25
  8
250
  6
CONTINUOUS
 10
122.6716666740999955
 20
37.7700000000000102
 30
0.0
 11
122.2999999999999972
 21
40.0
 31
0.0
  0
LINE
  5
F26
  8
250
  6
CONTINUOUS
 10
122.2999999999999972
 20
40.0
 30
0.0
 11
122.2999999999999972
 21
37.7700000000000102
 31
0.0
  0
LINE
  5
F27
  8
250
  6
CONTINUOUS
 10
122.6716666740999955
 20
-37.7700000000000102
 30
0.0
 11
122.2999999999999972
 21
-40.0
 31
0.0
  0
LINE
  5
F28
  8
250
  6
CONTINUOUS
 10
121.9283333258999988
 20
-37.7700000000000102
 30
0.0
 11
122.2999999999999972
 21
-40.0
 31
0.0
  0
LINE
  5
F29
  8
250
  6
CONTINUOUS
 10
122.2999999999999972
 20
-40.0
 30
0.0
 11
122.2999999999999972
 21
-37.7700000000000102
 31
0.0
  0
LINE
  5
FE9
  8
240
  6
CONTINUOUS
 10
-50.0
 20
22.9999999999999893
 30
0.0
 11
-21.0017514441155306
 21
23.0000000000000604
 31
0.0
  0
LINE
  5
FEA
  8
240
  6
CONTINUOUS
 10
-50.0
 20
-23.0000000000000213
 30
0.0
 11
-21.0017514441155697
 21
-22.9999999999999396
 31
0.0
  0
LINE
  5
FEB
  8
240
  6
CONTINUOUS
 10
-50.0
 20
-23.0000000000000213
 30
0.0
 11
-50.0
 21
22.9999999999999787
 31
0.0
  0
LINE
  5
FEC
  8
240
  6
CONTINUOUS
 10
-2.998249555884493
 20
-22.9999999999999396
 30
0.0
 11
-5.885000111028825
 21
-28.0
 31
0.0
  0
LINE
  5
FED
  8
240
  6
CONTINUOUS
 10
-21.0017514441155697
 20
-22.9999999999999396
 30
0.0
 11
-18.11500088897116
 21
-28.0
 31
0.0
  0
LINE
  5
FEE
  8
240
  6
CONTINUOUS
 10
-18.11500088897116
 20
-28.0
 30
0.0
 11
-5.885000111028825
 21
-28.0
 31
0.0
  0
LINE
  5
FEF
  8
245
  6
CENTER2
 10
-19.0
 20
14.15068100000002
 30
0.0
 11
-19.0
 21
-14.0141239999999794
 31
0.0
  0
CIRCLE
  5
FF0
  8
241
  6
CONTINUOUS
 10
-19.0
 20
0.0
 30
0.0
 40
10.1249999999999893
  0
CIRCLE
  5
FF1
  8
241
  6
CONTINUOUS
 10
-19.0
 20
0.0
 30
0.0
 40
7.5
  0
LINE
  5
FF2
  8
241
  6
CONTINUOUS
 10
-21.0017514441155697
 20
-22.9999999999999396
 30
0.0
 11
-2.998249555884493
 21
-22.9999999999999396
 31
0.0
  0
LINE
  5
FF3
  8
240
  6
CONTINUOUS
 10
-2.998249555884493
 20
-22.9999999999999396
 30
0.0
 11
-0.0000000000000515
 21
-23.0
 31
0.0
  0
LINE
  5
FF4
  8
240
  6
CONTINUOUS
 10
-18.1150008889711316
 20
28.0
 30
0.0
 11
-5.8850001110288321
 21
28.0
 31
0.0
  0
LINE
  5
FF5
  8
241
  6
CONTINUOUS
 10
-21.0017514441155306
 20
23.0000000000000604
 30
0.0
 11
-2.998249555884521
 21
23.0000000000000604
 31
0.0
  0
LINE
  5
FF6
  8
240
  6
CONTINUOUS
 10
-21.0017514441155306
 20
23.0000000000000604
 30
0.0
 11
-18.1150008889711316
 21
28.0
 31
0.0
  0
LINE
  5
FF7
  8
240
  6
CONTINUOUS
 10
-2.998249555884521
 20
23.0000000000000604
 30
0.0
 11
0.00000000000081
 21
23.0
 31
0.0
  0
LINE
  5
FF8
  8
240
  6
CONTINUOUS
 10
-2.998249555884521
 20
23.0000000000000604
 30
0.0
 11
-5.8850001110288321
 21
28.0
 31
0.0
  0
LINE
  5
FF9
  8
250
  6
CONTINUOUS
 10
-46.5208877481212184
 20
-37.5530876868668315
 30
0.0
 11
-36.9843670393812829
 21
-37.5530876868668315
 31
0.0
  0
LINE
  5
FFA
  8
250
  6
CONTINUOUS
 10
-36.9843670393812829
 20
-37.5530876868668315
 30
0.0
 11
-29.6599920664681491
 21
-24.9288652941812714
 31
0.0
  0
LINE
  5
FFB
  8
250
  6
CONTINUOUS
 10
-29.6599920664681491
 20
-24.9288652941812714
 30
0.0
 11
-28.5408948066632391
 21
-22.9999999999999609
 31
0.0
  0
LINE
  5
FFC
  8
250
  6
CONTINUOUS
 10
-29.4060521341125387
 20
-25.0761972428204416
 30
0.0
 11
-28.5408948066632391
 21
-22.9999999999999609
 31
0.0
  0
LINE
  5
FFD
  8
250
  6
CONTINUOUS
 10
-28.5408948066632391
 20
-22.9999999999999609
 30
0.0
 11
-29.9139319988237595
 21
-24.7815333455420905
 31
0.0
  0
TEXT
  5
FFE
  8
250
  6
CONTINUOUS
 10
-46.920887748121217
 20
-36.1530876868668329
 30
0.0
 40
2.799999999999998
  1
CK7
  7
YOKO
  0
LINE
  5
FFF
  8
247
  6
CONTINUOUS
 10
7.9999999999995071
 20
-34.2500000000703935
 30
0.0
 11
7.9999999999995079
 21
-27.5576923080303899
 31
0.0
  0
ARC
  5
1000
  8
247
  6
CONTINUOUS
 10
6.2500000000695071
 20
-34.2500000000703935
 30
0.0
 40
1.7499999999299991
 50
180.0
 51
0.0
  0
ARC
  5
1001
  8
247
  6
CONTINUOUS
 10
6.2500000000695071
 20
-27.5576923080303899
 30
0.0
 40
1.7499999999299991
 50
0.0
 51
180.0
  0
LINE
  5
1002
  8
247
  6
CONTINUOUS
 10
4.5000000001395071
 20
-33.3846153847203908
 30
0.0
 11
7.5000000000195071
 21
-34.2448515419623973
 31
0.0
  0
LINE
  5
1003
  8
247
  6
CONTINUOUS
 10
5.9230769231595071
 20
-32.4849838183362181
 30
0.0
 11
5.9230769231595071
 21
-33.7926761259762074
 31
0.0
  0
ARC
  5
1004
  8
247
  6
CONTINUOUS
 10
5.0495986677024831
 20
-32.145143816090183
 30
0.0
 40
0.5538165441895349
 50
72.9978896752915887
 51
172.9241662185123118
  0
ARC
  5
1005
  8
247
  6
CONTINUOUS
 10
4.936033044465284
 20
-32.5668783230291794
 30
0.0
 40
0.9904354236226808
 50
4.7429368522014004
 51
73.8492262732676181
1001
GENIUS_GENOBJ-N-FIL_13
1002
{
1000
OWNER
1000
GEN
1002
}
1001
GENIUS_GENODEF_13
1002
{
1000
HIER
1070
     0
1002
}
1002
{
1000
MANEDIT
1070
     0
1002
}
1002
{
1000
NOSEL
1070
     0
1002
}
1002
{
1000
BEHIND
1070
     0
1002
}
1002
{
1000
OTHER
1070
     0
1002
}
1002
{
1000
REACTOR
1002
}
  0
LINE
  5
1006
  8
247
  6
CONTINUOUS
 10
7.5000000000195071
 20
-32.9371592343224009
 30
0.0
 11
7.5000000000195071
 21
-34.2448515419623973
 31
0.0
  0
LINE
  5
1007
  8
247
  6
CONTINUOUS
 10
4.5000000001395071
 20
-33.3846153847203908
 30
0.0
 11
4.5000000001395106
 21
-32.0769230770804015
 31
0.0
  0
ARC
  5
1008
  8
247
  6
CONTINUOUS
 10
6.4820242326650641
 20
-32.5609196365473608
 30
0.0
 40
0.5640818586791229
 50
65.9909416525305232
 51
172.2634434590694923
  0
ARC
  5
1009
  8
247
  6
CONTINUOUS
 10
6.4874290391861011
 20
-33.038262685347469
 30
0.0
 40
1.0176059446230981
 50
5.701985164258133
 51
77.2773384368209122
1001
GENIUS_GENOBJ-N-FIL_13
1002
{
1000
OWNER
1000
GEN
1002
}
1001
GENIUS_GENODEF_13
1002
{
1000
HIER
1070
     0
1002
}
1002
{
1000
MANEDIT
1070
     0
1002
}
1002
{
1000
NOSEL
1070
     0
1002
}
1002
{
1000
BEHIND
1070
     0
1002
}
1002
{
1000
OTHER
1070
     0
1002
}
1002
{
1000
REACTOR
1002
}
  0
LINE
  5
100A
  8
247
  6
CONTINUOUS
 10
7.5000000000195071
 20
-31.2833130805423991
 30
0.0
 11
4.5000000001395106
 21
-30.4230769233003997
 31
0.0
  0
LINE
  5
100B
  8
247
  6
CONTINUOUS
 10
4.5000000001395106
 20
-28.0000000003203908
 30
0.0
 11
4.5000000001395106
 21
-28.5657366194569917
 31
0.0
  0
LINE
  5
100C
  8
247
  6
CONTINUOUS
 10
7.5000000000195071
 20
-29.4615384618003908
 30
0.0
 11
7.5000000000195071
 21
-28.8461538464403908
 31
0.0
  0
ARC
  5
100D
  8
247
  6
CONTINUOUS
 10
6.5832851359728943
 20
-27.7087912091232518
 30
0.0
 40
2.2526500823422122
 50
202.3594881415266968
 51
254.9932485428466009
  0
ARC
  5
100E
  8
247
  6
CONTINUOUS
 10
5.3083126551940252
 20
-28.3740694792136203
 30
0.0
 40
0.8906723995727782
 50
94.9945893190751036
 51
155.1663289573035911
1001
GENIUS_GENOBJ-N-FIL_13
1002
{
1000
OWNER
1000
GEN
1002
}
1001
GENIUS_GENODEF_13
1002
{
1000
HIER
1070
     0
1002
}
1002
{
1000
MANEDIT
1070
     0
1002
}
1002
{
1000
NOSEL
1070
     0
1002
}
1002
{
1000
BEHIND
1070
     0
1002
}
1002
{
1000
OTHER
1070
     0
1002
}
1002
{
1000
REACTOR
1002
}
  0
ARC
  5
100F
  8
247
  6
CONTINUOUS
 10
6.1601458886672651
 20
-29.2264588862129813
 30
0.0
 40
1.392781735586712
 50
15.84609655577942
 51
82.325137004170557
  0
ARC
  5
1010
  8
247
  6
CONTINUOUS
 10
6.4592434315267964
 20
-28.6422127258407713
 30
0.0
 40
1.324563662670287
 50
249.7136016704980079
 51
321.7887456564075137
1001
GENIUS_GENOBJ-N-FIL_13
1002
{
1000
OWNER
1000
GEN
1002
}
1001
GENIUS_GENODEF_13
1002
{
1000
HIER
1070
     0
1002
}
1002
{
1000
MANEDIT
1070
     0
1002
}
1002
{
1000
NOSEL
1070
     0
1002
}
1002
{
1000
BEHIND
1070
     0
1002
}
1002
{
1000
OTHER
1070
     0
1002
}
1002
{
1000
REACTOR
1002
}
  0
LINE
  5
1011
  8
247
  6
CONTINUOUS
 10
6.3461538462195106
 20
-28.5384615387603908
 30
0.0
 11
6.3461538462195106
 21
-27.8461538464803908
 31
0.0
  0
LINE
  5
1012
  8
247
  6
CONTINUOUS
 10
4.5000000001395106
 20
-34.2500000000703935
 30
0.0
 11
4.5000000001395106
 21
-33.576923077020389
 31
0.0
  0
LINE
  5
1017
  8
250
  6
CONTINUOUS
 10
102.5
 20
-16.0
 30
0.0
 11
116.2999999999999972
 21
-16.0
 31
0.0
  0
LINE
  5
1018
  8
250
  6
CONTINUOUS
 10
114.9283333258999988
 20
-13.7699999999999996
 30
0.0
 11
115.2999999999999972
 21
-16.0
 31
0.0
  0
LINE
  5
1019
  8
250
  6
CONTINUOUS
 10
115.6716666740999955
 20
-13.7699999999999996
 30
0.0
 11
115.2999999999999972
 21
-16.0
 31
0.0
  0
LINE
  5
101A
  8
250
  6
CONTINUOUS
 10
115.2999999999999972
 20
-16.0
 30
0.0
 11
115.2999999999999972
 21
-13.7699999999999996
 31
0.0
  0
LINE
  5
101B
  8
243
  6
HIDDEN2
 10
38.2660253999999966
 20
-16.0
 30
0.0
 11
102.0
 21
-16.0
 31
0.0
1001
GRPNAME
1000
PASTMDAR
  0
LINE
  5
101C
  8
243
  6
HIDDEN2
 10
102.0
 20
24.6000000000000014
 30
0.0
 11
102.0
 21
-24.6000000000000014
 31
0.0
  0
VIEWPORT
  5
22
 67
     1
  8
0
 10
261.5176991199999748
 20
148.5
 30
0.0
 40
523.0353982300000553
 41
297.0
 68
     1
 69
     1
1001
ACAD
1000
MVIEW
1002
{
1070
    16
1010
0.0
1020
0.0
1030
0.0
1010
0.0
1020
0.0
1030
1.0
1040
0.0
1040
297.0
1040
261.5176991199999748
1040
148.5
1040
50.0
1040
0.0
1040
0.0
1070
     0
1070
   100
1070
     1
1070
     1
1070
     0
1070
     0
1070
     0
1070
     0
1040
0.0
1040
0.0
1040
0.0
1040
1.0
1040
1.0
1040
10.0
1040
10.0
1070
     0
1002
{
1002
}
1002
}
1001
GENIUS_GENOBJ-N-SDF_13
1002
{
1000
OWNER
1000
GEN
1002
}
1001
GENIUS_GENODEF_13
1002
{
1000
HIER
1070
     0
1002
}
1002
{
1000
MANEDIT
1070
     0
1002
}
1002
{
1000
NOSEL
1070
     0
1002
}
1002
{
1000
BEHIND
1070
     0
1002
}
1002
{
1000
OTHER
1070
     0
1002
}
1002
{
1000
REACTOR
1002
}
1001
GENIUS_GENSCREG_15
1000
PF
1040
1.0
1000
DF
1040
1.0
1000
MIN
1011
0.0000000049999471
1021
0.0
1031
0.0
1021
0.0
1031
0.0
1000
MAX
1011
523.0353982350000024
1021
0.0
1031
0.0
1021
297.0
1031
0.0
1000
FLAGS
1070
     4
  0
ENDSEC
  0
EOF
