  0
SECTION
  2
HEADER
  9
$ACADVER
  1
AC1009
  9
$INSBASE
 10
0.0
 20
0.0
 30
0.0
  9
$EXTMIN
 10
-54.999999999999972
 20
-47.426867977349957
 30
0.0
  9
$EXTMAX
 10
263.273212088332
 20
88.000000000000071
 30
0.0
  9
$LIMMIN
 10
0.0
 20
0.0
  9
$LIMMAX
 10
297.0
 20
210.0
  9
$ORTHOMODE
 70
     1
  9
$REGENMODE
 70
     1
  9
$FILLMODE
 70
     1
  9
$QTEXTMODE
 70
     0
  9
$MIRRTEXT
 70
     1
  9
$DRAGMODE
 70
     2
  9
$LTSCALE
 40
10.0
  9
$OSMODE
 70
   103
  9
$ATTMODE
 70
     1
  9
$TEXTSIZE
 40
3.0
  9
$TRACEWID
 40
1.0
  9
$TEXTSTYLE
  7
YOKO
  9
$CLAYER
  8
240
  9
$CELTYPE
  6
BYLAYER
  9
$CECOLOR
 62
   256
  9
$DIMSCALE
 40
1.0
  9
$DIMASZ
 40
2.2299999999999991
  9
$DIMEXO
 40
0.5
  9
$DIMDLI
 40
7.0
  9
$DIMRND
 40
0.0
  9
$DIMDLE
 40
0.0
  9
$DIMEXE
 40
1.0
  9
$DIMTP
 40
0.0
  9
$DIMTM
 40
0.01
  9
$DIMTXT
 40
2.799999999999998
  9
$DIMCEN
 40
0.0
  9
$DIMTSZ
 40
0.0
  9
$DIMTOL
 70
     0
  9
$DIMLIM
 70
     0
  9
$DIMTIH
 70
     0
  9
$DIMTOH
 70
     0
  9
$DIMSE1
 70
     0
  9
$DIMSE2
 70
     0
  9
$DIMTAD
 70
     3
  9
$DIMZIN
 70
     9
  9
$DIMBLK
  1
OPEN
  9
$DIMASO
 70
     1
  9
$DIMSHO
 70
     1
  9
$DIMPOST
  1

  9
$DIMAPOST
  1

  9
$DIMALT
 70
     0
  9
$DIMALTD
 70
     2
  9
$DIMALTF
 40
25.399999999999999
  9
$DIMLFAC
 40
1.0
  9
$DIMTOFL
 70
     1
  9
$DIMTVP
 40
0.0
  9
$DIMTIX
 70
     1
  9
$DIMSOXD
 70
     0
  9
$DIMSAH
 70
     0
  9
$DIMBLK1
  1

  9
$DIMBLK2
  1

  9
$DIMSTYLE
  2
BIGT
  9
$DIMCLRD
 70
   256
  9
$DIMCLRE
 70
   256
  9
$DIMCLRT
 70
    40
  9
$DIMTFAC
 40
1.0
  9
$DIMGAP
 40
1.0
  9
$LUNITS
 70
     2
  9
$LUPREC
 70
     6
  9
$SKETCHINC
 40
1.0
  9
$FILLETRAD
 40
0.0
  9
$AUNITS
 70
     0
  9
$AUPREC
 70
     6
  9
$MENU
  1
.
  9
$ELEVATION
 40
0.0
  9
$PELEVATION
 40
0.0
  9
$THICKNESS
 40
0.0
  9
$LIMCHECK
 70
     0
  9
$BLIPMODE
 70
     0
  9
$CHAMFERA
 40
0.2
  9
$CHAMFERB
 40
0.2
  9
$SKPOLY
 70
     0
  9
$TDCREATE
 40
2458535.7184072342
  9
$TDUPDATE
 40
2458661.411524456
  9
$TDINDWG
 40
0.0236917361
  9
$TDUSRTIMER
 40
0.0236916435
  9
$USRTIMER
 70
     1
  9
$ANGBASE
 50
0.0
  9
$ANGDIR
 70
     0
  9
$PDMODE
 70
     1
  9
$PDSIZE
 40
0.0
  9
$PLINEWID
 40
0.0
  9
$COORDS
 70
     1
  9
$SPLFRAME
 70
     0
  9
$SPLINETYPE
 70
     6
  9
$SPLINESEGS
 70
     4
  9
$ATTDIA
 70
     1
  9
$ATTREQ
 70
     1
  9
$HANDLING
 70
     1
  9
$HANDSEED
  5
4BF9
  9
$SURFTAB1
 70
     6
  9
$SURFTAB2
 70
     6
  9
$SURFTYPE
 70
     6
  9
$SURFU
 70
     6
  9
$SURFV
 70
     6
  9
$UCSNAME
  2

  9
$UCSORG
 10
0.0
 20
0.0
 30
0.0
  9
$UCSXDIR
 10
1.0
 20
0.0
 30
0.0
  9
$UCSYDIR
 10
0.0
 20
1.0
 30
0.0
  9
$PUCSNAME
  2

  9
$PUCSORG
 10
0.0
 20
0.0
 30
0.0
  9
$PUCSXDIR
 10
1.0
 20
0.0
 30
0.0
  9
$PUCSYDIR
 10
0.0
 20
1.0
 30
0.0
  9
$USERI1
 70
     1
  9
$USERI2
 70
     0
  9
$USERI3
 70
     0
  9
$USERI4
 70
     0
  9
$USERI5
 70
     0
  9
$USERR1
 40
0.0
  9
$USERR2
 40
0.0
  9
$USERR3
 40
0.0
  9
$USERR4
 40
0.0
  9
$USERR5
 40
0.0
  9
$WORLDVIEW
 70
     1
  9
$SHADEDGE
 70
     3
  9
$SHADEDIF
 70
    70
  9
$TILEMODE
 70
     1
  9
$MAXACTVP
 70
    16
  9
$PLIMCHECK
 70
     0
  9
$PEXTMIN
 10
1.0000000000000000E+020
 20
1.0000000000000000E+020
 30
1.0000000000000000E+020
  9
$PEXTMAX
 10
-1.0000000000000000E+020
 20
-1.0000000000000000E+020
 30
-1.0000000000000000E+020
  9
$PLIMMIN
 10
0.0
 20
0.0
  9
$PLIMMAX
 10
420.0
 20
297.0
  9
$UNITMODE
 70
     0
  9
$VISRETAIN
 70
     1
  9
$PLINEGEN
 70
     0
  9
$PSLTSCALE
 70
     1
  0
ENDSEC
  0
SECTION
  2
TABLES
  0
TABLE
  2
VPORT
 70
     1
  0
VPORT
  2
*ACTIVE
 70
     0
 10
0.0
 20
0.0
 11
1.0
 21
1.0
 12
98.993025165499617
 22
72.468091455266773
 13
0.0
 23
0.0
 14
7.0
 24
7.0
 15
7.0
 25
7.0
 16
0.0
 26
0.0
 36
1.0
 17
0.0
 27
0.0
 37
0.0
 40
312.47367953622199
 41
1.411764705882353
 42
50.0
 43
0.0
 44
0.0
 50
0.0
 51
0.0
 71
     0
 72
  2000
 73
     1
 74
     0
 75
     1
 76
     1
 77
     0
 78
     0
  0
ENDTAB
  0
TABLE
  2
LTYPE
 70
    19
  0
LTYPE
  2
CONTINUOUS
 70
     0
  3
Solid line
 72
    65
 73
     0
 40
0.0
  0
LTYPE
  2
CENTER2
 70
     0
  3
___ _ ___ _ ___ _ ___ _ ___ _ ___ _ ___ _ ___ _
 72
    65
 73
     4
 40
1.125
 49
0.75
 49
-0.125
 49
0.125
 49
-0.125
  0
LTYPE
  2
PHANTOM2
 70
     0
  3
___ _ _ ___ _ _ ___ _ _ ___ _ _ ___ _ _ ___ _ _
 72
    65
 73
     6
 40
1.25
 49
0.625
 49
-0.125
 49
0.125
 49
-0.125
 49
0.125
 49
-0.125
  0
LTYPE
  2
AMCONSTR
 70
     0
  3
_______________________
 72
    65
 73
     2
 40
9999.0
 49
9999.0
 49
0.0
  0
LTYPE
  2
HIDDEN
 70
     0
  3
Hidden __ __ __ __ __ __ __ __ __ __ __ __ __ _
 72
    65
 73
     2
 40
0.375
 49
0.25
 49
-0.125
  0
LTYPE
  2
CENTER
 70
     0
  3
Center ____ _ ____ _ ____ _ ____ _ ____ _ ____
 72
    65
 73
     4
 40
2.0
 49
1.25
 49
-0.25
 49
0.25
 49
-0.25
  0
LTYPE
  2
HIDDEN2
 70
     0
  3
Hidden (.5x) _ _ _ _ _ _ _ _ _ _ _ _ _ _ _ _ _
 72
    65
 73
     2
 40
0.1875
 49
0.125
 49
-0.0625
  0
LTYPE
  2
AMZIGZAG2
 70
     0
  3
/\/-/\/-/\/-/\/-/\/-/\/
 72
    65
 73
     2
 40
0.4401
 49
0.0001
 49
-0.4400000000000001
  0
LTYPE
  2
ACANSTGB
 70
     0
  3
__ . . __ . .
 72
    65
 73
     6
 40
0.35433070866
 49
0.15748031496
 49
-0.03937007874
 49
0.03937007874
 49
-0.03937007874
 49
0.03937007874
 49
-0.03937007874
  0
LTYPE
  2
ACANSTGL
 70
     0
  3
_ _ _ _ _
 72
    65
 73
     2
 40
0.11811023622
 49
0.07874015748
 49
-0.03937007874
  0
ENDTAB
  0
TABLE
  2
LAYER
 70
     9
  0
LAYER
  2
0
 70
     0
 62
     7
  6
CONTINUOUS
  0
LAYER
  2
240
 70
     0
 62
     4
  6
CONTINUOUS
  0
LAYER
  2
DEFPOINTS
 70
     0
 62
     7
  6
CONTINUOUS
  0
LAYER
  2
245
 70
     0
 62
     2
  6
CENTER2
  0
LAYER
  2
241
 70
     0
 62
   211
  6
CONTINUOUS
  0
LAYER
  2
242
 70
     0
 62
     3
  6
CONTINUOUS
  0
LAYER
  2
246
 70
     0
 62
     3
  6
PHANTOM2
  0
LAYER
  2
247
 70
     0
 62
    60
  6
CONTINUOUS
  0
LAYER
  2
250
 70
     0
 62
     3
  6
CONTINUOUS
  0
ENDTAB
  0
TABLE
  2
STYLE
 70
     7
  0
STYLE
  2
STANDARD
 70
     0
 40
0.0
 41
1.0
 50
0.0
 71
     0
 42
3.0
  3
romans.shx
  4
extfont.shx
  0
STYLE
  2
YOKO
 70
     0
 40
0.0
 41
1.0
 50
0.0
 71
     0
 42
3.0
  3
romans.shx
  4
extfont.shx
  0
STYLE
  2

 70
     1
 40
0.0
 41
1.0
 50
0.0
 71
     0
 42
3.0
  3
genltshp.shx
  4

  0
STYLE
  2
ACANSGDT
 70
     0
 40
0.0
 41
1.0
 50
0.0
 71
     0
 42
3.0
  3
amgdt.shx
  4

  0
ENDTAB
  0
TABLE
  2
VIEW
 70
     0
  0
ENDTAB
  0
TABLE
  2
UCS
 70
     0
  0
ENDTAB
  0
TABLE
  2
APPID
 70
    45
  0
APPID
  2
ACAD
 70
     0
  0
APPID
  2
ACADANNOTATIVE
 70
     0
  0
APPID
  2
GLOBAL
 70
     0
  0
APPID
  2
DETAIL
 70
     0
  0
APPID
  2
GRPNAME
 70
     0
  0
APPID
  2
GPARA
 70
     0
  0
APPID
  2
MCAD_NO_VIS
 70
     0
  0
APPID
  2
ACAD_TEMP_GRAPHIC
 70
     0
  0
APPID
  2
ACATTRIBSERVICES
 70
     0
  0
APPID
  2
GENIUS_GENSCREG_15
 70
     0
  0
APPID
  2
GENIUS_GENODEF_13
 70
     0
  0
APPID
  2
GENIUS_GENOBJ-N-SDF_13
 70
     0
  0
APPID
  2
GENIUS_GENREC_14
 70
     0
  0
APPID
  2
GENIUS_GENOBJ-N-REC_13
 70
     0
  0
APPID
  2
GENIUS_GENDIMSH_14
 70
     0
  0
APPID
  2
GENIUS_GENOBJ-N-DIM_13
 70
     0
  0
APPID
  2
GENIUS_GENDIM_13
 70
     0
  0
APPID
  2
GENIUS_GENDTOL_13
 70
     0
  0
APPID
  2
GENIUS_GENOLIS_13
 70
     0
  0
APPID
  2
GENIUS_GENOENT_13
 70
     0
  0
APPID
  2
GENIUS_GENOBJ-F-FEM_13
 70
     0
  0
APPID
  2
GENIUS_GENOREF_13
 70
     0
  0
APPID
  2
GENIUS_GEFFEM_13
 70
     0
  0
APPID
  2
GENIUS_GEFFEMP_13
 70
     0
  0
APPID
  2
AD_DRAW
 70
     0
  0
APPID
  2
DESIGNERASSEMBLIES
 70
     0
  0
APPID
  2
ACADM_DIM_EDIT
 70
     0
  0
APPID
  2
AMDT_DM_ADJ
 70
     0
  0
APPID
  2
ITEMNAME
 70
     0
  0
APPID
  2
GENIUS_GENOBJ-N-FIL_13
 70
     0
  0
APPID
  2
GENIUS_GENFIL_13
 70
     0
  0
APPID
  2
GENIUS_GENOBJ-N-CHA_13
 70
     0
  0
APPID
  2
ACAECLAYERSTANDARD
 70
     0
  0
APPID
  2
ACAD_NAV_VCDISPLAY
 70
     0
  0
APPID
  2
ACAD_PSEXT
 70
     0
  0
APPID
  2
ACAD_DSTYLE_DIMJAG
 70
     0
  0
APPID
  2
ACAD_DSTYLE_DIMTALN
 70
     0
  0
APPID
  2
ACAD_EXEMPT_FROM_CAD_STANDARDS
 70
     0
  0
APPID
  2
ACAD_DSTYLE_DIMBREAK
 70
     0
  0
APPID
  2
ACAD_DSTYLE_DIMINSPECT
 70
     0
  0
APPID
  2
ACAD_MLEADERVER
 70
     0
  0
APPID
  2
ACAD_DSTYLE_DIMARC_LENGTH_
 70
     0
  0
APPID
  2
ACAD_DSTYLE_DIM_LINETYPE
 70
     0
  0
APPID
  2
ACAD_DSTYLE_DIM_EXT1_LINETYPE
 70
     0
  0
APPID
  2
ACAD_DSTYLE_DIM_EXT2_LINETYPE
 70
     0
  0
ENDTAB
  0
TABLE
  2
DIMSTYLE
 70
    16
  0
DIMSTYLE
  2
STANDARD
 70
     0
  3

  4

  5

  6

  7

 40
1.0
 41
0.18
 42
0.0625
 43
0.38
 44
0.18
 45
0.0
 46
0.0
 47
0.0
 48
0.0
140
0.18
141
0.09
142
0.0
143
25.399999999999999
144
1.0
145
0.0
146
1.0
147
0.09
 71
     0
 72
     0
 73
     1
 74
     1
 75
     0
 76
     0
 77
     0
 78
     0
170
     0
171
     2
172
     0
173
     0
174
     0
175
     0
176
     0
177
     0
178
     0
  0
DIMSTYLE
  2
BIGT
 70
     0
  3

  4

  5

  6

  7

 40
1.0
 41
2.2299999999999991
 42
0.5
 43
7.0
 44
1.0
 45
0.0
 46
0.0
 47
0.0
 48
0.01
140
2.799999999999998
141
0.0
142
0.0
143
25.399999999999999
144
1.0
145
0.0
146
1.0
147
1.0
 71
     0
 72
     0
 73
     0
 74
     0
 75
     0
 76
     0
 77
     3
 78
     9
170
     0
171
     2
172
     1
173
     0
174
     1
175
     0
176
   256
177
   256
178
    40
  0
DIMSTYLE
  2
AM_ANSI
 70
     0
  3

  4
mm
  5

  6

  7

 40
1.0
 41
0.12
 42
0.05
 43
0.5
 44
0.1
 45
0.0
 46
0.0
 47
0.1
 48
0.1
140
0.12
141
0.0
142
0.0
143
25.399999999999999
144
1.0
145
0.0
146
0.71
147
0.06
 71
     0
 72
     0
 73
     1
 74
     1
 75
     0
 76
     0
 77
     0
 78
     7
170
     0
171
     2
172
     0
173
     0
174
     0
175
     0
176
   256
177
   256
178
     2
  0
DIMSTYLE
  2
AM_ANSI$3
 70
     0
  3

  4
mm
  5

  6

  7

 40
1.0
 41
0.12
 42
0.05
 43
0.5
 44
0.1
 45
0.0
 46
0.0
 47
0.1
 48
0.1
140
0.12
141
0.0
142
0.0
143
25.399999999999999
144
1.0
145
0.0
146
0.71
147
0.06
 71
     0
 72
     0
 73
     1
 74
     1
 75
     0
 76
     0
 77
     0
 78
     7
170
     0
171
     2
172
     0
173
     0
174
     0
175
     0
176
   256
177
   256
178
     2
  0
DIMSTYLE
  2
AM_ANSI$4
 70
     0
  3

  4
mm
  5

  6

  7

 40
1.0
 41
0.12
 42
0.05
 43
0.5
 44
0.1
 45
0.0
 46
0.0
 47
0.1
 48
0.1
140
0.12
141
0.0
142
0.0
143
25.399999999999999
144
1.0
145
0.0
146
0.71
147
0.06
 71
     0
 72
     0
 73
     1
 74
     1
 75
     0
 76
     0
 77
     0
 78
     7
170
     0
171
     2
172
     0
173
     0
174
     0
175
     0
176
   256
177
   256
178
     2
  0
DIMSTYLE
  2
AM_ANSI$7
 70
     0
  3

  4
mm
  5

  6

  7

 40
1.0
 41
0.12
 42
0.05
 43
0.5
 44
0.1
 45
0.0
 46
0.0
 47
0.1
 48
0.1
140
0.12
141
0.0
142
0.0
143
25.399999999999999
144
1.0
145
0.0
146
0.71
147
0.06
 71
     0
 72
     0
 73
     1
 74
     1
 75
     0
 76
     0
 77
     0
 78
     7
170
     0
171
     2
172
     0
173
     0
174
     0
175
     0
176
   256
177
   256
178
     2
  0
DIMSTYLE
  2
AM_ANSI$SF
 70
     0
  3

  4
mm
  5

  6

  7

 40
1.0
 41
0.12
 42
0.05
 43
0.5
 44
0.1
 45
0.0
 46
0.0
 47
0.1
 48
0.1
140
0.12
141
0.0
142
0.0
143
25.399999999999999
144
1.0
145
0.0
146
0.71
147
0.06
 71
     0
 72
     0
 73
     1
 74
     1
 75
     1
 76
     1
 77
     0
 78
     7
170
     0
171
     2
172
     0
173
     0
174
     0
175
     0
176
   256
177
   256
178
     2
  0
DIMSTYLE
  2
AM_ANSI$SH
 70
     0
  3

  4
mm
  5

  6
GENAXEH
  7

 40
1.0
 41
0.12
 42
0.05
 43
0.5
 44
0.1
 45
0.0
 46
0.0
 47
0.1
 48
0.1
140
0.12
141
0.0
142
0.0
143
25.399999999999999
144
1.0
145
0.0
146
0.71
147
0.06
 71
     0
 72
     0
 73
     1
 74
     1
 75
     1
 76
     1
 77
     0
 78
     7
170
     0
171
     2
172
     0
173
     1
174
     0
175
     0
176
   256
177
   256
178
     2
  0
ENDTAB
  0
ENDSEC
  0
SECTION
  2
BLOCKS
  0
BLOCK
  8
0
  2
$MODEL_SPACE
 70
     0
 10
0.0
 20
0.0
 30
0.0
  3
$MODEL_SPACE
  1

  0
ENDBLK
  5
4ACF
  8
0
  0
BLOCK
 67
     1
  8
0
  2
$PAPER_SPACE
 70
     0
 10
0.0
 20
0.0
 30
0.0
  3
$PAPER_SPACE
  1

  0
ENDBLK
  5
4ACB
 67
     1
  8
0
  0
BLOCK
  8
0
  2
_OPEN
 70
     0
 10
0.0
 20
0.0
 30
0.0
  3
_OPEN
  1

  0
LINE
  5
3E1A
  8
0
  6
BYBLOCK
 62
     0
 10
-1.0
 20
0.1666666666666666
 30
0.0
 11
0.0
 21
0.0
 31
0.0
  0
LINE
  5
3E1B
  8
0
  6
BYBLOCK
 62
     0
 10
-1.0
 20
-0.1666666666666666
 30
0.0
 11
0.0
 21
0.0
 31
0.0
  0
LINE
  5
3E1C
  8
0
  6
BYBLOCK
 62
     0
 10
0.0
 20
0.0
 30
0.0
 11
-1.0
 21
0.0
 31
0.0
  0
ENDBLK
  5
3E1D
  8
0
  0
BLOCK
  8
0
  2
GENAXEH
 70
     0
 10
0.0
 20
0.0
 30
0.0
  3
GENAXEH
  1

  0
LINE
  5
3E45
  8
0
 10
-1.0
 20
0.0
 30
0.0
 11
1.0
 21
0.0
 31
0.0
  0
ENDBLK
  5
3E46
  8
0
  0
BLOCK
  8
0
  2
_ACMFILLEDHALF
 70
     0
 10
0.0
 20
0.0
 30
0.0
  3
_ACMFILLEDHALF
  1

  0
TRACE
  5
4B81
  8
240
 62
     0
 10
-0.8
 20
0.0
 30
0.0
 11
-1.0
 21
0.166666666
 31
0.0
 12
0.0
 22
0.0
 32
0.0
 13
0.0
 23
0.0
 33
0.0
  0
LINE
  5
4B82
  8
240
 62
     0
 10
-1.0
 20
0.0
 30
0.0
 11
-0.8
 21
0.0
 31
0.0
  0
ENDBLK
  5
4B80
  8
0
  0
ENDSEC
  0
SECTION
  2
ENTITIES
  0
LINE
  5
42F3
  8
240
  6
CONTINUOUS
 10
198.12461733809999
 20
-41.400000453049969
 30
0.0
 11
209.2500030994
 21
-44.381031766549981
 31
0.0
  0
LINE
  5
42F4
  8
240
  6
CONTINUOUS
 10
221.74999117850001
 20
-44.381031766549981
 30
0.0
 11
232.8753568584689
 21
-41.400000453049969
 31
0.0
  0
LINE
  5
42FD
  8
240
  6
CONTINUOUS
 10
194.85518336289999
 20
44.99999992545002
 30
0.0
 11
0.0
 21
44.99999992545002
 31
0.0
  0
LINE
  5
42FE
  8
240
  6
CONTINUOUS
 10
0.0
 20
-44.999999925549957
 30
0.0
 11
195.0858533382
 21
-44.999999925549957
 31
0.0
  0
LINE
  5
42FF
  8
240
  6
CONTINUOUS
 10
235.6803715229
 20
-41.400000453049969
 30
0.0
 11
236.20000481599999
 21
-40.500000119249989
 31
0.0
  0
LINE
  5
430C
  8
241
  6
CONTINUOUS
 10
192.00000166890001
 20
44.899998232750022
 30
0.0
 11
192.00000166890001
 21
-44.899998232749951
 31
0.0
  0
LINE
  5
4329
  8
240
  6
CONTINUOUS
 10
209.2500030994
 20
-44.381031766549981
 30
0.0
 11
221.74999117850001
 21
-44.381031766549981
 31
0.0
  0
LINE
  5
4359
  8
241
  6
CONTINUOUS
 10
225.1999676227
 20
31.124750152250051
 30
0.0
 11
203.20001244540001
 21
31.124750152250051
 31
0.0
  0
LINE
  5
435B
  8
241
  6
CONTINUOUS
 10
203.20001244540001
 20
-31.124748289649968
 30
0.0
 11
225.1999676227
 21
-31.124748289649968
 31
0.0
  0
LINE
  5
435D
  8
241
  6
CONTINUOUS
 10
232.4472367763
 20
-40.33732227984995
 30
0.0
 11
232.4472367763
 21
-41.400000453049969
 31
0.0
  0
LINE
  5
435E
  8
240
  6
CONTINUOUS
 10
198.12461733809999
 20
-41.400000453049991
 30
0.0
 11
196.99999690050001
 21
-41.400000453049969
 31
0.0
  0
POLYLINE
  5
477D
  8
241
 66
     1
 10
0.0
 20
0.0
 30
0.0
 70
     8
  0
VERTEX
  5
477E
  8
241
 10
224.22300000000001
 20
37.758899999999997
 30
0.0
 70
    32
  0
VERTEX
  5
477F
  8
241
 10
224.23099999999999
 20
37.735199999999999
 30
0.0
 70
    32
  0
VERTEX
  5
4780
  8
241
 10
224.239
 20
37.711500000000001
 30
0.0
 70
    32
  0
VERTEX
  5
4781
  8
241
 10
224.24799999999999
 20
37.687800000000003
 30
0.0
 70
    32
  0
VERTEX
  5
4782
  8
241
 10
224.255
 20
37.664000000000001
 30
0.0
 70
    32
  0
VERTEX
  5
4783
  8
241
 10
224.26300000000001
 20
37.6402
 30
0.0
 70
    32
  0
VERTEX
  5
4784
  8
241
 10
224.27000000000001
 20
37.616300000000003
 30
0.0
 70
    32
  0
VERTEX
  5
4785
  8
241
 10
224.27699999999999
 20
37.592300000000002
 30
0.0
 70
    32
  0
VERTEX
  5
4786
  8
241
 10
224.28299999999999
 20
37.568199999999997
 30
0.0
 70
    32
  0
VERTEX
  5
4787
  8
241
 10
224.28899999999999
 20
37.5441
 30
0.0
 70
    32
  0
VERTEX
  5
4788
  8
241
 10
224.29400000000001
 20
37.519799999999996
 30
0.0
 70
    32
  0
VERTEX
  5
4789
  8
241
 10
224.298
 20
37.4955
 30
0.0
 70
    32
  0
VERTEX
  5
478A
  8
241
 10
224.30199999999999
 20
37.4711
 30
0.0
 70
    32
  0
VERTEX
  5
478B
  8
241
 10
224.30500000000001
 20
37.446599999999997
 30
0.0
 70
    32
  0
VERTEX
  5
478C
  8
241
 10
224.30799999999999
 20
37.421999999999997
 30
0.0
 70
    32
  0
VERTEX
  5
478D
  8
241
 10
224.31
 20
37.397399999999998
 30
0.0
 70
    32
  0
VERTEX
  5
478E
  8
241
 10
224.31200000000001
 20
37.372700000000002
 30
0.0
 70
    32
  0
VERTEX
  5
478F
  8
241
 10
224.31299999999999
 20
37.347900000000003
 30
0.0
 70
    32
  0
VERTEX
  5
4790
  8
241
 10
224.31299999999999
 20
37.323099999999997
 30
0.0
 70
    32
  0
VERTEX
  5
4791
  8
241
 10
224.31399999999999
 20
37.298200000000001
 30
0.0
 70
    32
  0
VERTEX
  5
4792
  8
241
 10
224.31299999999999
 20
37.273299999999999
 30
0.0
 70
    32
  0
VERTEX
  5
4793
  8
241
 10
224.31200000000001
 20
37.248399999999997
 30
0.0
 70
    32
  0
VERTEX
  5
4794
  8
241
 10
224.31
 20
37.223399999999998
 30
0.0
 70
    32
  0
VERTEX
  5
4795
  8
241
 10
224.30799999999999
 20
37.198399999999999
 30
0.0
 70
    32
  0
VERTEX
  5
4796
  8
241
 10
224.30600000000001
 20
37.173400000000001
 30
0.0
 70
    32
  0
VERTEX
  5
4797
  8
241
 10
224.30199999999999
 20
37.148299999999999
 30
0.0
 70
    32
  0
VERTEX
  5
4798
  8
241
 10
224.29900000000001
 20
37.123199999999997
 30
0.0
 70
    32
  0
VERTEX
  5
4799
  8
241
 10
224.29499999999999
 20
37.098199999999999
 30
0.0
 70
    32
  0
VERTEX
  5
479A
  8
241
 10
224.28999999999999
 20
37.073099999999997
 30
0.0
 70
    32
  0
VERTEX
  5
479B
  8
241
 10
224.285
 20
37.048000000000002
 30
0.0
 70
    32
  0
VERTEX
  5
479C
  8
241
 10
224.279
 20
37.0229
 30
0.0
 70
    32
  0
VERTEX
  5
479D
  8
241
 10
224.273
 20
36.997799999999998
 30
0.0
 70
    32
  0
VERTEX
  5
479E
  8
241
 10
224.26599999999999
 20
36.972700000000003
 30
0.0
 70
    32
  0
VERTEX
  5
479F
  8
241
 10
224.25899999999999
 20
36.947600000000001
 30
0.0
 70
    32
  0
VERTEX
  5
47A0
  8
241
 10
224.251
 20
36.922600000000003
 30
0.0
 70
    32
  0
VERTEX
  5
47A1
  8
241
 10
224.24299999999999
 20
36.897500000000001
 30
0.0
 70
    32
  0
VERTEX
  5
47A2
  8
241
 10
224.23400000000001
 20
36.872500000000009
 30
0.0
 70
    32
  0
VERTEX
  5
47A3
  8
241
 10
224.22499999999999
 20
36.8476
 30
0.0
 70
    32
  0
VERTEX
  5
47A4
  8
241
 10
224.215
 20
36.822600000000001
 30
0.0
 70
    32
  0
VERTEX
  5
47A5
  8
241
 10
224.20500000000001
 20
36.797699999999999
 30
0.0
 70
    32
  0
VERTEX
  5
47A6
  8
241
 10
224.19399999999999
 20
36.7729
 30
0.0
 70
    32
  0
VERTEX
  5
47A7
  8
241
 10
224.18299999999999
 20
36.748100000000001
 30
0.0
 70
    32
  0
VERTEX
  5
47A8
  8
241
 10
224.17099999999999
 20
36.723300000000002
 30
0.0
 70
    32
  0
VERTEX
  5
47A9
  8
241
 10
224.15899999999999
 20
36.698599999999999
 30
0.0
 70
    32
  0
VERTEX
  5
47AA
  8
241
 10
224.14699999999999
 20
36.67390000000001
 30
0.0
 70
    32
  0
VERTEX
  5
47AB
  8
241
 10
224.13399999999999
 20
36.649299999999997
 30
0.0
 70
    32
  0
VERTEX
  5
47AC
  8
241
 10
224.12
 20
36.6248
 30
0.0
 70
    32
  0
VERTEX
  5
47AD
  8
241
 10
224.10599999999999
 20
36.600200000000001
 30
0.0
 70
    32
  0
VERTEX
  5
47AE
  8
241
 10
224.09200000000001
 20
36.575800000000001
 30
0.0
 70
    32
  0
VERTEX
  5
47AF
  8
241
 10
224.077
 20
36.551400000000001
 30
0.0
 70
    32
  0
VERTEX
  5
47B0
  8
241
 10
224.06200000000001
 20
36.527099999999997
 30
0.0
 70
    32
  0
VERTEX
  5
47B1
  8
241
 10
224.047
 20
36.502800000000001
 30
0.0
 70
    32
  0
VERTEX
  5
47B2
  8
241
 10
224.03100000000001
 20
36.4786
 30
0.0
 70
    32
  0
VERTEX
  5
47B3
  8
241
 10
224.01400000000001
 20
36.454500000000003
 30
0.0
 70
    32
  0
VERTEX
  5
47B4
  8
241
 10
223.99700000000001
 20
36.430399999999999
 30
0.0
 70
    32
  0
VERTEX
  5
47B5
  8
241
 10
223.97999999999999
 20
36.406399999999998
 30
0.0
 70
    32
  0
VERTEX
  5
47B6
  8
241
 10
223.96199999999999
 20
36.3825
 30
0.0
 70
    32
  0
VERTEX
  5
47B7
  8
241
 10
223.94399999999999
 20
36.358699999999999
 30
0.0
 70
    32
  0
VERTEX
  5
47B8
  8
241
 10
223.92599999999999
 20
36.334899999999998
 30
0.0
 70
    32
  0
VERTEX
  5
47B9
  8
241
 10
223.90700000000001
 20
36.311199999999999
 30
0.0
 70
    32
  0
VERTEX
  5
47BA
  8
241
 10
223.88800000000001
 20
36.287599999999998
 30
0.0
 70
    32
  0
VERTEX
  5
47BB
  8
241
 10
223.86799999999999
 20
36.264099999999999
 30
0.0
 70
    32
  0
VERTEX
  5
47BC
  8
241
 10
223.84800000000001
 20
36.240600000000001
 30
0.0
 70
    32
  0
VERTEX
  5
47BD
  8
241
 10
223.828
 20
36.217199999999998
 30
0.0
 70
    32
  0
VERTEX
  5
47BE
  8
241
 10
223.80799999999999
 20
36.19400000000001
 30
0.0
 70
    32
  0
VERTEX
  5
47BF
  8
241
 10
223.786
 20
36.1708
 30
0.0
 70
    32
  0
VERTEX
  5
47C0
  8
241
 10
223.76499999999999
 20
36.1477
 30
0.0
 70
    32
  0
VERTEX
  5
47C1
  8
241
 10
223.74299999999999
 20
36.124699999999997
 30
0.0
 70
    32
  0
VERTEX
  5
47C2
  8
241
 10
223.721
 20
36.101799999999997
 30
0.0
 70
    32
  0
VERTEX
  5
47C3
  8
241
 10
223.69900000000001
 20
36.079000000000001
 30
0.0
 70
    32
  0
VERTEX
  5
47C4
  8
241
 10
223.67599999999999
 20
36.056199999999997
 30
0.0
 70
    32
  0
VERTEX
  5
47C5
  8
241
 10
223.65299999999999
 20
36.0336
 30
0.0
 70
    32
  0
VERTEX
  5
47C6
  8
241
 10
223.63
 20
36.011099999999999
 30
0.0
 70
    32
  0
VERTEX
  5
47C7
  8
241
 10
223.60599999999999
 20
35.988599999999998
 30
0.0
 70
    32
  0
VERTEX
  5
47C8
  8
241
 10
223.58199999999999
 20
35.966299999999997
 30
0.0
 70
    32
  0
VERTEX
  5
47C9
  8
241
 10
223.55799999999999
 20
35.944099999999999
 30
0.0
 70
    32
  0
VERTEX
  5
47CA
  8
241
 10
223.53299999999999
 20
35.921900000000001
 30
0.0
 70
    32
  0
VERTEX
  5
47CB
  8
241
 10
223.50800000000001
 20
35.899900000000002
 30
0.0
 70
    32
  0
VERTEX
  5
47CC
  8
241
 10
223.483
 20
35.877899999999997
 30
0.0
 70
    32
  0
VERTEX
  5
47CD
  8
241
 10
223.45699999999999
 20
35.856099999999998
 30
0.0
 70
    32
  0
VERTEX
  5
47CE
  8
241
 10
223.43199999999999
 20
35.834299999999999
 30
0.0
 70
    32
  0
VERTEX
  5
47CF
  8
241
 10
223.40600000000001
 20
35.8127
 30
0.0
 70
    32
  0
VERTEX
  5
47D0
  8
241
 10
223.37899999999999
 20
35.7911
 30
0.0
 70
    32
  0
VERTEX
  5
47D1
  8
241
 10
223.35300000000001
 20
35.769599999999997
 30
0.0
 70
    32
  0
VERTEX
  5
47D2
  8
241
 10
223.32599999999999
 20
35.7483
 30
0.0
 70
    32
  0
VERTEX
  5
47D3
  8
241
 10
223.298
 20
35.726999999999997
 30
0.0
 70
    32
  0
VERTEX
  5
47D4
  8
241
 10
223.27099999999999
 20
35.7059
 30
0.0
 70
    32
  0
VERTEX
  5
47D5
  8
241
 10
223.24299999999999
 20
35.684800000000003
 30
0.0
 70
    32
  0
VERTEX
  5
47D6
  8
241
 10
223.215
 20
35.663899999999998
 30
0.0
 70
    32
  0
VERTEX
  5
47D7
  8
241
 10
223.18700000000001
 20
35.643000000000001
 30
0.0
 70
    32
  0
VERTEX
  5
47D8
  8
241
 10
223.15899999999999
 20
35.622300000000003
 30
0.0
 70
    32
  0
VERTEX
  5
47D9
  8
241
 10
223.13
 20
35.601599999999998
 30
0.0
 70
    32
  0
VERTEX
  5
47DA
  8
241
 10
223.101
 20
35.581099999999999
 30
0.0
 70
    32
  0
VERTEX
  5
47DB
  8
241
 10
223.072
 20
35.560600000000001
 30
0.0
 70
    32
  0
VERTEX
  5
47DC
  8
241
 10
223.04300000000001
 20
35.540300000000002
 30
0.0
 70
    32
  0
VERTEX
  5
47DD
  8
241
 10
223.01300000000001
 20
35.520000000000003
 30
0.0
 70
    32
  0
VERTEX
  5
47DE
  8
241
 10
222.98400000000001
 20
35.499899999999997
 30
0.0
 70
    32
  0
VERTEX
  5
47DF
  8
241
 10
222.95400000000001
 20
35.479900000000001
 30
0.0
 70
    32
  0
VERTEX
  5
47E0
  8
241
 10
222.92400000000001
 20
35.460000000000001
 30
0.0
 70
    32
  0
VERTEX
  5
47E1
  8
241
 10
222.893
 20
35.440100000000001
 30
0.0
 70
    32
  0
VERTEX
  5
47E2
  8
241
 10
222.863
 20
35.420400000000001
 30
0.0
 70
    32
  0
VERTEX
  5
47E3
  8
241
 10
222.83199999999999
 20
35.400799999999997
 30
0.0
 70
    32
  0
VERTEX
  5
47E4
  8
241
 10
222.80099999999999
 20
35.38130000000001
 30
0.0
 70
    32
  0
VERTEX
  5
47E5
  8
241
 10
222.77000000000001
 20
35.361899999999999
 30
0.0
 70
    32
  0
VERTEX
  5
47E6
  8
241
 10
222.738
 20
35.342599999999997
 30
0.0
 70
    32
  0
VERTEX
  5
47E7
  8
241
 10
222.70699999999999
 20
35.323300000000003
 30
0.0
 70
    32
  0
VERTEX
  5
47E8
  8
241
 10
222.67500000000001
 20
35.304200000000002
 30
0.0
 70
    32
  0
VERTEX
  5
47E9
  8
241
 10
222.643
 20
35.285200000000003
 30
0.0
 70
    32
  0
VERTEX
  5
47EA
  8
241
 10
222.61099999999999
 20
35.266300000000001
 30
0.0
 70
    32
  0
VERTEX
  5
47EB
  8
241
 10
222.578
 20
35.247500000000002
 30
0.0
 70
    32
  0
VERTEX
  5
47EC
  8
241
 10
222.54599999999999
 20
35.2288
 30
0.0
 70
    32
  0
VERTEX
  5
47ED
  8
241
 10
222.51300000000001
 20
35.2102
 30
0.0
 70
    32
  0
VERTEX
  5
47EE
  8
241
 10
222.47999999999999
 20
35.191800000000001
 30
0.0
 70
    32
  0
VERTEX
  5
47EF
  8
241
 10
222.447
 20
35.173400000000001
 30
0.0
 70
    32
  0
VERTEX
  5
47F0
  8
241
 10
222.41399999999999
 20
35.155099999999997
 30
0.0
 70
    32
  0
VERTEX
  5
47F1
  8
241
 10
222.381
 20
35.136899999999997
 30
0.0
 70
    32
  0
VERTEX
  5
47F2
  8
241
 10
222.34700000000001
 20
35.1188
 30
0.0
 70
    32
  0
VERTEX
  5
47F3
  8
241
 10
222.31299999999999
 20
35.1008
 30
0.0
 70
    32
  0
VERTEX
  5
47F4
  8
241
 10
222.28
 20
35.082900000000009
 30
0.0
 70
    32
  0
VERTEX
  5
47F5
  8
241
 10
222.24600000000001
 20
35.065100000000001
 30
0.0
 70
    32
  0
VERTEX
  5
47F6
  8
241
 10
222.21100000000001
 20
35.047499999999999
 30
0.0
 70
    32
  0
VERTEX
  5
47F7
  8
241
 10
222.17699999999999
 20
35.029899999999998
 30
0.0
 70
    32
  0
VERTEX
  5
47F8
  8
241
 10
222.143
 20
35.0124
 30
0.0
 70
    32
  0
VERTEX
  5
47F9
  8
241
 10
222.108
 20
34.994999999999997
 30
0.0
 70
    32
  0
VERTEX
  5
47FA
  8
241
 10
222.07300000000001
 20
34.977699999999999
 30
0.0
 70
    32
  0
VERTEX
  5
47FB
  8
241
 10
222.03800000000001
 20
34.960500000000003
 30
0.0
 70
    32
  0
VERTEX
  5
47FC
  8
241
 10
222.00299999999999
 20
34.9435
 30
0.0
 70
    32
  0
VERTEX
  5
47FD
  8
241
 10
221.96799999999999
 20
34.926499999999997
 30
0.0
 70
    32
  0
VERTEX
  5
47FE
  8
241
 10
221.93299999999999
 20
34.909599999999998
 30
0.0
 70
    32
  0
VERTEX
  5
47FF
  8
241
 10
221.898
 20
34.892800000000001
 30
0.0
 70
    32
  0
VERTEX
  5
4800
  8
241
 10
221.86199999999999
 20
34.876100000000001
 30
0.0
 70
    32
  0
VERTEX
  5
4801
  8
241
 10
221.82599999999999
 20
34.8596
 30
0.0
 70
    32
  0
VERTEX
  5
4802
  8
241
 10
221.791
 20
34.8431
 30
0.0
 70
    32
  0
VERTEX
  5
4803
  8
241
 10
221.755
 20
34.82670000000001
 30
0.0
 70
    32
  0
VERTEX
  5
4804
  8
241
 10
221.71899999999999
 20
34.810400000000001
 30
0.0
 70
    32
  0
VERTEX
  5
4805
  8
241
 10
221.68199999999999
 20
34.794199999999996
 30
0.0
 70
    32
  0
VERTEX
  5
4806
  8
241
 10
221.64599999999999
 20
34.778100000000002
 30
0.0
 70
    32
  0
VERTEX
  5
4807
  8
241
 10
221.61000000000001
 20
34.7622
 30
0.0
 70
    32
  0
VERTEX
  5
4808
  8
241
 10
221.57300000000001
 20
34.746299999999998
 30
0.0
 70
    32
  0
VERTEX
  5
4809
  8
241
 10
221.53700000000001
 20
34.730499999999999
 30
0.0
 70
    32
  0
VERTEX
  5
480A
  8
241
 10
221.5
 20
34.714799999999997
 30
0.0
 70
    32
  0
VERTEX
  5
480B
  8
241
 10
221.46299999999999
 20
34.699199999999998
 30
0.0
 70
    32
  0
VERTEX
  5
480C
  8
241
 10
221.42599999999999
 20
34.683700000000002
 30
0.0
 70
    32
  0
VERTEX
  5
480D
  8
241
 10
221.38900000000001
 20
34.668300000000002
 30
0.0
 70
    32
  0
VERTEX
  5
480E
  8
241
 10
221.352
 20
34.652999999999999
 30
0.0
 70
    32
  0
VERTEX
  5
480F
  8
241
 10
221.315
 20
34.637700000000002
 30
0.0
 70
    32
  0
VERTEX
  5
4810
  8
241
 10
221.27699999999999
 20
34.622599999999998
 30
0.0
 70
    32
  0
VERTEX
  5
4811
  8
241
 10
221.24000000000001
 20
34.607599999999998
 30
0.0
 70
    32
  0
VERTEX
  5
4812
  8
241
 10
221.202
 20
34.592700000000001
 30
0.0
 70
    32
  0
VERTEX
  5
4813
  8
241
 10
221.16399999999999
 20
34.577800000000003
 30
0.0
 70
    32
  0
VERTEX
  5
4814
  8
241
 10
221.12700000000001
 20
34.563099999999999
 30
0.0
 70
    32
  0
VERTEX
  5
4815
  8
241
 10
221.089
 20
34.548400000000001
 30
0.0
 70
    32
  0
VERTEX
  5
4816
  8
241
 10
221.05099999999999
 20
34.53390000000001
 30
0.0
 70
    32
  0
VERTEX
  5
4817
  8
241
 10
221.01300000000001
 20
34.519399999999997
 30
0.0
 70
    32
  0
VERTEX
  5
4818
  8
241
 10
220.97499999999999
 20
34.505000000000003
 30
0.0
 70
    32
  0
VERTEX
  5
4819
  8
241
 10
220.93600000000001
 20
34.490699999999997
 30
0.0
 70
    32
  0
VERTEX
  5
481A
  8
241
 10
220.898
 20
34.476500000000001
 30
0.0
 70
    32
  0
VERTEX
  5
481B
  8
241
 10
220.86000000000001
 20
34.462400000000002
 30
0.0
 70
    32
  0
VERTEX
  5
481C
  8
241
 10
220.821
 20
34.448399999999999
 30
0.0
 70
    32
  0
VERTEX
  5
481D
  8
241
 10
220.78200000000001
 20
34.4345
 30
0.0
 70
    32
  0
VERTEX
  5
481E
  8
241
 10
220.744
 20
34.420699999999997
 30
0.0
 70
    32
  0
VERTEX
  5
481F
  8
241
 10
220.70500000000001
 20
34.4069
 30
0.0
 70
    32
  0
VERTEX
  5
4820
  8
241
 10
220.666
 20
34.393300000000004
 30
0.0
 70
    32
  0
VERTEX
  5
4821
  8
241
 10
220.62700000000001
 20
34.3797
 30
0.0
 70
    32
  0
VERTEX
  5
4822
  8
241
 10
220.58799999999999
 20
34.366300000000003
 30
0.0
 70
    32
  0
VERTEX
  5
4823
  8
241
 10
220.54900000000001
 20
34.352899999999998
 30
0.0
 70
    32
  0
VERTEX
  5
4824
  8
241
 10
220.50999999999999
 20
34.339599999999997
 30
0.0
 70
    32
  0
VERTEX
  5
4825
  8
241
 10
220.471
 20
34.3264
 30
0.0
 70
    32
  0
VERTEX
  5
4826
  8
241
 10
220.43100000000001
 20
34.313200000000002
 30
0.0
 70
    32
  0
VERTEX
  5
4827
  8
241
 10
220.392
 20
34.300199999999997
 30
0.0
 70
    32
  0
VERTEX
  5
4828
  8
241
 10
220.352
 20
34.287300000000002
 30
0.0
 70
    32
  0
VERTEX
  5
4829
  8
241
 10
220.31299999999999
 20
34.2744
 30
0.0
 70
    32
  0
VERTEX
  5
482A
  8
241
 10
220.273
 20
34.261600000000001
 30
0.0
 70
    32
  0
VERTEX
  5
482B
  8
241
 10
220.23400000000001
 20
34.248899999999999
 30
0.0
 70
    32
  0
VERTEX
  5
482C
  8
241
 10
220.19399999999999
 20
34.2363
 30
0.0
 70
    32
  0
VERTEX
  5
482D
  8
241
 10
220.154
 20
34.223799999999997
 30
0.0
 70
    32
  0
VERTEX
  5
482E
  8
241
 10
220.114
 20
34.211399999999998
 30
0.0
 70
    32
  0
VERTEX
  5
482F
  8
241
 10
220.07400000000001
 20
34.198999999999998
 30
0.0
 70
    32
  0
VERTEX
  5
4830
  8
241
 10
220.03399999999999
 20
34.186799999999998
 30
0.0
 70
    32
  0
VERTEX
  5
4831
  8
241
 10
219.994
 20
34.174599999999998
 30
0.0
 70
    32
  0
VERTEX
  5
4832
  8
241
 10
219.95400000000001
 20
34.162500000000001
 30
0.0
 70
    32
  0
VERTEX
  5
4833
  8
241
 10
219.91399999999999
 20
34.150500000000001
 30
0.0
 70
    32
  0
VERTEX
  5
4834
  8
241
 10
219.87299999999999
 20
34.138599999999997
 30
0.0
 70
    32
  0
VERTEX
  5
4835
  8
241
 10
219.833
 20
34.126800000000003
 30
0.0
 70
    32
  0
VERTEX
  5
4836
  8
241
 10
219.79300000000001
 20
34.115000000000002
 30
0.0
 70
    32
  0
VERTEX
  5
4837
  8
241
 10
219.75200000000001
 20
34.103400000000001
 30
0.0
 70
    32
  0
VERTEX
  5
4838
  8
241
 10
219.71199999999999
 20
34.091799999999999
 30
0.0
 70
    32
  0
VERTEX
  5
4839
  8
241
 10
219.67099999999999
 20
34.080300000000001
 30
0.0
 70
    32
  0
VERTEX
  5
483A
  8
241
 10
219.63
 20
34.068899999999999
 30
0.0
 70
    32
  0
VERTEX
  5
483B
  8
241
 10
219.59
 20
34.057600000000001
 30
0.0
 70
    32
  0
VERTEX
  5
483C
  8
241
 10
219.54900000000001
 20
34.046399999999998
 30
0.0
 70
    32
  0
VERTEX
  5
483D
  8
241
 10
219.50800000000001
 20
34.035200000000003
 30
0.0
 70
    32
  0
VERTEX
  5
483E
  8
241
 10
219.46700000000001
 20
34.0242
 30
0.0
 70
    32
  0
VERTEX
  5
483F
  8
241
 10
219.42599999999999
 20
34.013199999999998
 30
0.0
 70
    32
  0
VERTEX
  5
4840
  8
241
 10
219.38499999999999
 20
34.002299999999998
 30
0.0
 70
    32
  0
VERTEX
  5
4841
  8
241
 10
219.34399999999999
 20
33.991500000000009
 30
0.0
 70
    32
  0
VERTEX
  5
4842
  8
241
 10
219.303
 20
33.980800000000002
 30
0.0
 70
    32
  0
VERTEX
  5
4843
  8
241
 10
219.262
 20
33.970100000000002
 30
0.0
 70
    32
  0
VERTEX
  5
4844
  8
241
 10
219.221
 20
33.959600000000002
 30
0.0
 70
    32
  0
VERTEX
  5
4845
  8
241
 10
219.179
 20
33.949100000000001
 30
0.0
 70
    32
  0
VERTEX
  5
4846
  8
241
 10
219.13800000000001
 20
33.938699999999997
 30
0.0
 70
    32
  0
VERTEX
  5
4847
  8
241
 10
219.09700000000001
 20
33.928400000000003
 30
0.0
 70
    32
  0
VERTEX
  5
4848
  8
241
 10
219.05500000000001
 20
33.918199999999999
 30
0.0
 70
    32
  0
VERTEX
  5
4849
  8
241
 10
219.01400000000001
 20
33.908000000000001
 30
0.0
 70
    32
  0
VERTEX
  5
484A
  8
241
 10
218.97200000000001
 20
33.89800000000001
 30
0.0
 70
    32
  0
VERTEX
  5
484B
  8
241
 10
218.93100000000001
 20
33.887999999999998
 30
0.0
 70
    32
  0
VERTEX
  5
484C
  8
241
 10
218.88900000000001
 20
33.878100000000003
 30
0.0
 70
    32
  0
VERTEX
  5
484D
  8
241
 10
218.84700000000001
 20
33.868299999999998
 30
0.0
 70
    32
  0
VERTEX
  5
484E
  8
241
 10
218.80600000000001
 20
33.858600000000003
 30
0.0
 70
    32
  0
VERTEX
  5
484F
  8
241
 10
218.76400000000001
 20
33.8489
 30
0.0
 70
    32
  0
VERTEX
  5
4850
  8
241
 10
218.72200000000001
 20
33.839399999999998
 30
0.0
 70
    32
  0
VERTEX
  5
4851
  8
241
 10
218.68000000000001
 20
33.829900000000002
 30
0.0
 70
    32
  0
VERTEX
  5
4852
  8
241
 10
218.63800000000001
 20
33.820500000000003
 30
0.0
 70
    32
  0
VERTEX
  5
4853
  8
241
 10
218.596
 20
33.811199999999999
 30
0.0
 70
    32
  0
VERTEX
  5
4854
  8
241
 10
218.554
 20
33.802
 30
0.0
 70
    32
  0
VERTEX
  5
4855
  8
241
 10
218.512
 20
33.7928
 30
0.0
 70
    32
  0
VERTEX
  5
4856
  8
241
 10
218.47
 20
33.783799999999999
 30
0.0
 70
    32
  0
VERTEX
  5
4857
  8
241
 10
218.428
 20
33.774799999999999
 30
0.0
 70
    32
  0
VERTEX
  5
4858
  8
241
 10
218.386
 20
33.765900000000002
 30
0.0
 70
    32
  0
VERTEX
  5
4859
  8
241
 10
218.34399999999999
 20
33.757100000000001
 30
0.0
 70
    32
  0
VERTEX
  5
485A
  8
241
 10
218.30099999999999
 20
33.7483
 30
0.0
 70
    32
  0
VERTEX
  5
485B
  8
241
 10
218.25899999999999
 20
33.739699999999999
 30
0.0
 70
    32
  0
VERTEX
  5
485C
  8
241
 10
218.21700000000001
 20
33.731099999999998
 30
0.0
 70
    32
  0
VERTEX
  5
485D
  8
241
 10
218.17500000000001
 20
33.7226
 30
0.0
 70
    32
  0
VERTEX
  5
485E
  8
241
 10
218.13200000000001
 20
33.714199999999998
 30
0.0
 70
    32
  0
VERTEX
  5
485F
  8
241
 10
218.09
 20
33.7059
 30
0.0
 70
    32
  0
VERTEX
  5
4860
  8
241
 10
218.047
 20
33.697699999999998
 30
0.0
 70
    32
  0
VERTEX
  5
4861
  8
241
 10
218.005
 20
33.689500000000002
 30
0.0
 70
    32
  0
VERTEX
  5
4862
  8
241
 10
217.96199999999999
 20
33.681399999999996
 30
0.0
 70
    32
  0
VERTEX
  5
4863
  8
241
 10
217.91999999999999
 20
33.673400000000001
 30
0.0
 70
    32
  0
VERTEX
  5
4864
  8
241
 10
217.87700000000001
 20
33.665500000000002
 30
0.0
 70
    32
  0
VERTEX
  5
4865
  8
241
 10
217.834
 20
33.657699999999998
 30
0.0
 70
    32
  0
VERTEX
  5
4866
  8
241
 10
217.792
 20
33.649900000000009
 30
0.0
 70
    32
  0
VERTEX
  5
4867
  8
241
 10
217.749
 20
33.642200000000003
 30
0.0
 70
    32
  0
VERTEX
  5
4868
  8
241
 10
217.70599999999999
 20
33.634700000000002
 30
0.0
 70
    32
  0
VERTEX
  5
4869
  8
241
 10
217.66399999999999
 20
33.627099999999999
 30
0.0
 70
    32
  0
VERTEX
  5
486A
  8
241
 10
217.62100000000001
 20
33.619700000000002
 30
0.0
 70
    32
  0
VERTEX
  5
486B
  8
241
 10
217.578
 20
33.612400000000001
 30
0.0
 70
    32
  0
VERTEX
  5
486C
  8
241
 10
217.535
 20
33.6051
 30
0.0
 70
    32
  0
VERTEX
  5
486D
  8
241
 10
217.49199999999999
 20
33.597900000000003
 30
0.0
 70
    32
  0
VERTEX
  5
486E
  8
241
 10
217.44900000000001
 20
33.590800000000002
 30
0.0
 70
    32
  0
VERTEX
  5
486F
  8
241
 10
217.40600000000001
 20
33.583799999999997
 30
0.0
 70
    32
  0
VERTEX
  5
4870
  8
241
 10
217.363
 20
33.576799999999999
 30
0.0
 70
    32
  0
VERTEX
  5
4871
  8
241
 10
217.31999999999999
 20
33.57
 30
0.0
 70
    32
  0
VERTEX
  5
4872
  8
241
 10
217.27699999999999
 20
33.563200000000002
 30
0.0
 70
    32
  0
VERTEX
  5
4873
  8
241
 10
217.23400000000001
 20
33.5565
 30
0.0
 70
    32
  0
VERTEX
  5
4874
  8
241
 10
217.191
 20
33.549900000000001
 30
0.0
 70
    32
  0
VERTEX
  5
4875
  8
241
 10
217.148
 20
33.543300000000002
 30
0.0
 70
    32
  0
VERTEX
  5
4876
  8
241
 10
217.10499999999999
 20
33.536900000000003
 30
0.0
 70
    32
  0
VERTEX
  5
4877
  8
241
 10
217.06100000000001
 20
33.530500000000004
 30
0.0
 70
    32
  0
VERTEX
  5
4878
  8
241
 10
217.018
 20
33.5242
 30
0.0
 70
    32
  0
VERTEX
  5
4879
  8
241
 10
216.97499999999999
 20
33.518000000000001
 30
0.0
 70
    32
  0
VERTEX
  5
487A
  8
241
 10
216.93199999999999
 20
33.511800000000001
 30
0.0
 70
    32
  0
VERTEX
  5
487B
  8
241
 10
216.88800000000001
 20
33.505800000000001
 30
0.0
 70
    32
  0
VERTEX
  5
487C
  8
241
 10
216.845
 20
33.4998
 30
0.0
 70
    32
  0
VERTEX
  5
487D
  8
241
 10
216.80199999999999
 20
33.493899999999996
 30
0.0
 70
    32
  0
VERTEX
  5
487E
  8
241
 10
216.75800000000001
 20
33.488100000000003
 30
0.0
 70
    32
  0
VERTEX
  5
487F
  8
241
 10
216.715
 20
33.482300000000002
 30
0.0
 70
    32
  0
VERTEX
  5
4880
  8
241
 10
216.672
 20
33.476700000000001
 30
0.0
 70
    32
  0
VERTEX
  5
4881
  8
241
 10
216.62799999999999
 20
33.4711
 30
0.0
 70
    32
  0
VERTEX
  5
4882
  8
241
 10
216.58500000000001
 20
33.465600000000002
 30
0.0
 70
    32
  0
VERTEX
  5
4883
  8
241
 10
216.541
 20
33.4602
 30
0.0
 70
    32
  0
VERTEX
  5
4884
  8
241
 10
216.49799999999999
 20
33.454900000000002
 30
0.0
 70
    32
  0
VERTEX
  5
4885
  8
241
 10
216.45400000000001
 20
33.449599999999997
 30
0.0
 70
    32
  0
VERTEX
  5
4886
  8
241
 10
216.41
 20
33.444400000000002
 30
0.0
 70
    32
  0
VERTEX
  5
4887
  8
241
 10
216.36699999999999
 20
33.439300000000003
 30
0.0
 70
    32
  0
VERTEX
  5
4888
  8
241
 10
216.32300000000001
 20
33.4343
 30
0.0
 70
    32
  0
VERTEX
  5
4889
  8
241
 10
216.28
 20
33.429400000000001
 30
0.0
 70
    32
  0
VERTEX
  5
488A
  8
241
 10
216.23599999999999
 20
33.424500000000002
 30
0.0
 70
    32
  0
VERTEX
  5
488B
  8
241
 10
216.19200000000001
 20
33.419699999999999
 30
0.0
 70
    32
  0
VERTEX
  5
488C
  8
241
 10
216.149
 20
33.414999999999999
 30
0.0
 70
    32
  0
VERTEX
  5
488D
  8
241
 10
216.10499999999999
 20
33.410400000000003
 30
0.0
 70
    32
  0
VERTEX
  5
488E
  8
241
 10
216.06100000000001
 20
33.40590000000001
 30
0.0
 70
    32
  0
VERTEX
  5
488F
  8
241
 10
216.018
 20
33.401400000000002
 30
0.0
 70
    32
  0
VERTEX
  5
4890
  8
241
 10
215.97399999999999
 20
33.396999999999998
 30
0.0
 70
    32
  0
VERTEX
  5
4891
  8
241
 10
215.93000000000001
 20
33.392699999999998
 30
0.0
 70
    32
  0
VERTEX
  5
4892
  8
241
 10
215.886
 20
33.388500000000001
 30
0.0
 70
    32
  0
VERTEX
  5
4893
  8
241
 10
215.84200000000001
 20
33.38430000000001
 30
0.0
 70
    32
  0
VERTEX
  5
4894
  8
241
 10
215.79900000000001
 20
33.380299999999998
 30
0.0
 70
    32
  0
VERTEX
  5
4895
  8
241
 10
215.755
 20
33.376300000000001
 30
0.0
 70
    32
  0
VERTEX
  5
4896
  8
241
 10
215.71100000000001
 20
33.372399999999999
 30
0.0
 70
    32
  0
VERTEX
  5
4897
  8
241
 10
215.667
 20
33.368499999999997
 30
0.0
 70
    32
  0
VERTEX
  5
4898
  8
241
 10
215.62299999999999
 20
33.364800000000002
 30
0.0
 70
    32
  0
VERTEX
  5
4899
  8
241
 10
215.57900000000001
 20
33.3611
 30
0.0
 70
    32
  0
VERTEX
  5
489A
  8
241
 10
215.535
 20
33.357599999999998
 30
0.0
 70
    32
  0
VERTEX
  5
489B
  8
241
 10
215.49100000000001
 20
33.353999999999999
 30
0.0
 70
    32
  0
VERTEX
  5
489C
  8
241
 10
215.447
 20
33.3506
 30
0.0
 70
    32
  0
VERTEX
  5
489D
  8
241
 10
215.40299999999999
 20
33.347299999999997
 30
0.0
 70
    32
  0
VERTEX
  5
489E
  8
241
 10
215.36000000000001
 20
33.344000000000001
 30
0.0
 70
    32
  0
VERTEX
  5
489F
  8
241
 10
215.316
 20
33.340800000000002
 30
0.0
 70
    32
  0
VERTEX
  5
48A0
  8
241
 10
215.27199999999999
 20
33.337699999999998
 30
0.0
 70
    32
  0
VERTEX
  5
48A1
  8
241
 10
215.22800000000001
 20
33.334699999999998
 30
0.0
 70
    32
  0
VERTEX
  5
48A2
  8
241
 10
215.184
 20
33.331800000000001
 30
0.0
 70
    32
  0
VERTEX
  5
48A3
  8
241
 10
215.13900000000001
 20
33.328899999999997
 30
0.0
 70
    32
  0
VERTEX
  5
48A4
  8
241
 10
215.095
 20
33.326099999999997
 30
0.0
 70
    32
  0
VERTEX
  5
48A5
  8
241
 10
215.05099999999999
 20
33.323399999999999
 30
0.0
 70
    32
  0
VERTEX
  5
48A6
  8
241
 10
215.00700000000001
 20
33.320799999999998
 30
0.0
 70
    32
  0
VERTEX
  5
48A7
  8
241
 10
214.96299999999999
 20
33.318300000000001
 30
0.0
 70
    32
  0
VERTEX
  5
48A8
  8
241
 10
214.91900000000001
 20
33.31580000000001
 30
0.0
 70
    32
  0
VERTEX
  5
48A9
  8
241
 10
214.875
 20
33.313499999999998
 30
0.0
 70
    32
  0
VERTEX
  5
48AA
  8
241
 10
214.83099999999999
 20
33.311199999999999
 30
0.0
 70
    32
  0
VERTEX
  5
48AB
  8
241
 10
214.78700000000001
 20
33.308999999999997
 30
0.0
 70
    32
  0
VERTEX
  5
48AC
  8
241
 10
214.74299999999999
 20
33.306800000000003
 30
0.0
 70
    32
  0
VERTEX
  5
48AD
  8
241
 10
214.69900000000001
 20
33.3048
 30
0.0
 70
    32
  0
VERTEX
  5
48AE
  8
241
 10
214.654
 20
33.302799999999998
 30
0.0
 70
    32
  0
VERTEX
  5
48AF
  8
241
 10
214.61000000000001
 20
33.301000000000002
 30
0.0
 70
    32
  0
VERTEX
  5
48B0
  8
241
 10
214.566
 20
33.299199999999999
 30
0.0
 70
    32
  0
VERTEX
  5
48B1
  8
241
 10
214.52199999999999
 20
33.297499999999999
 30
0.0
 70
    32
  0
VERTEX
  5
48B2
  8
241
 10
214.47800000000001
 20
33.2958
 30
0.0
 70
    32
  0
VERTEX
  5
48B3
  8
241
 10
214.434
 20
33.2943
 30
0.0
 70
    32
  0
VERTEX
  5
48B4
  8
241
 10
214.38900000000001
 20
33.2928
 30
0.0
 70
    32
  0
VERTEX
  5
48B5
  8
241
 10
214.345
 20
33.29140000000001
 30
0.0
 70
    32
  0
VERTEX
  5
48B6
  8
241
 10
214.30099999999999
 20
33.290100000000002
 30
0.0
 70
    32
  0
VERTEX
  5
48B7
  8
241
 10
214.25700000000001
 20
33.288899999999998
 30
0.0
 70
    32
  0
VERTEX
  5
48B8
  8
241
 10
214.21299999999999
 20
33.287799999999997
 30
0.0
 70
    32
  0
VERTEX
  5
48B9
  8
241
 10
214.16800000000001
 20
33.28670000000001
 30
0.0
 70
    32
  0
VERTEX
  5
48BA
  8
241
 10
214.124
 20
33.285800000000002
 30
0.0
 70
    32
  0
VERTEX
  5
48BB
  8
241
 10
214.08000000000001
 20
33.2849
 30
0.0
 70
    32
  0
VERTEX
  5
48BC
  8
241
 10
214.036
 20
33.284100000000002
 30
0.0
 70
    32
  0
VERTEX
  5
48BD
  8
241
 10
213.99100000000001
 20
33.2834
 30
0.0
 70
    32
  0
VERTEX
  5
48BE
  8
241
 10
213.947
 20
33.282699999999998
 30
0.0
 70
    32
  0
VERTEX
  5
48BF
  8
241
 10
213.90299999999999
 20
33.282200000000003
 30
0.0
 70
    32
  0
VERTEX
  5
48C0
  8
241
 10
213.85900000000001
 20
33.281700000000001
 30
0.0
 70
    32
  0
VERTEX
  5
48C1
  8
241
 10
213.815
 20
33.281300000000002
 30
0.0
 70
    32
  0
VERTEX
  5
48C2
  8
241
 10
213.77000000000001
 20
33.280999999999999
 30
0.0
 70
    32
  0
VERTEX
  5
48C3
  8
241
 10
213.726
 20
33.280799999999999
 30
0.0
 70
    32
  0
VERTEX
  5
48C4
  8
241
 10
213.68199999999999
 20
33.280700000000003
 30
0.0
 70
    32
  0
VERTEX
  5
48C5
  8
241
 10
213.63800000000001
 20
33.280700000000003
 30
0.0
 70
    32
  0
VERTEX
  5
48C6
  8
241
 10
213.59299999999999
 20
33.280700000000003
 30
0.0
 70
    32
  0
VERTEX
  5
48C7
  8
241
 10
213.54900000000001
 20
33.280799999999999
 30
0.0
 70
    32
  0
VERTEX
  5
48C8
  8
241
 10
213.505
 20
33.280999999999999
 30
0.0
 70
    32
  0
VERTEX
  5
48C9
  8
241
 10
213.46100000000001
 20
33.281300000000002
 30
0.0
 70
    32
  0
VERTEX
  5
48CA
  8
241
 10
213.416
 20
33.281700000000001
 30
0.0
 70
    32
  0
VERTEX
  5
48CB
  8
241
 10
213.37200000000001
 20
33.282200000000003
 30
0.0
 70
    32
  0
VERTEX
  5
48CC
  8
241
 10
213.328
 20
33.282699999999998
 30
0.0
 70
    32
  0
VERTEX
  5
48CD
  8
241
 10
213.28399999999999
 20
33.283299999999997
 30
0.0
 70
    32
  0
VERTEX
  5
48CE
  8
241
 10
213.239
 20
33.284100000000002
 30
0.0
 70
    32
  0
VERTEX
  5
48CF
  8
241
 10
213.19499999999999
 20
33.2849
 30
0.0
 70
    32
  0
VERTEX
  5
48D0
  8
241
 10
213.15100000000001
 20
33.285800000000002
 30
0.0
 70
    32
  0
VERTEX
  5
48D1
  8
241
 10
213.107
 20
33.28670000000001
 30
0.0
 70
    32
  0
VERTEX
  5
48D2
  8
241
 10
213.06200000000001
 20
33.287799999999997
 30
0.0
 70
    32
  0
VERTEX
  5
48D3
  8
241
 10
213.018
 20
33.289000000000001
 30
0.0
 70
    32
  0
VERTEX
  5
48D4
  8
241
 10
212.97399999999999
 20
33.290199999999999
 30
0.0
 70
    32
  0
VERTEX
  5
48D5
  8
241
 10
212.93000000000001
 20
33.291499999999999
 30
0.0
 70
    32
  0
VERTEX
  5
48D6
  8
241
 10
212.88499999999999
 20
33.292900000000003
 30
0.0
 70
    32
  0
VERTEX
  5
48D7
  8
241
 10
212.84100000000001
 20
33.294400000000003
 30
0.0
 70
    32
  0
VERTEX
  5
48D8
  8
241
 10
212.797
 20
33.295999999999999
 30
0.0
 70
    32
  0
VERTEX
  5
48D9
  8
241
 10
212.75299999999999
 20
33.297699999999999
 30
0.0
 70
    32
  0
VERTEX
  5
48DA
  8
241
 10
212.709
 20
33.299500000000002
 30
0.0
 70
    32
  0
VERTEX
  5
48DB
  8
241
 10
212.66499999999999
 20
33.301299999999998
 30
0.0
 70
    32
  0
VERTEX
  5
48DC
  8
241
 10
212.62
 20
33.3033
 30
0.0
 70
    32
  0
VERTEX
  5
48DD
  8
241
 10
212.57599999999999
 20
33.305300000000003
 30
0.0
 70
    32
  0
VERTEX
  5
48DE
  8
241
 10
212.53200000000001
 20
33.307400000000001
 30
0.0
 70
    32
  0
VERTEX
  5
48DF
  8
241
 10
212.488
 20
33.30960000000001
 30
0.0
 70
    32
  0
VERTEX
  5
48E0
  8
241
 10
212.44399999999999
 20
33.311900000000001
 30
0.0
 70
    32
  0
VERTEX
  5
48E1
  8
241
 10
212.40000000000001
 20
33.31430000000001
 30
0.0
 70
    32
  0
VERTEX
  5
48E2
  8
241
 10
212.35599999999999
 20
33.316800000000001
 30
0.0
 70
    32
  0
VERTEX
  5
48E3
  8
241
 10
212.31200000000001
 20
33.319299999999998
 30
0.0
 70
    32
  0
VERTEX
  5
48E4
  8
241
 10
212.267
 20
33.322000000000003
 30
0.0
 70
    32
  0
VERTEX
  5
48E5
  8
241
 10
212.22300000000001
 20
33.3247
 30
0.0
 70
    32
  0
VERTEX
  5
48E6
  8
241
 10
212.179
 20
33.327500000000001
 30
0.0
 70
    32
  0
VERTEX
  5
48E7
  8
241
 10
212.13499999999999
 20
33.330399999999997
 30
0.0
 70
    32
  0
VERTEX
  5
48E8
  8
241
 10
212.09100000000001
 20
33.333500000000001
 30
0.0
 70
    32
  0
VERTEX
  5
48E9
  8
241
 10
212.047
 20
33.336599999999997
 30
0.0
 70
    32
  0
VERTEX
  5
48EA
  8
241
 10
212.00299999999999
 20
33.339700000000001
 30
0.0
 70
    32
  0
VERTEX
  5
48EB
  8
241
 10
211.959
 20
33.343000000000011
 30
0.0
 70
    32
  0
VERTEX
  5
48EC
  8
241
 10
211.91499999999999
 20
33.346400000000003
 30
0.0
 70
    32
  0
VERTEX
  5
48ED
  8
241
 10
211.87100000000001
 20
33.349800000000002
 30
0.0
 70
    32
  0
VERTEX
  5
48EE
  8
241
 10
211.828
 20
33.353400000000001
 30
0.0
 70
    32
  0
VERTEX
  5
48EF
  8
241
 10
211.78399999999999
 20
33.356999999999999
 30
0.0
 70
    32
  0
VERTEX
  5
48F0
  8
241
 10
211.74000000000001
 20
33.360799999999998
 30
0.0
 70
    32
  0
VERTEX
  5
48F1
  8
241
 10
211.696
 20
33.36460000000001
 30
0.0
 70
    32
  0
VERTEX
  5
48F2
  8
241
 10
211.65199999999999
 20
33.368499999999997
 30
0.0
 70
    32
  0
VERTEX
  5
48F3
  8
241
 10
211.608
 20
33.372500000000002
 30
0.0
 70
    32
  0
VERTEX
  5
48F4
  8
241
 10
211.56399999999999
 20
33.376600000000003
 30
0.0
 70
    32
  0
VERTEX
  5
48F5
  8
241
 10
211.52099999999999
 20
33.380800000000001
 30
0.0
 70
    32
  0
VERTEX
  5
48F6
  8
241
 10
211.477
 20
33.385100000000001
 30
0.0
 70
    32
  0
VERTEX
  5
48F7
  8
241
 10
211.43299999999999
 20
33.389499999999998
 30
0.0
 70
    32
  0
VERTEX
  5
48F8
  8
241
 10
211.38900000000001
 20
33.393999999999998
 30
0.0
 70
    32
  0
VERTEX
  5
48F9
  8
241
 10
211.346
 20
33.398499999999999
 30
0.0
 70
    32
  0
VERTEX
  5
48FA
  8
241
 10
211.30199999999999
 20
33.403199999999998
 30
0.0
 70
    32
  0
VERTEX
  5
48FB
  8
241
 10
211.25800000000001
 20
33.407899999999998
 30
0.0
 70
    32
  0
VERTEX
  5
48FC
  8
241
 10
211.215
 20
33.412799999999997
 30
0.0
 70
    32
  0
VERTEX
  5
48FD
  8
241
 10
211.17099999999999
 20
33.417700000000004
 30
0.0
 70
    32
  0
VERTEX
  5
48FE
  8
241
 10
211.12700000000001
 20
33.422699999999999
 30
0.0
 70
    32
  0
VERTEX
  5
48FF
  8
241
 10
211.084
 20
33.427900000000001
 30
0.0
 70
    32
  0
VERTEX
  5
4900
  8
241
 10
211.03999999999999
 20
33.43310000000001
 30
0.0
 70
    32
  0
VERTEX
  5
4901
  8
241
 10
210.99700000000001
 20
33.438400000000001
 30
0.0
 70
    32
  0
VERTEX
  5
4902
  8
241
 10
210.953
 20
33.44380000000001
 30
0.0
 70
    32
  0
VERTEX
  5
4903
  8
241
 10
210.91
 20
33.449300000000001
 30
0.0
 70
    32
  0
VERTEX
  5
4904
  8
241
 10
210.86600000000001
 20
33.454900000000002
 30
0.0
 70
    32
  0
VERTEX
  5
4905
  8
241
 10
210.82300000000001
 20
33.460599999999999
 30
0.0
 70
    32
  0
VERTEX
  5
4906
  8
241
 10
210.78
 20
33.4664
 30
0.0
 70
    32
  0
VERTEX
  5
4907
  8
241
 10
210.73599999999999
 20
33.472299999999997
 30
0.0
 70
    32
  0
VERTEX
  5
4908
  8
241
 10
210.69300000000001
 20
33.478200000000001
 30
0.0
 70
    32
  0
VERTEX
  5
4909
  8
241
 10
210.65000000000001
 20
33.484299999999998
 30
0.0
 70
    32
  0
VERTEX
  5
490A
  8
241
 10
210.60599999999999
 20
33.490499999999997
 30
0.0
 70
    32
  0
VERTEX
  5
490B
  8
241
 10
210.56299999999999
 20
33.496699999999997
 30
0.0
 70
    32
  0
VERTEX
  5
490C
  8
241
 10
210.52000000000001
 20
33.503100000000003
 30
0.0
 70
    32
  0
VERTEX
  5
490D
  8
241
 10
210.477
 20
33.509599999999999
 30
0.0
 70
    32
  0
VERTEX
  5
490E
  8
241
 10
210.434
 20
33.516100000000002
 30
0.0
 70
    32
  0
VERTEX
  5
490F
  8
241
 10
210.38999999999999
 20
33.522799999999997
 30
0.0
 70
    32
  0
VERTEX
  5
4910
  8
241
 10
210.34700000000001
 20
33.529499999999999
 30
0.0
 70
    32
  0
VERTEX
  5
4911
  8
241
 10
210.304
 20
33.5364
 30
0.0
 70
    32
  0
VERTEX
  5
4912
  8
241
 10
210.261
 20
33.543300000000002
 30
0.0
 70
    32
  0
VERTEX
  5
4913
  8
241
 10
210.21799999999999
 20
33.55040000000001
 30
0.0
 70
    32
  0
VERTEX
  5
4914
  8
241
 10
210.17599999999999
 20
33.557499999999997
 30
0.0
 70
    32
  0
VERTEX
  5
4915
  8
241
 10
210.13300000000001
 20
33.564799999999998
 30
0.0
 70
    32
  0
VERTEX
  5
4916
  8
241
 10
210.09
 20
33.572099999999999
 30
0.0
 70
    32
  0
VERTEX
  5
4917
  8
241
 10
210.047
 20
33.579599999999999
 30
0.0
 70
    32
  0
VERTEX
  5
4918
  8
241
 10
210.00399999999999
 20
33.5871
 30
0.0
 70
    32
  0
VERTEX
  5
4919
  8
241
 10
209.96199999999999
 20
33.594700000000003
 30
0.0
 70
    32
  0
VERTEX
  5
491A
  8
241
 10
209.91900000000001
 20
33.602499999999999
 30
0.0
 70
    32
  0
VERTEX
  5
491B
  8
241
 10
209.876
 20
33.610300000000002
 30
0.0
 70
    32
  0
VERTEX
  5
491C
  8
241
 10
209.834
 20
33.618200000000002
 30
0.0
 70
    32
  0
VERTEX
  5
491D
  8
241
 10
209.791
 20
33.626300000000001
 30
0.0
 70
    32
  0
VERTEX
  5
491E
  8
241
 10
209.749
 20
33.634399999999999
 30
0.0
 70
    32
  0
VERTEX
  5
491F
  8
241
 10
209.70599999999999
 20
33.642699999999998
 30
0.0
 70
    32
  0
VERTEX
  5
4920
  8
241
 10
209.66399999999999
 20
33.651000000000003
 30
0.0
 70
    32
  0
VERTEX
  5
4921
  8
241
 10
209.62100000000001
 20
33.659399999999998
 30
0.0
 70
    32
  0
VERTEX
  5
4922
  8
241
 10
209.57900000000001
 20
33.667999999999999
 30
0.0
 70
    32
  0
VERTEX
  5
4923
  8
241
 10
209.53700000000001
 20
33.676600000000001
 30
0.0
 70
    32
  0
VERTEX
  5
4924
  8
241
 10
209.494
 20
33.685400000000001
 30
0.0
 70
    32
  0
VERTEX
  5
4925
  8
241
 10
209.452
 20
33.694200000000002
 30
0.0
 70
    32
  0
VERTEX
  5
4926
  8
241
 10
209.41
 20
33.703200000000002
 30
0.0
 70
    32
  0
VERTEX
  5
4927
  8
241
 10
209.36799999999999
 20
33.712200000000003
 30
0.0
 70
    32
  0
VERTEX
  5
4928
  8
241
 10
209.32599999999999
 20
33.721400000000003
 30
0.0
 70
    32
  0
VERTEX
  5
4929
  8
241
 10
209.28399999999999
 20
33.73060000000001
 30
0.0
 70
    32
  0
VERTEX
  5
492A
  8
241
 10
209.24199999999999
 20
33.740000000000002
 30
0.0
 70
    32
  0
VERTEX
  5
492B
  8
241
 10
209.19999999999999
 20
33.749499999999998
 30
0.0
 70
    32
  0
VERTEX
  5
492C
  8
241
 10
209.15799999999999
 20
33.759
 30
0.0
 70
    32
  0
VERTEX
  5
492D
  8
241
 10
209.11699999999999
 20
33.768700000000003
 30
0.0
 70
    32
  0
VERTEX
  5
492E
  8
241
 10
209.07499999999999
 20
33.778500000000001
 30
0.0
 70
    32
  0
VERTEX
  5
492F
  8
241
 10
209.03299999999999
 20
33.788400000000003
 30
0.0
 70
    32
  0
VERTEX
  5
4930
  8
241
 10
208.99199999999999
 20
33.798400000000001
 30
0.0
 70
    32
  0
VERTEX
  5
4931
  8
241
 10
208.94999999999999
 20
33.808399999999999
 30
0.0
 70
    32
  0
VERTEX
  5
4932
  8
241
 10
208.90899999999999
 20
33.818600000000004
 30
0.0
 70
    32
  0
VERTEX
  5
4933
  8
241
 10
208.86699999999999
 20
33.828899999999997
 30
0.0
 70
    32
  0
VERTEX
  5
4934
  8
241
 10
208.82599999999999
 20
33.839300000000001
 30
0.0
 70
    32
  0
VERTEX
  5
4935
  8
241
 10
208.785
 20
33.849899999999998
 30
0.0
 70
    32
  0
VERTEX
  5
4936
  8
241
 10
208.74299999999999
 20
33.860500000000002
 30
0.0
 70
    32
  0
VERTEX
  5
4937
  8
241
 10
208.702
 20
33.871200000000002
 30
0.0
 70
    32
  0
VERTEX
  5
4938
  8
241
 10
208.661
 20
33.881999999999998
 30
0.0
 70
    32
  0
VERTEX
  5
4939
  8
241
 10
208.62
 20
33.893000000000001
 30
0.0
 70
    32
  0
VERTEX
  5
493A
  8
241
 10
208.57900000000001
 20
33.904000000000003
 30
0.0
 70
    32
  0
VERTEX
  5
493B
  8
241
 10
208.53800000000001
 20
33.915199999999999
 30
0.0
 70
    32
  0
VERTEX
  5
493C
  8
241
 10
208.49799999999999
 20
33.926400000000001
 30
0.0
 70
    32
  0
VERTEX
  5
493D
  8
241
 10
208.45699999999999
 20
33.937800000000003
 30
0.0
 70
    32
  0
VERTEX
  5
493E
  8
241
 10
208.416
 20
33.949300000000001
 30
0.0
 70
    32
  0
VERTEX
  5
493F
  8
241
 10
208.376
 20
33.960900000000002
 30
0.0
 70
    32
  0
VERTEX
  5
4940
  8
241
 10
208.33500000000001
 20
33.9726
 30
0.0
 70
    32
  0
VERTEX
  5
4941
  8
241
 10
208.29499999999999
 20
33.984400000000001
 30
0.0
 70
    32
  0
VERTEX
  5
4942
  8
241
 10
208.25399999999999
 20
33.996299999999998
 30
0.0
 70
    32
  0
VERTEX
  5
4943
  8
241
 10
208.214
 20
34.008299999999998
 30
0.0
 70
    32
  0
VERTEX
  5
4944
  8
241
 10
208.17400000000001
 20
34.020400000000002
 30
0.0
 70
    32
  0
VERTEX
  5
4945
  8
241
 10
208.13399999999999
 20
34.032699999999998
 30
0.0
 70
    32
  0
VERTEX
  5
4946
  8
241
 10
208.09399999999999
 20
34.045000000000002
 30
0.0
 70
    32
  0
VERTEX
  5
4947
  8
241
 10
208.054
 20
34.057499999999997
 30
0.0
 70
    32
  0
VERTEX
  5
4948
  8
241
 10
208.01400000000001
 20
34.07
 30
0.0
 70
    32
  0
VERTEX
  5
4949
  8
241
 10
207.97399999999999
 20
34.082700000000003
 30
0.0
 70
    32
  0
VERTEX
  5
494A
  8
241
 10
207.935
 20
34.095500000000001
 30
0.0
 70
    32
  0
VERTEX
  5
494B
  8
241
 10
207.89500000000001
 20
34.108400000000003
 30
0.0
 70
    32
  0
VERTEX
  5
494C
  8
241
 10
207.85599999999999
 20
34.121400000000001
 30
0.0
 70
    32
  0
VERTEX
  5
494D
  8
241
 10
207.816
 20
34.134599999999999
 30
0.0
 70
    32
  0
VERTEX
  5
494E
  8
241
 10
207.77699999999999
 20
34.147799999999997
 30
0.0
 70
    32
  0
VERTEX
  5
494F
  8
241
 10
207.738
 20
34.161099999999998
 30
0.0
 70
    32
  0
VERTEX
  5
4950
  8
241
 10
207.69900000000001
 20
34.174599999999998
 30
0.0
 70
    32
  0
VERTEX
  5
4951
  8
241
 10
207.66
 20
34.188200000000002
 30
0.0
 70
    32
  0
VERTEX
  5
4952
  8
241
 10
207.62100000000001
 20
34.201900000000002
 30
0.0
 70
    32
  0
VERTEX
  5
4953
  8
241
 10
207.58199999999999
 20
34.215699999999998
 30
0.0
 70
    32
  0
VERTEX
  5
4954
  8
241
 10
207.54300000000001
 20
34.229599999999998
 30
0.0
 70
    32
  0
VERTEX
  5
4955
  8
241
 10
207.505
 20
34.243600000000001
 30
0.0
 70
    32
  0
VERTEX
  5
4956
  8
241
 10
207.46600000000001
 20
34.2577
 30
0.0
 70
    32
  0
VERTEX
  5
4957
  8
241
 10
207.428
 20
34.271999999999998
 30
0.0
 70
    32
  0
VERTEX
  5
4958
  8
241
 10
207.38900000000001
 20
34.286299999999997
 30
0.0
 70
    32
  0
VERTEX
  5
4959
  8
241
 10
207.351
 20
34.300800000000002
 30
0.0
 70
    32
  0
VERTEX
  5
495A
  8
241
 10
207.31299999999999
 20
34.315399999999997
 30
0.0
 70
    32
  0
VERTEX
  5
495B
  8
241
 10
207.27500000000001
 20
34.330100000000002
 30
0.0
 70
    32
  0
VERTEX
  5
495C
  8
241
 10
207.23699999999999
 20
34.344900000000003
 30
0.0
 70
    32
  0
VERTEX
  5
495D
  8
241
 10
207.19999999999999
 20
34.3598
 30
0.0
 70
    32
  0
VERTEX
  5
495E
  8
241
 10
207.16200000000001
 20
34.3748
 30
0.0
 70
    32
  0
VERTEX
  5
495F
  8
241
 10
207.124
 20
34.389899999999997
 30
0.0
 70
    32
  0
VERTEX
  5
4960
  8
241
 10
207.08699999999999
 20
34.405200000000001
 30
0.0
 70
    32
  0
VERTEX
  5
4961
  8
241
 10
207.05000000000001
 20
34.4206
 30
0.0
 70
    32
  0
VERTEX
  5
4962
  8
241
 10
207.01300000000001
 20
34.436
 30
0.0
 70
    32
  0
VERTEX
  5
4963
  8
241
 10
206.976
 20
34.451599999999999
 30
0.0
 70
    32
  0
VERTEX
  5
4964
  8
241
 10
206.93899999999999
 20
34.467300000000002
 30
0.0
 70
    32
  0
VERTEX
  5
4965
  8
241
 10
206.90199999999999
 20
34.4831
 30
0.0
 70
    32
  0
VERTEX
  5
4966
  8
241
 10
206.86500000000001
 20
34.499000000000002
 30
0.0
 70
    32
  0
VERTEX
  5
4967
  8
241
 10
206.82900000000001
 20
34.515099999999997
 30
0.0
 70
    32
  0
VERTEX
  5
4968
  8
241
 10
206.79300000000001
 20
34.531199999999998
 30
0.0
 70
    32
  0
VERTEX
  5
4969
  8
241
 10
206.756
 20
34.547499999999999
 30
0.0
 70
    32
  0
VERTEX
  5
496A
  8
241
 10
206.72
 20
34.563899999999997
 30
0.0
 70
    32
  0
VERTEX
  5
496B
  8
241
 10
206.684
 20
34.580300000000001
 30
0.0
 70
    32
  0
VERTEX
  5
496C
  8
241
 10
206.648
 20
34.596899999999998
 30
0.0
 70
    32
  0
VERTEX
  5
496D
  8
241
 10
206.613
 20
34.613599999999998
 30
0.0
 70
    32
  0
VERTEX
  5
496E
  8
241
 10
206.577
 20
34.630499999999998
 30
0.0
 70
    32
  0
VERTEX
  5
496F
  8
241
 10
206.542
 20
34.647399999999998
 30
0.0
 70
    32
  0
VERTEX
  5
4970
  8
241
 10
206.50700000000001
 20
34.664400000000001
 30
0.0
 70
    32
  0
VERTEX
  5
4971
  8
241
 10
206.471
 20
34.68160000000001
 30
0.0
 70
    32
  0
VERTEX
  5
4972
  8
241
 10
206.43700000000001
 20
34.698900000000002
 30
0.0
 70
    32
  0
VERTEX
  5
4973
  8
241
 10
206.40199999999999
 20
34.716299999999997
 30
0.0
 70
    32
  0
VERTEX
  5
4974
  8
241
 10
206.36699999999999
 20
34.733699999999999
 30
0.0
 70
    32
  0
VERTEX
  5
4975
  8
241
 10
206.333
 20
34.751399999999997
 30
0.0
 70
    32
  0
VERTEX
  5
4976
  8
241
 10
206.298
 20
34.769100000000002
 30
0.0
 70
    32
  0
VERTEX
  5
4977
  8
241
 10
206.26400000000001
 20
34.786900000000003
 30
0.0
 70
    32
  0
VERTEX
  5
4978
  8
241
 10
206.22999999999999
 20
34.804900000000004
 30
0.0
 70
    32
  0
VERTEX
  5
4979
  8
241
 10
206.196
 20
34.822899999999997
 30
0.0
 70
    32
  0
VERTEX
  5
497A
  8
241
 10
206.16300000000001
 20
34.841099999999997
 30
0.0
 70
    32
  0
VERTEX
  5
497B
  8
241
 10
206.12899999999999
 20
34.859400000000001
 30
0.0
 70
    32
  0
VERTEX
  5
497C
  8
241
 10
206.096
 20
34.877800000000001
 30
0.0
 70
    32
  0
VERTEX
  5
497D
  8
241
 10
206.06299999999999
 20
34.8964
 30
0.0
 70
    32
  0
VERTEX
  5
497E
  8
241
 10
206.03
 20
34.914999999999999
 30
0.0
 70
    32
  0
VERTEX
  5
497F
  8
241
 10
205.99700000000001
 20
34.933700000000002
 30
0.0
 70
    32
  0
VERTEX
  5
4980
  8
241
 10
205.964
 20
34.952599999999997
 30
0.0
 70
    32
  0
VERTEX
  5
4981
  8
241
 10
205.93199999999999
 20
34.971600000000002
 30
0.0
 70
    32
  0
VERTEX
  5
4982
  8
241
 10
205.90000000000001
 20
34.990699999999997
 30
0.0
 70
    32
  0
VERTEX
  5
4983
  8
241
 10
205.86799999999999
 20
35.009900000000002
 30
0.0
 70
    32
  0
VERTEX
  5
4984
  8
241
 10
205.83600000000001
 20
35.029200000000003
 30
0.0
 70
    32
  0
VERTEX
  5
4985
  8
241
 10
205.804
 20
35.048699999999997
 30
0.0
 70
    32
  0
VERTEX
  5
4986
  8
241
 10
205.773
 20
35.068199999999997
 30
0.0
 70
    32
  0
VERTEX
  5
4987
  8
241
 10
205.74100000000001
 20
35.087899999999998
 30
0.0
 70
    32
  0
VERTEX
  5
4988
  8
241
 10
205.71000000000001
 20
35.107700000000001
 30
0.0
 70
    32
  0
VERTEX
  5
4989
  8
241
 10
205.679
 20
35.127600000000001
 30
0.0
 70
    32
  0
VERTEX
  5
498A
  8
241
 10
205.649
 20
35.147599999999997
 30
0.0
 70
    32
  0
VERTEX
  5
498B
  8
241
 10
205.61799999999999
 20
35.1678
 30
0.0
 70
    32
  0
VERTEX
  5
498C
  8
241
 10
205.58799999999999
 20
35.188000000000009
 30
0.0
 70
    32
  0
VERTEX
  5
498D
  8
241
 10
205.55799999999999
 20
35.208300000000001
 30
0.0
 70
    32
  0
VERTEX
  5
498E
  8
241
 10
205.52799999999999
 20
35.2288
 30
0.0
 70
    32
  0
VERTEX
  5
498F
  8
241
 10
205.49799999999999
 20
35.249400000000001
 30
0.0
 70
    32
  0
VERTEX
  5
4990
  8
241
 10
205.46899999999999
 20
35.27000000000001
 30
0.0
 70
    32
  0
VERTEX
  5
4991
  8
241
 10
205.44
 20
35.290799999999997
 30
0.0
 70
    32
  0
VERTEX
  5
4992
  8
241
 10
205.411
 20
35.311700000000002
 30
0.0
 70
    32
  0
VERTEX
  5
4993
  8
241
 10
205.38200000000001
 20
35.332700000000003
 30
0.0
 70
    32
  0
VERTEX
  5
4994
  8
241
 10
205.35300000000001
 20
35.3538
 30
0.0
 70
    32
  0
VERTEX
  5
4995
  8
241
 10
205.32499999999999
 20
35.374899999999997
 30
0.0
 70
    32
  0
VERTEX
  5
4996
  8
241
 10
205.297
 20
35.3962
 30
0.0
 70
    32
  0
VERTEX
  5
4997
  8
241
 10
205.26900000000001
 20
35.4176
 30
0.0
 70
    32
  0
VERTEX
  5
4998
  8
241
 10
205.24199999999999
 20
35.439100000000003
 30
0.0
 70
    32
  0
VERTEX
  5
4999
  8
241
 10
205.214
 20
35.460700000000003
 30
0.0
 70
    32
  0
VERTEX
  5
499A
  8
241
 10
205.18700000000001
 20
35.482399999999998
 30
0.0
 70
    32
  0
VERTEX
  5
499B
  8
241
 10
205.161
 20
35.504199999999997
 30
0.0
 70
    32
  0
VERTEX
  5
499C
  8
241
 10
205.13399999999999
 20
35.526000000000003
 30
0.0
 70
    32
  0
VERTEX
  5
499D
  8
241
 10
205.108
 20
35.548000000000002
 30
0.0
 70
    32
  0
VERTEX
  5
499E
  8
241
 10
205.08199999999999
 20
35.570099999999996
 30
0.0
 70
    32
  0
VERTEX
  5
499F
  8
241
 10
205.05600000000001
 20
35.592199999999998
 30
0.0
 70
    32
  0
VERTEX
  5
49A0
  8
241
 10
205.03100000000001
 20
35.6145
 30
0.0
 70
    32
  0
VERTEX
  5
49A1
  8
241
 10
205.006
 20
35.636800000000001
 30
0.0
 70
    32
  0
VERTEX
  5
49A2
  8
241
 10
204.98099999999999
 20
35.659300000000002
 30
0.0
 70
    32
  0
VERTEX
  5
49A3
  8
241
 10
204.95599999999999
 20
35.681800000000003
 30
0.0
 70
    32
  0
VERTEX
  5
49A4
  8
241
 10
204.93199999999999
 20
35.7044
 30
0.0
 70
    32
  0
VERTEX
  5
49A5
  8
241
 10
204.90799999999999
 20
35.7271
 30
0.0
 70
    32
  0
VERTEX
  5
49A6
  8
241
 10
204.88399999999999
 20
35.749899999999997
 30
0.0
 70
    32
  0
VERTEX
  5
49A7
  8
241
 10
204.86000000000001
 20
35.7727
 30
0.0
 70
    32
  0
VERTEX
  5
49A8
  8
241
 10
204.83699999999999
 20
35.795699999999997
 30
0.0
 70
    32
  0
VERTEX
  5
49A9
  8
241
 10
204.81399999999999
 20
35.8187
 30
0.0
 70
    32
  0
VERTEX
  5
49AA
  8
241
 10
204.792
 20
35.841799999999999
 30
0.0
 70
    32
  0
VERTEX
  5
49AB
  8
241
 10
204.76900000000001
 20
35.865000000000002
 30
0.0
 70
    32
  0
VERTEX
  5
49AC
  8
241
 10
204.74799999999999
 20
35.888300000000001
 30
0.0
 70
    32
  0
VERTEX
  5
49AD
  8
241
 10
204.726
 20
35.911700000000003
 30
0.0
 70
    32
  0
VERTEX
  5
49AE
  8
241
 10
204.70500000000001
 20
35.935099999999998
 30
0.0
 70
    32
  0
VERTEX
  5
49AF
  8
241
 10
204.684
 20
35.958599999999997
 30
0.0
 70
    32
  0
VERTEX
  5
49B0
  8
241
 10
204.66300000000001
 20
35.982199999999999
 30
0.0
 70
    32
  0
VERTEX
  5
49B1
  8
241
 10
204.642
 20
36.005899999999997
 30
0.0
 70
    32
  0
VERTEX
  5
49B2
  8
241
 10
204.62200000000001
 20
36.029600000000002
 30
0.0
 70
    32
  0
VERTEX
  5
49B3
  8
241
 10
204.60300000000001
 20
36.053400000000003
 30
0.0
 70
    32
  0
VERTEX
  5
49B4
  8
241
 10
204.583
 20
36.077300000000001
 30
0.0
 70
    32
  0
VERTEX
  5
49B5
  8
241
 10
204.56399999999999
 20
36.101300000000002
 30
0.0
 70
    32
  0
VERTEX
  5
49B6
  8
241
 10
204.54499999999999
 20
36.125300000000003
 30
0.0
 70
    32
  0
VERTEX
  5
49B7
  8
241
 10
204.52699999999999
 20
36.1494
 30
0.0
 70
    32
  0
VERTEX
  5
49B8
  8
241
 10
204.50899999999999
 20
36.173499999999997
 30
0.0
 70
    32
  0
VERTEX
  5
49B9
  8
241
 10
204.49100000000001
 20
36.197699999999998
 30
0.0
 70
    32
  0
VERTEX
  5
49BA
  8
241
 10
204.47399999999999
 20
36.222000000000001
 30
0.0
 70
    32
  0
VERTEX
  5
49BB
  8
241
 10
204.45699999999999
 20
36.246299999999998
 30
0.0
 70
    32
  0
VERTEX
  5
49BC
  8
241
 10
204.44
 20
36.270699999999998
 30
0.0
 70
    32
  0
VERTEX
  5
49BD
  8
241
 10
204.42400000000001
 20
36.295200000000001
 30
0.0
 70
    32
  0
VERTEX
  5
49BE
  8
241
 10
204.40799999999999
 20
36.319699999999997
 30
0.0
 70
    32
  0
VERTEX
  5
49BF
  8
241
 10
204.392
 20
36.344200000000001
 30
0.0
 70
    32
  0
VERTEX
  5
49C0
  8
241
 10
204.37700000000001
 20
36.3688
 30
0.0
 70
    32
  0
VERTEX
  5
49C1
  8
241
 10
204.36199999999999
 20
36.3934
 30
0.0
 70
    32
  0
VERTEX
  5
49C2
  8
241
 10
204.34800000000001
 20
36.418100000000003
 30
0.0
 70
    32
  0
VERTEX
  5
49C3
  8
241
 10
204.334
 20
36.442799999999998
 30
0.0
 70
    32
  0
VERTEX
  5
49C4
  8
241
 10
204.31999999999999
 20
36.467599999999997
 30
0.0
 70
    32
  0
VERTEX
  5
49C5
  8
241
 10
204.30699999999999
 20
36.492400000000011
 30
0.0
 70
    32
  0
VERTEX
  5
49C6
  8
241
 10
204.29400000000001
 20
36.517200000000003
 30
0.0
 70
    32
  0
VERTEX
  5
49C7
  8
241
 10
204.28100000000001
 20
36.542000000000002
 30
0.0
 70
    32
  0
VERTEX
  5
49C8
  8
241
 10
204.26900000000001
 20
36.566899999999997
 30
0.0
 70
    32
  0
VERTEX
  5
49C9
  8
241
 10
204.25700000000001
 20
36.59190000000001
 30
0.0
 70
    32
  0
VERTEX
  5
49CA
  8
241
 10
204.245
 20
36.616799999999998
 30
0.0
 70
    32
  0
VERTEX
  5
49CB
  8
241
 10
204.23400000000001
 20
36.641800000000003
 30
0.0
 70
    32
  0
VERTEX
  5
49CC
  8
241
 10
204.22300000000001
 20
36.666800000000002
 30
0.0
 70
    32
  0
VERTEX
  5
49CD
  8
241
 10
204.21299999999999
 20
36.691800000000001
 30
0.0
 70
    32
  0
VERTEX
  5
49CE
  8
241
 10
204.203
 20
36.716799999999999
 30
0.0
 70
    32
  0
VERTEX
  5
49CF
  8
241
 10
204.19399999999999
 20
36.741900000000001
 30
0.0
 70
    32
  0
VERTEX
  5
49D0
  8
241
 10
204.185
 20
36.767000000000003
 30
0.0
 70
    32
  0
VERTEX
  5
49D1
  8
241
 10
204.17599999999999
 20
36.792000000000002
 30
0.0
 70
    32
  0
VERTEX
  5
49D2
  8
241
 10
204.16800000000001
 20
36.817100000000011
 30
0.0
 70
    32
  0
VERTEX
  5
49D3
  8
241
 10
204.16
 20
36.842199999999998
 30
0.0
 70
    32
  0
VERTEX
  5
49D4
  8
241
 10
204.15199999999999
 20
36.8673
 30
0.0
 70
    32
  0
VERTEX
  5
49D5
  8
241
 10
204.14500000000001
 20
36.892400000000002
 30
0.0
 70
    32
  0
VERTEX
  5
49D6
  8
241
 10
204.13800000000001
 20
36.9176
 30
0.0
 70
    32
  0
VERTEX
  5
49D7
  8
241
 10
204.13200000000001
 20
36.942700000000002
 30
0.0
 70
    32
  0
VERTEX
  5
49D8
  8
241
 10
204.126
 20
36.967799999999997
 30
0.0
 70
    32
  0
VERTEX
  5
49D9
  8
241
 10
204.12100000000001
 20
36.992899999999999
 30
0.0
 70
    32
  0
VERTEX
  5
49DA
  8
241
 10
204.11600000000001
 20
37.018000000000001
 30
0.0
 70
    32
  0
VERTEX
  5
49DB
  8
241
 10
204.11099999999999
 20
37.043100000000003
 30
0.0
 70
    32
  0
VERTEX
  5
49DC
  8
241
 10
204.107
 20
37.068199999999997
 30
0.0
 70
    32
  0
VERTEX
  5
49DD
  8
241
 10
204.10300000000001
 20
37.093299999999999
 30
0.0
 70
    32
  0
VERTEX
  5
49DE
  8
241
 10
204.09999999999999
 20
37.118299999999998
 30
0.0
 70
    32
  0
VERTEX
  5
49DF
  8
241
 10
204.09700000000001
 20
37.1434
 30
0.0
 70
    32
  0
VERTEX
  5
49E0
  8
241
 10
204.095
 20
37.168399999999998
 30
0.0
 70
    32
  0
VERTEX
  5
49E1
  8
241
 10
204.09299999999999
 20
37.193399999999997
 30
0.0
 70
    32
  0
VERTEX
  5
49E2
  8
241
 10
204.09100000000001
 20
37.218400000000003
 30
0.0
 70
    32
  0
VERTEX
  5
49E3
  8
241
 10
204.09
 20
37.243299999999998
 30
0.0
 70
    32
  0
VERTEX
  5
49E4
  8
241
 10
204.089
 20
37.268300000000004
 30
0.0
 70
    32
  0
VERTEX
  5
49E5
  8
241
 10
204.08799999999999
 20
37.293100000000003
 30
0.0
 70
    32
  0
VERTEX
  5
49E6
  8
241
 10
204.08799999999999
 20
37.317999999999998
 30
0.0
 70
    32
  0
VERTEX
  5
49E7
  8
241
 10
204.089
 20
37.342799999999997
 30
0.0
 70
    32
  0
VERTEX
  5
49E8
  8
241
 10
204.09
 20
37.367600000000003
 30
0.0
 70
    32
  0
VERTEX
  5
49E9
  8
241
 10
204.09100000000001
 20
37.392299999999999
 30
0.0
 70
    32
  0
VERTEX
  5
49EA
  8
241
 10
204.09299999999999
 20
37.417000000000002
 30
0.0
 70
    32
  0
VERTEX
  5
49EB
  8
241
 10
204.095
 20
37.441699999999997
 30
0.0
 70
    32
  0
VERTEX
  5
49EC
  8
241
 10
204.09700000000001
 20
37.466299999999997
 30
0.0
 70
    32
  0
VERTEX
  5
49ED
  8
241
 10
204.09999999999999
 20
37.4908
 30
0.0
 70
    32
  0
VERTEX
  5
49EE
  8
241
 10
204.10300000000001
 20
37.515300000000011
 30
0.0
 70
    32
  0
VERTEX
  5
49EF
  8
241
 10
204.107
 20
37.5398
 30
0.0
 70
    32
  0
VERTEX
  5
49F0
  8
241
 10
204.11099999999999
 20
37.5642
 30
0.0
 70
    32
  0
VERTEX
  5
49F1
  8
241
 10
204.11600000000001
 20
37.58850000000001
 30
0.0
 70
    32
  0
VERTEX
  5
49F2
  8
241
 10
204.12100000000001
 20
37.6128
 30
0.0
 70
    32
  0
VERTEX
  5
49F3
  8
241
 10
204.126
 20
37.637
 30
0.0
 70
    32
  0
VERTEX
  5
49F4
  8
241
 10
204.13200000000001
 20
37.661099999999998
 30
0.0
 70
    32
  0
VERTEX
  5
49F5
  8
241
 10
204.13800000000001
 20
37.685200000000002
 30
0.0
 70
    32
  0
VERTEX
  5
49F6
  8
241
 10
204.14500000000001
 20
37.709200000000003
 30
0.0
 70
    32
  0
VERTEX
  5
49F7
  8
241
 10
204.15199999999999
 20
37.7331
 30
0.0
 70
    32
  0
VERTEX
  5
49F8
  8
241
 10
204.15899999999999
 20
37.756900000000002
 30
0.0
 70
    32
  0
VERTEX
  5
49F9
  8
241
 10
204.167
 20
37.780700000000003
 30
0.0
 70
    32
  0
VERTEX
  5
49FA
  8
241
 10
204.17500000000001
 20
37.804400000000001
 30
0.0
 70
    32
  0
VERTEX
  5
49FB
  8
241
 10
204.184
 20
37.828000000000003
 30
0.0
 70
    32
  0
VERTEX
  5
49FC
  8
241
 10
204.19300000000001
 20
37.851500000000001
 30
0.0
 70
    32
  0
VERTEX
  5
49FD
  8
241
 10
204.202
 20
37.874899999999997
 30
0.0
 70
    32
  0
VERTEX
  5
49FE
  8
241
 10
204.21199999999999
 20
37.898299999999999
 30
0.0
 70
    32
  0
VERTEX
  5
49FF
  8
241
 10
204.22200000000001
 20
37.921500000000002
 30
0.0
 70
    32
  0
VERTEX
  5
4A00
  8
241
 10
204.233
 20
37.944699999999997
 30
0.0
 70
    32
  0
VERTEX
  5
4A01
  8
241
 10
204.244
 20
37.967799999999997
 30
0.0
 70
    32
  0
VERTEX
  5
4A02
  8
241
 10
204.256
 20
37.990699999999997
 30
0.0
 70
    32
  0
VERTEX
  5
4A03
  8
241
 10
204.268
 20
38.013599999999997
 30
0.0
 70
    32
  0
VERTEX
  5
4A04
  8
241
 10
204.28
 20
38.0364
 30
0.0
 70
    32
  0
VERTEX
  5
4A05
  8
241
 10
204.292
 20
38.059100000000001
 30
0.0
 70
    32
  0
VERTEX
  5
4A06
  8
241
 10
204.30500000000001
 20
38.081699999999998
 30
0.0
 70
    32
  0
VERTEX
  5
4A07
  8
241
 10
204.31899999999999
 20
38.104199999999999
 30
0.0
 70
    32
  0
VERTEX
  5
4A08
  8
241
 10
204.333
 20
38.12660000000001
 30
0.0
 70
    32
  0
VERTEX
  5
4A09
  8
241
 10
204.34700000000001
 20
38.148899999999998
 30
0.0
 70
    32
  0
VERTEX
  5
4A0A
  8
241
 10
204.36099999999999
 20
38.171100000000003
 30
0.0
 70
    32
  0
VERTEX
  5
4A0B
  8
241
 10
204.376
 20
38.193199999999997
 30
0.0
 70
    32
  0
VERTEX
  5
4A0C
  8
241
 10
204.39099999999999
 20
38.21520000000001
 30
0.0
 70
    32
  0
VERTEX
  5
4A0D
  8
241
 10
204.40700000000001
 20
38.237099999999998
 30
0.0
 70
    32
  0
VERTEX
  5
4A0E
  8
241
 10
204.423
 20
38.258899999999997
 30
0.0
 70
    32
  0
VERTEX
  5
4A0F
  8
241
 10
204.43899999999999
 20
38.2806
 30
0.0
 70
    32
  0
VERTEX
  5
4A10
  8
241
 10
204.45599999999999
 20
38.302199999999999
 30
0.0
 70
    32
  0
VERTEX
  5
4A11
  8
241
 10
204.47300000000001
 20
38.323700000000002
 30
0.0
 70
    32
  0
VERTEX
  5
4A12
  8
241
 10
204.49000000000001
 20
38.345100000000002
 30
0.0
 70
    32
  0
VERTEX
  5
4A13
  8
241
 10
204.50800000000001
 20
38.366399999999999
 30
0.0
 70
    32
  0
VERTEX
  5
4A14
  8
241
 10
204.52600000000001
 20
38.387599999999999
 30
0.0
 70
    32
  0
VERTEX
  5
4A15
  8
241
 10
204.54400000000001
 20
38.40870000000001
 30
0.0
 70
    32
  0
VERTEX
  5
4A16
  8
241
 10
204.56299999999999
 20
38.429600000000001
 30
0.0
 70
    32
  0
VERTEX
  5
4A17
  8
241
 10
204.58199999999999
 20
38.450499999999998
 30
0.0
 70
    32
  0
VERTEX
  5
4A18
  8
241
 10
204.601
 20
38.471200000000003
 30
0.0
 70
    32
  0
VERTEX
  5
4A19
  8
241
 10
204.62100000000001
 20
38.491900000000001
 30
0.0
 70
    32
  0
VERTEX
  5
4A1A
  8
241
 10
204.64099999999999
 20
38.5124
 30
0.0
 70
    32
  0
VERTEX
  5
4A1B
  8
241
 10
204.661
 20
38.532800000000002
 30
0.0
 70
    32
  0
VERTEX
  5
4A1C
  8
241
 10
204.68199999999999
 20
38.553100000000001
 30
0.0
 70
    32
  0
VERTEX
  5
4A1D
  8
241
 10
204.703
 20
38.57330000000001
 30
0.0
 70
    32
  0
VERTEX
  5
4A1E
  8
241
 10
204.72399999999999
 20
38.593400000000003
 30
0.0
 70
    32
  0
VERTEX
  5
4A1F
  8
241
 10
204.745
 20
38.613399999999999
 30
0.0
 70
    32
  0
VERTEX
  5
4A20
  8
241
 10
204.767
 20
38.633200000000002
 30
0.0
 70
    32
  0
VERTEX
  5
4A21
  8
241
 10
204.78899999999999
 20
38.652999999999999
 30
0.0
 70
    32
  0
VERTEX
  5
4A22
  8
241
 10
204.81200000000001
 20
38.672600000000003
 30
0.0
 70
    32
  0
VERTEX
  5
4A23
  8
241
 10
204.83500000000001
 20
38.692100000000011
 30
0.0
 70
    32
  0
VERTEX
  5
4A24
  8
241
 10
204.858
 20
38.711500000000001
 30
0.0
 70
    32
  0
VERTEX
  5
4A25
  8
241
 10
204.881
 20
38.730800000000002
 30
0.0
 70
    32
  0
VERTEX
  5
4A26
  8
241
 10
204.905
 20
38.749899999999997
 30
0.0
 70
    32
  0
VERTEX
  5
4A27
  8
241
 10
204.928
 20
38.768900000000002
 30
0.0
 70
    32
  0
VERTEX
  5
4A28
  8
241
 10
204.953
 20
38.7879
 30
0.0
 70
    32
  0
VERTEX
  5
4A29
  8
241
 10
204.977
 20
38.80660000000001
 30
0.0
 70
    32
  0
VERTEX
  5
4A2A
  8
241
 10
205.00200000000001
 20
38.825299999999999
 30
0.0
 70
    32
  0
VERTEX
  5
4A2B
  8
241
 10
205.02699999999999
 20
38.843899999999998
 30
0.0
 70
    32
  0
VERTEX
  5
4A2C
  8
241
 10
205.05199999999999
 20
38.862299999999998
 30
0.0
 70
    32
  0
VERTEX
  5
4A2D
  8
241
 10
205.078
 20
38.880600000000001
 30
0.0
 70
    32
  0
VERTEX
  5
4A2E
  8
241
 10
205.10300000000001
 20
38.898800000000001
 30
0.0
 70
    32
  0
VERTEX
  5
4A2F
  8
241
 10
205.12899999999999
 20
38.916800000000002
 30
0.0
 70
    32
  0
VERTEX
  5
4A30
  8
241
 10
205.15600000000001
 20
38.934800000000003
 30
0.0
 70
    32
  0
VERTEX
  5
4A31
  8
241
 10
205.18199999999999
 20
38.952599999999997
 30
0.0
 70
    32
  0
VERTEX
  5
4A32
  8
241
 10
205.209
 20
38.970199999999998
 30
0.0
 70
    32
  0
VERTEX
  5
4A33
  8
241
 10
205.23599999999999
 20
38.9878
 30
0.0
 70
    32
  0
VERTEX
  5
4A34
  8
241
 10
205.26400000000001
 20
39.005200000000002
 30
0.0
 70
    32
  0
VERTEX
  5
4A35
  8
241
 10
205.292
 20
39.022500000000001
 30
0.0
 70
    32
  0
VERTEX
  5
4A36
  8
241
 10
205.31899999999999
 20
39.039700000000011
 30
0.0
 70
    32
  0
VERTEX
  5
4A37
  8
241
 10
205.34800000000001
 20
39.056699999999999
 30
0.0
 70
    32
  0
VERTEX
  5
4A38
  8
241
 10
205.376
 20
39.073599999999999
 30
0.0
 70
    32
  0
VERTEX
  5
4A39
  8
241
 10
205.405
 20
39.090400000000002
 30
0.0
 70
    32
  0
VERTEX
  5
4A3A
  8
241
 10
205.434
 20
39.107100000000003
 30
0.0
 70
    32
  0
VERTEX
  5
4A3B
  8
241
 10
205.46299999999999
 20
39.12360000000001
 30
0.0
 70
    32
  0
VERTEX
  5
4A3C
  8
241
 10
205.49199999999999
 20
39.140000000000001
 30
0.0
 70
    32
  0
VERTEX
  5
4A3D
  8
241
 10
205.52199999999999
 20
39.156199999999998
 30
0.0
 70
    32
  0
VERTEX
  5
4A3E
  8
241
 10
205.55199999999999
 20
39.1723
 30
0.0
 70
    32
  0
VERTEX
  5
4A3F
  8
241
 10
205.58199999999999
 20
39.188299999999998
 30
0.0
 70
    32
  0
VERTEX
  5
4A40
  8
241
 10
205.61199999999999
 20
39.204099999999997
 30
0.0
 70
    32
  0
VERTEX
  5
4A41
  8
241
 10
205.643
 20
39.219900000000003
 30
0.0
 70
    32
  0
VERTEX
  5
4A42
  8
241
 10
205.67400000000001
 20
39.235399999999998
 30
0.0
 70
    32
  0
VERTEX
  5
4A43
  8
241
 10
205.70500000000001
 20
39.250900000000001
 30
0.0
 70
    32
  0
VERTEX
  5
4A44
  8
241
 10
205.73599999999999
 20
39.266199999999998
 30
0.0
 70
    32
  0
VERTEX
  5
4A45
  8
241
 10
205.767
 20
39.281300000000002
 30
0.0
 70
    32
  0
VERTEX
  5
4A46
  8
241
 10
205.79900000000001
 20
39.296300000000002
 30
0.0
 70
    32
  0
VERTEX
  5
4A47
  8
241
 10
205.83099999999999
 20
39.311199999999999
 30
0.0
 70
    32
  0
VERTEX
  5
4A48
  8
241
 10
205.863
 20
39.326000000000001
 30
0.0
 70
    32
  0
VERTEX
  5
4A49
  8
241
 10
205.89500000000001
 20
39.340600000000002
 30
0.0
 70
    32
  0
VERTEX
  5
4A4A
  8
241
 10
205.928
 20
39.3551
 30
0.0
 70
    32
  0
VERTEX
  5
4A4B
  8
241
 10
205.96100000000001
 20
39.369399999999999
 30
0.0
 70
    32
  0
VERTEX
  5
4A4C
  8
241
 10
205.994
 20
39.383600000000001
 30
0.0
 70
    32
  0
VERTEX
  5
4A4D
  8
241
 10
206.02699999999999
 20
39.397799999999997
 30
0.0
 70
    32
  0
VERTEX
  5
4A4E
  8
241
 10
206.06
 20
39.411799999999999
 30
0.0
 70
    32
  0
VERTEX
  5
4A4F
  8
241
 10
206.09399999999999
 20
39.425699999999999
 30
0.0
 70
    32
  0
VERTEX
  5
4A50
  8
241
 10
206.12700000000001
 20
39.439599999999999
 30
0.0
 70
    32
  0
VERTEX
  5
4A51
  8
241
 10
206.161
 20
39.453299999999999
 30
0.0
 70
    32
  0
VERTEX
  5
4A52
  8
241
 10
206.19499999999999
 20
39.466999999999999
 30
0.0
 70
    32
  0
VERTEX
  5
4A53
  8
241
 10
206.22800000000001
 20
39.480600000000003
 30
0.0
 70
    32
  0
VERTEX
  5
4A54
  8
241
 10
206.262
 20
39.494100000000003
 30
0.0
 70
    32
  0
VERTEX
  5
4A55
  8
241
 10
206.297
 20
39.507599999999996
 30
0.0
 70
    32
  0
VERTEX
  5
4A56
  8
241
 10
206.33099999999999
 20
39.521000000000001
 30
0.0
 70
    32
  0
VERTEX
  5
4A57
  8
241
 10
206.36500000000001
 20
39.534399999999998
 30
0.0
 70
    32
  0
VERTEX
  5
4A58
  8
241
 10
206.399
 20
39.547699999999999
 30
0.0
 70
    32
  0
VERTEX
  5
4A59
  8
241
 10
206.434
 20
39.561
 30
0.0
 70
    32
  0
VERTEX
  5
4A5A
  8
241
 10
206.46799999999999
 20
39.574300000000001
 30
0.0
 70
    32
  0
VERTEX
  5
4A5B
  8
241
 10
206.50299999999999
 20
39.587600000000002
 30
0.0
 70
    32
  0
VERTEX
  5
4A5C
  8
241
 10
206.53700000000001
 20
39.6008
 30
0.0
 70
    32
  0
VERTEX
  5
4A5D
  8
241
 10
206.571
 20
39.614100000000001
 30
0.0
 70
    32
  0
SEQEND
  5
4A5E
  8
241
  0
LINE
  5
4365
  8
241
  6
CONTINUOUS
 10
203.20001244540001
 20
31.124750152250051
 30
0.0
 11
203.20001244540001
 21
-31.124748289649968
 31
0.0
  0
LINE
  5
4367
  8
241
  6
CONTINUOUS
 10
225.1999676227
 20
31.124750152250051
 30
0.0
 11
225.1999676227
 21
-31.124748289649968
 31
0.0
  0
LINE
  5
4368
  8
240
  6
CONTINUOUS
 10
197.19997048370001
 20
40.59000127014999
 30
0.0
 11
200.78891681817279
 21
40.213622362840781
 31
0.0
  0
LINE
  5
4369
  8
240
  6
CONTINUOUS
 10
236.20000481599999
 20
36.50000132615002
 30
0.0
 11
236.20000481599999
 21
-40.500000119249989
 31
0.0
  0
LINE
  5
436A
  8
241
  6
CONTINUOUS
 10
234.1792881488
 20
-40.605224668949973
 30
0.0
 11
236.20000481599999
 21
-38.202308118349983
 31
0.0
  0
LINE
  5
4372
  8
241
  6
CONTINUOUS
 10
234.1792881488
 20
-40.605224668949973
 30
0.0
 11
234.1792881488
 21
-41.400000453049969
 31
0.0
  0
LINE
  5
4398
  8
240
  6
CONTINUOUS
 10
0.0
 20
44.99999992545002
 30
0.0
 11
0.0
 21
23.0
 31
0.0
  0
LINE
  5
4399
  8
240
  6
CONTINUOUS
 10
0.0
 20
-44.999999925549957
 30
0.0
 11
0.0
 21
-23.0
 31
0.0
  0
LINE
  5
43A6
  8
241
  6
CONTINUOUS
 10
0.0
 20
23.0
 30
0.0
 11
0.0
 21
0.0
 31
0.0
  0
LINE
  5
43A7
  8
241
  6
CONTINUOUS
 10
0.0
 20
-23.0
 30
0.0
 11
0.0
 21
0.0
 31
0.0
  0
LINE
  5
43A8
  8
245
  6
CENTER2
 10
243.44167344003139
 20
0.0
 30
0.0
 11
-54.999999999999972
 21
0.0
 31
0.0
  0
LINE
  5
43B3
  8
241
 10
225.19999639229999
 20
31.12474901762187
 30
0.0
 11
229.36070616572371
 21
37.218838391682212
 31
0.0
  0
ARC
  5
43B4
  8
241
  6
CONTINUOUS
 10
272.75496297011563
 20
0.0000000226500291
 30
0.0
 40
76.2013344750155
 50
155.89223804996399
 51
204.10776195003589
  0
ARC
  5
43B5
  8
241
  6
CONTINUOUS
 10
254.61749256765501
 20
-15.43980825167772
 30
0.0
 40
33.33776307188505
 50
208.06582884517471
 51
228.31619410813971
  0
ARC
  5
43B6
  8
241
  6
CONTINUOUS
 10
233.8026418382255
 20
-38.855079955153109
 30
0.0
 40
2.0085231367887819
 50
227.5593052523644
 51
265.44192380909487
  0
ARC
  5
43B7
  8
241
  6
CONTINUOUS
 10
233.65628580396259
 20
-40.188921515576531
 30
0.0
 40
0.6684607455025861
 50
268.86333685282011
 51
321.4806606636788
  0
LINE
  5
4414
  8
245
  6
CENTER2
 10
209.24520000000001
 20
21.000000022650031
 30
0.0
 11
221.99504999999999
 21
21.000000022650031
 31
0.0
  0
LINE
  5
4415
  8
241
  6
CONTINUOUS
 10
212.99945199999999
 20
19.55662402265002
 30
0.0
 11
215.49945200000019
 21
18.11324902265002
 31
0.0
  0
CIRCLE
  5
4416
  8
241
  6
CONTINUOUS
 10
215.49945200000019
 20
21.000000022650031
 30
0.0
 40
5.25
  0
CIRCLE
  5
4417
  8
242
  6
CONTINUOUS
 10
215.49945200000019
 20
21.000000022650031
 30
0.0
 40
5.0
  0
LINE
  5
4418
  8
241
  6
CONTINUOUS
 10
215.49945200000019
 20
23.886751022650021
 30
0.0
 11
212.99945199999999
 21
22.443376022650028
 31
0.0
  0
LINE
  5
4419
  8
241
  6
CONTINUOUS
 10
212.99945199999999
 20
22.443376022650028
 30
0.0
 11
212.99945199999999
 21
19.55662402265002
 31
0.0
  0
LINE
  5
441A
  8
241
  6
CONTINUOUS
 10
215.49945200000019
 20
18.11324902265002
 30
0.0
 11
217.99945199999999
 21
19.55662402265002
 31
0.0
  0
LINE
  5
441B
  8
241
  6
CONTINUOUS
 10
217.99945199999999
 20
22.443376022650028
 30
0.0
 11
215.49945200000019
 21
23.886751022650021
 31
0.0
  0
LINE
  5
441C
  8
241
  6
CONTINUOUS
 10
217.99945199999999
 20
19.55662402265002
 30
0.0
 11
217.99945199999999
 21
22.443376022650028
 31
0.0
  0
LINE
  5
441E
  8
245
  6
CENTER2
 10
209.24520000000001
 20
-5.9999999773499724
 30
0.0
 11
221.99504999999999
 21
-5.9999999773499724
 31
0.0
  0
LINE
  5
441F
  8
241
  6
CONTINUOUS
 10
212.99945199999999
 20
-7.443375977349981
 30
0.0
 11
215.49945200000019
 21
-8.8867509773499815
 31
0.0
  0
CIRCLE
  5
4420
  8
241
  6
CONTINUOUS
 10
215.49945200000019
 20
-5.9999999773499724
 30
0.0
 40
5.25
  0
CIRCLE
  5
4421
  8
242
  6
CONTINUOUS
 10
215.49945200000019
 20
-5.9999999773499724
 30
0.0
 40
5.0
  0
LINE
  5
4422
  8
241
  6
CONTINUOUS
 10
215.49945200000019
 20
-3.1132489773499752
 30
0.0
 11
212.99945199999999
 21
-4.5566239773499699
 31
0.0
  0
LINE
  5
4423
  8
241
  6
CONTINUOUS
 10
212.99945199999999
 20
-4.5566239773499699
 30
0.0
 11
212.99945199999999
 21
-7.443375977349981
 31
0.0
  0
LINE
  5
4424
  8
241
  6
CONTINUOUS
 10
215.49945200000019
 20
-8.8867509773499815
 30
0.0
 11
217.99945199999999
 21
-7.443375977349981
 31
0.0
  0
LINE
  5
4425
  8
241
  6
CONTINUOUS
 10
217.99945199999999
 20
-4.5566239773499699
 30
0.0
 11
215.49945200000019
 21
-3.1132489773499752
 31
0.0
  0
LINE
  5
4426
  8
241
  6
CONTINUOUS
 10
217.99945199999999
 20
-7.443375977349981
 30
0.0
 11
217.99945199999999
 21
-4.5566239773499699
 31
0.0
  0
LINE
  5
4427
  8
240
 10
196.99999690050001
 20
-41.400000453049969
 30
0.0
 11
195.0858533382
 21
-44.999999925549957
 31
0.0
  0
LINE
  5
4428
  8
240
 10
232.8753568584689
 20
-41.400000453049969
 30
0.0
 11
235.6803715229
 21
-41.400000453049969
 31
0.0
  0
LINE
  5
4441
  8
240
  6
CONTINUOUS
 10
197.19997048370001
 20
40.59000127014999
 30
0.0
 11
194.85518336289999
 21
44.99999992545002
 31
0.0
  0
LINE
  5
4488
  8
250
  6
CONTINUOUS
 10
232.45938991752351
 20
58.398141348832482
 30
0.0
 11
233.5743899175234
 21
60.329377999271749
 31
0.0
  0
LINE
  5
4489
  8
250
  6
CONTINUOUS
 10
233.2525171424503
 20
60.515211332605112
 30
0.0
 11
232.45938991752351
 21
58.398141348832482
 31
0.0
  0
LINE
  5
448A
  8
250
  6
CONTINUOUS
 10
233.89626269259679
 20
60.143544665938428
 30
0.0
 11
232.45938991752351
 21
58.398141348832482
 31
0.0
  0
LINE
  5
448B
  8
250
  6
CONTINUOUS
 10
233.5743899175234
 20
60.329377999271749
 30
0.0
 11
240.7017835169035
 21
72.674385838939017
 31
0.0
1001
ACAD
1000
DSTYLE
1002
{
1070
     6
1000
OPEN
1070
    78
1070
     8
1070
   140
1040
3.0
1070
   173
1070
     1
1002
}
  0
TEXT
  5
448C
  8
250
  6
CONTINUOUS
 10
243.13035494547489
 20
73.67438583893906
 30
0.0
 40
3.0
  1
ENH6-1
  7
YOKO
1001
ITEMNAME
1000
LNSP3
1001
ACAD
1000
MTEXTBEGIN
1070
    73
1070
     1
1070
    44
1040
1.0
1070
    74
1070
     0
1000
MTEXTEND
  0
LINE
  5
448D
  8
250
  6
CONTINUOUS
 10
240.7017835169035
 20
72.674385838939017
 30
0.0
 11
263.273212088332
 21
72.674385838939017
 31
0.0
1001
ITEMNAME
1000
LNSP2
  0
LINE
  5
448E
  8
245
  6
CENTER2
 10
215.49945200000019
 20
54.85249202264999
 30
0.0
 11
215.49945200000019
 21
-47.426867977349957
 31
0.0
  0
LINE
  5
448F
  8
241
  6
CONTINUOUS
 10
215.5006088888608
 20
49.299999999999983
 30
0.0
 11
212.1018258888605
 21
49.299999999999983
 31
0.0
  0
LINE
  5
4490
  8
241
  6
CONTINUOUS
 10
211.86881588886069
 20
49.102742999999933
 30
0.0
 11
211.60060941306401
 21
47.499999999999972
 31
0.0
  0
LINE
  5
4491
  8
241
  6
CONTINUOUS
 10
201.1298120510545
 20
47.499999999999972
 30
0.0
 11
211.60060941306401
 21
47.499999999999972
 31
0.0
  0
LINE
  5
4492
  8
240
  6
CONTINUOUS
 10
201.1298120510541
 20
47.499999999999979
 30
0.0
 11
200.7978573557192
 21
47.1688976198446
 31
0.0
  0
LINE
  5
4493
  8
240
  6
CONTINUOUS
 10
200.78891681817279
 20
40.213622362840788
 30
0.0
 11
200.7978573557192
 21
47.1688976198446
 31
0.0
  0
LINE
  5
4494
  8
241
  6
CONTINUOUS
 10
211.86881588886069
 20
49.102742999999933
 30
0.0
 11
212.1018258888605
 21
49.299999999999983
 31
0.0
  0
LINE
  5
4495
  8
241
  6
CONTINUOUS
 10
219.4006088888606
 20
47.49999999999995
 30
0.0
 11
229.85060888886071
 21
47.499999999999972
 31
0.0
  0
LINE
  5
4496
  8
241
  6
CONTINUOUS
 10
219.40060888886069
 20
47.499999999999972
 30
0.0
 11
219.13240188886061
 21
49.102742999999933
 31
0.0
  0
LINE
  5
4497
  8
241
  6
CONTINUOUS
 10
215.5006088888608
 20
49.299999999999983
 30
0.0
 11
218.89939188886069
 21
49.299999999999983
 31
0.0
  0
LINE
  5
4498
  8
241
  6
CONTINUOUS
 10
218.89939188886069
 20
49.299999999999983
 30
0.0
 11
219.13240188886061
 21
49.102742999999933
 31
0.0
  0
LINE
  5
4499
  8
240
  6
CONTINUOUS
 10
229.85060888886071
 20
47.499999999999972
 30
0.0
 11
230.2006088888607
 21
47.149999999999977
 31
0.0
  0
LINE
  5
449A
  8
240
  6
CONTINUOUS
 10
230.2006088888607
 20
47.149999999999977
 30
0.0
 11
230.20060888886039
 21
37.129168182695913
 31
0.0
  0
LINE
  5
449B
  8
241
  6
CONTINUOUS
 10
211.86774817453039
 20
49.600000000000001
 30
0.0
 11
219.13225182546981
 21
49.600000000000001
 31
0.0
1001
GRPNAME
1000
PASTMD30
  0
LINE
  5
449C
  8
240
  6
CONTINUOUS
 10
201.00000000000011
 20
47.499999999999979
 30
0.0
 11
201.1298120510541
 21
47.499999999999979
 31
0.0
  0
ARC
  5
449D
  8
240
  6
CONTINUOUS
 10
204.0
 20
53.999999999999979
 30
0.0
 40
3.0
 50
90.0
 51
180.0
  0
LINE
  5
449E
  8
240
  6
CONTINUOUS
 10
201.00000000000011
 20
47.499999999999979
 30
0.0
 11
201.00000000000011
 21
53.999999999999979
 31
0.0
  0
LINE
  5
449F
  8
241
  6
CONTINUOUS
 10
211.68367130454081
 20
48.000000000000171
 30
0.0
 11
211.86774817453039
 21
49.100000000000001
 31
0.0
1001
GRPNAME
1000
PASTMD30
  0
LINE
  5
44A0
  8
241
  6
CONTINUOUS
 10
211.18367130454061
 20
47.499999999999979
 30
0.0
 11
211.6836713045407
 21
47.999999999999972
 31
0.0
1001
GRPNAME
1000
PASTMD30
  0
LINE
  5
44A1
  8
241
  6
CONTINUOUS
 10
211.86774817453039
 20
49.100000000000001
 30
0.0
 11
211.86774817453039
 21
49.600000000000001
 31
0.0
1001
GRPNAME
1000
PASTMD30
  0
LINE
  5
44A2
  8
240
  6
CONTINUOUS
 10
204.0
 20
56.999999999999972
 30
0.0
 11
208.5
 21
56.999999999999972
 31
0.0
  0
LINE
  5
44A3
  8
240
  6
CONTINUOUS
 10
211.50000000000011
 20
57.100000000000001
 30
0.0
 11
209.98469600000001
 21
56.693975000000002
 31
0.0
  0
LINE
  5
44A4
  8
241
  6
CONTINUOUS
 10
239.99945199999999
 20
59.579065999999898
 30
0.0
 11
239.49635200000009
 21
49.979357999999927
 31
0.0
  0
LINE
  5
44A5
  8
240
  6
CONTINUOUS
 10
228.39327700000001
 20
57.681175999999979
 30
0.0
 11
238.42440300000001
 21
59.449933999999942
 31
0.0
  0
CIRCLE
  5
44A6
  8
246
  6
PHANTOM2
 10
236.57725300000001
 20
54.94537799999997
 30
0.0
 40
3.174999999999998
  0
LINE
  5
44A7
  8
241
  6
CONTINUOUS
 10
230.85326300000011
 20
55.59224499999997
 30
0.0
 11
239.41840400000001
 21
59.956402999999931
 31
0.0
  0
LINE
  5
44A8
  8
240
  6
CONTINUOUS
 10
229.85060888886071
 20
47.499999999999972
 30
0.0
 11
237.34738400000001
 21
47.499999999999979
 31
0.0
  0
LINE
  5
44A9
  8
241
  6
CONTINUOUS
 10
230.81700400000011
 20
54.900374999999983
 30
0.0
 11
239.08241200000001
 21
49.5327559999999
 31
0.0
  0
LINE
  5
44AA
  8
240
  6
CONTINUOUS
 10
222.5
 20
56.999999999999972
 30
0.0
 11
228.00000000000011
 21
56.999999999999972
 31
0.0
  0
LINE
  5
44AB
  8
241
  6
CONTINUOUS
 10
219.8163286954593
 20
47.499999999999979
 30
0.0
 11
219.3163286954595
 21
47.999999999999972
 31
0.0
1001
GRPNAME
1000
PASTMD30
  0
LINE
  5
44AC
  8
241
  6
CONTINUOUS
 10
219.3163286954593
 20
48.000000000000171
 30
0.0
 11
219.13225182546981
 21
49.100000000000001
 31
0.0
1001
GRPNAME
1000
PASTMD30
  0
LINE
  5
44AD
  8
241
  6
CONTINUOUS
 10
219.13225182546981
 20
49.100000000000001
 30
0.0
 11
219.13225182546981
 21
49.600000000000001
 31
0.0
1001
GRPNAME
1000
PASTMD30
  0
LINE
  5
44AE
  8
240
  6
CONTINUOUS
 10
211.50000000000011
 20
57.100000000000001
 30
0.0
 11
219.50000000000011
 21
57.100000000000001
 31
0.0
  0
LINE
  5
44AF
  8
240
  6
CONTINUOUS
 10
219.50000000000011
 20
57.100000000000001
 30
0.0
 11
221.01530399999999
 21
56.693975000000002
 31
0.0
  0
LINE
  5
44B0
  8
241
  6
CONTINUOUS
 10
230.00000000000011
 20
47.499999999999979
 30
0.0
 11
230.00000000000011
 21
53.999999999999979
 31
0.0
  0
ARC
  5
44B1
  8
241
  6
CONTINUOUS
 10
227.0
 20
53.999999999999979
 30
0.0
 40
3.0
 50
0.0
 51
90.0
  0
LINE
  5
44B2
  8
240
  6
CONTINUOUS
 10
228.00000000000011
 20
56.999999999999972
 30
0.0
 11
228.39327700000001
 21
57.681175999999979
 31
0.0
  0
ARC
  5
44B3
  8
241
  6
CONTINUOUS
 10
231.03485900000001
 20
55.23584299999996
 30
0.0
 40
0.4
 50
117.0
 51
236.99999999999829
  0
ARC
  5
44B4
  8
241
  6
CONTINUOUS
 10
239.096901
 20
50.000291999999973
 30
0.0
 40
0.4
 50
236.99999999999829
 51
357.00000000000068
  0
LINE
  5
44B5
  8
240
  6
CONTINUOUS
 10
237.70093800000001
 20
47.646446999999931
 30
0.0
 11
238.91877500000001
 21
48.864283999999962
 31
0.0
  0
LINE
  5
44B6
  8
240
  6
CONTINUOUS
 10
239.08595899999989
 20
49.600441999999951
 30
0.0
 11
239.064536
 21
49.191668999999933
 31
0.0
  0
ARC
  5
44B7
  8
240
  6
CONTINUOUS
 10
238.56522099999989
 20
49.217836999999953
 30
0.0
 40
0.5
 50
315.0000000000004
 51
357.00000000000068
  0
ARC
  5
44B8
  8
240
  6
CONTINUOUS
 10
237.34738400000001
 20
47.999999999999972
 30
0.0
 40
0.5
 50
270.0
 51
315.0000000000004
  0
ARC
  5
44B9
  8
241
  6
CONTINUOUS
 10
239.59999999999999
 20
59.600000000000001
 30
0.0
 40
0.4
 50
357.00000000000068
 51
117.0
  0
LINE
  5
44BA
  8
240
  6
CONTINUOUS
 10
221.01530399999999
 20
56.693975000000002
 30
0.0
 11
221.38647800000001
 21
56.763674999999999
 31
0.0
  0
LINE
  5
44BB
  8
240
  6
CONTINUOUS
 10
221.38647800000001
 20
56.763674999999999
 30
0.0
 11
221.75765200000001
 21
56.837911999999918
 31
0.0
  0
LINE
  5
44BC
  8
240
  6
CONTINUOUS
 10
221.75765200000001
 20
56.837911999999918
 30
0.0
 11
222.128826
 21
56.916686999999961
 31
0.0
  0
LINE
  5
44BD
  8
240
  6
CONTINUOUS
 10
222.128826
 20
56.916686999999961
 30
0.0
 11
222.5
 21
56.999999999999972
 31
0.0
  0
LINE
  5
44BE
  8
240
  6
CONTINUOUS
 10
208.5
 20
56.999999999999972
 30
0.0
 11
208.871174
 21
56.916686999999961
 31
0.0
  0
LINE
  5
44BF
  8
240
  6
CONTINUOUS
 10
208.871174
 20
56.916686999999961
 30
0.0
 11
209.24234799999999
 21
56.837911999999918
 31
0.0
  0
LINE
  5
44C0
  8
240
  6
CONTINUOUS
 10
209.24234799999999
 20
56.837911999999918
 30
0.0
 11
209.61352199999999
 21
56.763674999999999
 31
0.0
  0
LINE
  5
44C1
  8
240
  6
CONTINUOUS
 10
209.61352199999999
 20
56.763674999999999
 30
0.0
 11
209.98469600000001
 21
56.693975000000002
 31
0.0
  0
LINE
  5
44C2
  8
241
  6
CONTINUOUS
 10
209.98469600000001
 20
56.693975000000002
 30
0.0
 11
212.74234799999999
 21
56.318243999999972
 31
0.0
  0
LINE
  5
44C3
  8
241
  6
CONTINUOUS
 10
212.74234799999999
 20
56.318243999999972
 30
0.0
 11
215.50000000000011
 21
56.192999999999991
 31
0.0
  0
LINE
  5
44C4
  8
241
  6
CONTINUOUS
 10
215.50000000000011
 20
56.192999999999991
 30
0.0
 11
218.25765200000001
 21
56.318243999999972
 31
0.0
  0
LINE
  5
44C5
  8
241
  6
CONTINUOUS
 10
218.25765200000001
 20
56.318243999999972
 30
0.0
 11
221.01530399999999
 21
56.693975000000002
 31
0.0
  0
LINE
  5
44C7
  8
241
 10
232.8753568584689
 20
-41.400000453049969
 30
0.0
 11
198.12461733809999
 21
-41.400000453049991
 31
0.0
  0
LINE
  5
44C9
  8
241
 10
240.0
 20
60.0
 30
0.0
 11
236.9007245361818
 21
60.0
 31
0.0
  0
LINE
  5
44CA
  8
241
 10
240.0
 20
60.0
 30
0.0
 11
240.0
 21
57.120333396110631
 31
0.0
  0
LINE
  5
4550
  8
240
  6
CONTINUOUS
 10
230.20060888886039
 20
37.129168182695913
 30
0.0
 11
236.20000481599999
 21
36.50000132615002
 31
0.0
  0
LINE
  5
4551
  8
241
 10
200.78891681817279
 20
40.213622362840781
 30
0.0
 11
230.20060888886039
 21
37.129168182695899
 31
0.0
  0
LINE
  5
4603
  8
250
  6
CONTINUOUS
 10
240.5
 20
60.0
 30
0.0
 11
260.0
 21
60.0
 31
0.0
  0
LINE
  5
4604
  8
250
  6
CONTINUOUS
 10
259.0
 20
57.77000000000001
 30
0.0
 11
259.0
 21
-14.6
 31
0.0
  0
LINE
  5
4607
  8
250
  6
CONTINUOUS
 10
0.0
 20
45.49999992545002
 30
0.0
 11
0.0000000000000016
 21
71.0
 31
0.0
  0
LINE
  5
4608
  8
250
  6
CONTINUOUS
 10
240.0
 20
60.5
 30
0.0
 11
240.0
 21
71.0
 31
0.0
  0
LINE
  5
4609
  8
250
  6
CONTINUOUS
 10
2.23
 20
70.0
 30
0.0
 11
237.77000000000001
 21
70.0
 31
0.0
  0
TEXT
  5
460D
  8
250
  6
CONTINUOUS
 10
116.0
 20
71.000000000000014
 30
0.0
 40
2.799999999999998
  1
240
  0
LINE
  5
460E
  8
250
  6
CONTINUOUS
 10
237.77000000000001
 20
70.37166666666667
 30
0.0
 11
240.0
 21
70.0
 31
0.0
  0
LINE
  5
460F
  8
250
  6
CONTINUOUS
 10
237.77000000000001
 20
69.62833333333333
 30
0.0
 11
240.0
 21
70.0
 31
0.0
  0
LINE
  5
4610
  8
250
  6
CONTINUOUS
 10
240.0
 20
70.0
 30
0.0
 11
237.77000000000001
 21
70.0
 31
0.0
  0
LINE
  5
4611
  8
250
  6
CONTINUOUS
 10
2.23
 20
69.62833333333333
 30
0.0
 11
0.0000000000000015
 21
70.0
 31
0.0
  0
LINE
  5
4612
  8
250
  6
CONTINUOUS
 10
2.23
 20
70.37166666666667
 30
0.0
 11
0.0000000000000015
 21
70.0
 31
0.0
  0
LINE
  5
4613
  8
250
  6
CONTINUOUS
 10
0.0000000000000015
 20
70.0
 30
0.0
 11
2.23
 21
70.0
 31
0.0
  0
TEXT
  5
4614
  8
250
  6
CONTINUOUS
 10
256.80000000000001
 20
-14.13333333333329
 30
0.0
 40
2.799999999999998
  1
(\U+2205100~\U+2205153)
 50
90.0
  0
LINE
  5
4615
  8
250
  6
CONTINUOUS
 10
258.62833333333327
 20
57.77000000000001
 30
0.0
 11
259.0
 21
60.0
 31
0.0
  0
LINE
  5
4616
  8
250
  6
CONTINUOUS
 10
259.37166666666678
 20
57.77000000000001
 30
0.0
 11
259.0
 21
60.0
 31
0.0
  0
LINE
  5
4617
  8
250
  6
CONTINUOUS
 10
259.0
 20
60.0
 30
0.0
 11
259.0
 21
57.77000000000001
 31
0.0
  0
LINE
  5
4649
  8
240
  6
CONTINUOUS
 10
-50.0
 20
22.999999999999989
 30
0.0
 11
-21.001751444115531
 21
23.00000000000006
 31
0.0
  0
LINE
  5
464A
  8
240
  6
CONTINUOUS
 10
-50.0
 20
-23.000000000000021
 30
0.0
 11
-21.00175144411557
 21
-22.99999999999994
 31
0.0
  0
LINE
  5
464B
  8
240
  6
CONTINUOUS
 10
-50.0
 20
-23.000000000000021
 30
0.0
 11
-50.0
 21
22.999999999999979
 31
0.0
  0
LINE
  5
464C
  8
240
  6
CONTINUOUS
 10
-2.998249555884493
 20
-22.99999999999994
 30
0.0
 11
-5.885000111028825
 21
-28.0
 31
0.0
  0
LINE
  5
464D
  8
240
  6
CONTINUOUS
 10
-21.00175144411557
 20
-22.99999999999994
 30
0.0
 11
-18.11500088897116
 21
-28.0
 31
0.0
  0
LINE
  5
464E
  8
240
  6
CONTINUOUS
 10
-18.11500088897116
 20
-28.0
 30
0.0
 11
-5.885000111028825
 21
-28.0
 31
0.0
  0
LINE
  5
464F
  8
245
  6
CENTER2
 10
-19.0
 20
14.15068100000002
 30
0.0
 11
-19.0
 21
-14.014123999999979
 31
0.0
  0
CIRCLE
  5
4650
  8
241
  6
CONTINUOUS
 10
-19.0
 20
0.0
 30
0.0
 40
10.124999999999989
  0
CIRCLE
  5
4651
  8
241
  6
CONTINUOUS
 10
-19.0
 20
0.0
 30
0.0
 40
7.5
  0
LINE
  5
4652
  8
241
  6
CONTINUOUS
 10
-21.00175144411557
 20
-22.99999999999994
 30
0.0
 11
-2.998249555884493
 21
-22.99999999999994
 31
0.0
  0
LINE
  5
4653
  8
240
  6
CONTINUOUS
 10
-2.998249555884493
 20
-22.99999999999994
 30
0.0
 11
0.0
 21
-23.0
 31
0.0
  0
LINE
  5
4654
  8
240
  6
CONTINUOUS
 10
-18.115000888971132
 20
28.0
 30
0.0
 11
-5.8850001110288321
 21
28.0
 31
0.0
  0
LINE
  5
4655
  8
241
  6
CONTINUOUS
 10
-21.001751444115531
 20
23.00000000000006
 30
0.0
 11
-2.998249555884521
 21
23.00000000000006
 31
0.0
  0
LINE
  5
4656
  8
240
  6
CONTINUOUS
 10
-21.001751444115531
 20
23.00000000000006
 30
0.0
 11
-18.115000888971132
 21
28.0
 31
0.0
  0
LINE
  5
4657
  8
240
  6
CONTINUOUS
 10
-2.998249555884521
 20
23.00000000000006
 30
0.0
 11
0.0
 21
23.0
 31
0.0
  0
LINE
  5
4658
  8
240
  6
CONTINUOUS
 10
-2.998249555884521
 20
23.00000000000006
 30
0.0
 11
-5.8850001110288321
 21
28.0
 31
0.0
  0
TEXT
  5
4659
  8
241
  6
CONTINUOUS
 10
-49.0
 20
84.0
 30
0.0
 40
4.0
  1
CKB7-EWN100DP-240
  7
YOKO
  0
LINE
  5
465A
  8
250
  6
CONTINUOUS
 10
-48.090043242195179
 20
-43.290872001943569
 30
0.0
 11
-37.823376575528528
 21
-43.290872001943569
 31
0.0
  0
LINE
  5
465B
  8
250
  6
CONTINUOUS
 10
-37.823376575528528
 20
-43.290872001943569
 30
0.0
 11
-30.288163381768602
 21
-25.06088606198438
 31
0.0
  0
LINE
  5
465C
  8
250
  6
CONTINUOUS
 10
-30.288163381768602
 20
-25.060886061984391
 30
0.0
 11
-29.43631325438799
 21
-22.999999999999972
 31
0.0
  0
LINE
  5
465D
  8
250
  6
CONTINUOUS
 10
-30.01684258567586
 20
-25.17303425832381
 30
0.0
 11
-29.43631325438799
 21
-22.999999999999972
 31
0.0
  0
LINE
  5
465E
  8
250
  6
CONTINUOUS
 10
-29.43631325438799
 20
-22.999999999999972
 30
0.0
 11
-30.55948417786135
 21
-24.948737865644961
 31
0.0
  0
TEXT
  5
465F
  8
250
  6
CONTINUOUS
 10
-48.490043242195171
 20
-41.890872001943563
 30
0.0
 40
2.799999999999998
  1
CK7
  7
YOKO
  0
LINE
  5
4660
  8
247
  6
CONTINUOUS
 10
7.9999999999995071
 20
-34.250000000070393
 30
0.0
 11
7.9999999999995079
 21
-27.55769230803039
 31
0.0
  0
ARC
  5
4661
  8
247
  6
CONTINUOUS
 10
6.2500000000695071
 20
-34.250000000070393
 30
0.0
 40
1.7499999999299991
 50
180.0
 51
0.0
  0
ARC
  5
4662
  8
247
  6
CONTINUOUS
 10
6.2500000000695071
 20
-27.55769230803039
 30
0.0
 40
1.7499999999299991
 50
0.0
 51
180.0
  0
LINE
  5
4663
  8
247
  6
CONTINUOUS
 10
4.5000000001395071
 20
-33.384615384720391
 30
0.0
 11
7.5000000000195071
 21
-34.244851541962397
 31
0.0
  0
LINE
  5
4664
  8
247
  6
CONTINUOUS
 10
5.9230769231595071
 20
-32.484983818336218
 30
0.0
 11
5.9230769231595071
 21
-33.792676125976207
 31
0.0
  0
ARC
  5
4665
  8
247
  6
CONTINUOUS
 10
5.0495986677024831
 20
-32.145143816090183
 30
0.0
 40
0.5538165441895349
 50
72.997889675291589
 51
172.92416621851231
  0
ARC
  5
4666
  8
247
  6
CONTINUOUS
 10
4.936033044465284
 20
-32.566878323029179
 30
0.0
 40
0.9904354236226808
 50
4.7429368522014004
 51
73.849226273267618
1001
GENIUS_GENOBJ-N-FIL_13
1002
{
1000
OWNER
1000
GEN
1002
}
1001
GENIUS_GENODEF_13
1002
{
1000
HIER
1070
     0
1002
}
1002
{
1000
MANEDIT
1070
     0
1002
}
1002
{
1000
NOSEL
1070
     0
1002
}
1002
{
1000
BEHIND
1070
     0
1002
}
1002
{
1000
OTHER
1070
     0
1002
}
1002
{
1000
REACTOR
1002
}
  0
LINE
  5
4667
  8
247
  6
CONTINUOUS
 10
7.5000000000195071
 20
-32.937159234322401
 30
0.0
 11
7.5000000000195071
 21
-34.244851541962397
 31
0.0
  0
LINE
  5
4668
  8
247
  6
CONTINUOUS
 10
4.5000000001395071
 20
-33.384615384720391
 30
0.0
 11
4.5000000001395106
 21
-32.076923077080401
 31
0.0
  0
ARC
  5
4669
  8
247
  6
CONTINUOUS
 10
6.4820242326650641
 20
-32.560919636547361
 30
0.0
 40
0.5640818586791229
 50
65.990941652530523
 51
172.26344345906949
  0
ARC
  5
466A
  8
247
  6
CONTINUOUS
 10
6.4874290391861011
 20
-33.038262685347469
 30
0.0
 40
1.0176059446230981
 50
5.701985164258133
 51
77.277338436820912
1001
GENIUS_GENOBJ-N-FIL_13
1002
{
1000
OWNER
1000
GEN
1002
}
1001
GENIUS_GENODEF_13
1002
{
1000
HIER
1070
     0
1002
}
1002
{
1000
MANEDIT
1070
     0
1002
}
1002
{
1000
NOSEL
1070
     0
1002
}
1002
{
1000
BEHIND
1070
     0
1002
}
1002
{
1000
OTHER
1070
     0
1002
}
1002
{
1000
REACTOR
1002
}
  0
LINE
  5
466B
  8
247
  6
CONTINUOUS
 10
7.5000000000195071
 20
-31.283313080542399
 30
0.0
 11
4.5000000001395106
 21
-30.4230769233004
 31
0.0
  0
LINE
  5
466C
  8
247
  6
CONTINUOUS
 10
4.5000000001395106
 20
-28.000000000320391
 30
0.0
 11
4.5000000001395106
 21
-28.565736619456992
 31
0.0
  0
LINE
  5
466D
  8
247
  6
CONTINUOUS
 10
7.5000000000195071
 20
-29.461538461800391
 30
0.0
 11
7.5000000000195071
 21
-28.846153846440391
 31
0.0
  0
ARC
  5
466E
  8
247
  6
CONTINUOUS
 10
6.5832851359728943
 20
-27.708791209123252
 30
0.0
 40
2.2526500823422122
 50
202.3594881415267
 51
254.9932485428466
  0
ARC
  5
466F
  8
247
  6
CONTINUOUS
 10
5.3083126551940252
 20
-28.37406947921362
 30
0.0
 40
0.8906723995727782
 50
94.994589319075104
 51
155.16632895730359
1001
GENIUS_GENOBJ-N-FIL_13
1002
{
1000
OWNER
1000
GEN
1002
}
1001
GENIUS_GENODEF_13
1002
{
1000
HIER
1070
     0
1002
}
1002
{
1000
MANEDIT
1070
     0
1002
}
1002
{
1000
NOSEL
1070
     0
1002
}
1002
{
1000
BEHIND
1070
     0
1002
}
1002
{
1000
OTHER
1070
     0
1002
}
1002
{
1000
REACTOR
1002
}
  0
ARC
  5
4670
  8
247
  6
CONTINUOUS
 10
6.1601458886672651
 20
-29.226458886212981
 30
0.0
 40
1.392781735586712
 50
15.84609655577942
 51
82.325137004170557
  0
ARC
  5
4671
  8
247
  6
CONTINUOUS
 10
6.4592434315267964
 20
-28.642212725840771
 30
0.0
 40
1.324563662670287
 50
249.71360167049801
 51
321.78874565640751
1001
GENIUS_GENOBJ-N-FIL_13
1002
{
1000
OWNER
1000
GEN
1002
}
1001
GENIUS_GENODEF_13
1002
{
1000
HIER
1070
     0
1002
}
1002
{
1000
MANEDIT
1070
     0
1002
}
1002
{
1000
NOSEL
1070
     0
1002
}
1002
{
1000
BEHIND
1070
     0
1002
}
1002
{
1000
OTHER
1070
     0
1002
}
1002
{
1000
REACTOR
1002
}
  0
LINE
  5
4672
  8
247
  6
CONTINUOUS
 10
6.3461538462195106
 20
-28.538461538760391
 30
0.0
 11
6.3461538462195106
 21
-27.846153846480391
 31
0.0
  0
LINE
  5
4673
  8
247
  6
CONTINUOUS
 10
4.5000000001395106
 20
-34.250000000070393
 30
0.0
 11
4.5000000001395106
 21
-33.576923077020389
 31
0.0
  0
VIEWPORT
  5
22
 67
     1
  8
0
 10
261.51769911504419
 20
148.5
 30
0.0
 40
523.0353982300885
 41
297.0
 68
     1
 69
     1
1001
ACAD
1000
MVIEW
1002
{
1070
    16
1010
0.0
1020
0.0
1030
0.0
1010
0.0
1020
0.0
1030
1.0
1040
0.0
1040
297.0
1040
261.51769911504419
1040
148.5
1040
50.0
1040
0.0
1040
0.0
1070
     0
1070
   100
1070
     1
1070
     1
1070
     0
1070
     0
1070
     0
1070
     0
1040
0.0
1040
0.0
1040
0.0
1040
1.0
1040
1.0
1040
10.0
1040
10.0
1070
     0
1002
{
1002
}
1002
}
1001
GENIUS_GENODEF_13
1002
{
1000
HIER
1070
     0
1002
}
1002
{
1000
MANEDIT
1070
     0
1002
}
1002
{
1000
NOSEL
1070
     0
1002
}
1002
{
1000
BEHIND
1070
     0
1002
}
1002
{
1000
OTHER
1070
     0
1002
}
1002
{
1000
REACTOR
1002
}
1001
GENIUS_GENOBJ-N-SDF_13
1002
{
1000
OWNER
1000
GEN
1002
}
1001
GENIUS_GENSCREG_15
1000
PF
1040
1.0
1000
DF
1040
1.0
1000
MIN
1011
0.0
1021
0.0
1031
0.0
1021
0.0
1031
0.0
1000
MAX
1011
523.0353982300885
1021
0.0
1031
0.0
1021
297.0
1031
0.0
1000
FLAGS
1070
     4
  0
ENDSEC
  0
EOF
