  0
SECTION
  2
HEADER
  9
$ACADVER
  1
AC1009
  9
$INSBASE
 10
0.0
 20
0.0
 30
0.0
  9
$EXTMIN
 10
-43.1291873500000023
 20
-32.0000000000000071
 30
0.0
  9
$EXTMAX
 10
196.5
 20
68.0000000000000568
 30
0.0
  9
$LIMMIN
 10
0.0
 20
0.0
  9
$LIMMAX
 10
297.0
 20
210.0
  9
$ORTHOMODE
 70
     0
  9
$REGENMODE
 70
     1
  9
$FILLMODE
 70
     1
  9
$QTEXTMODE
 70
     0
  9
$MIRRTEXT
 70
     1
  9
$DRAGMODE
 70
     2
  9
$LTSCALE
 40
10.0
  9
$OSMODE
 70
   807
  9
$ATTMODE
 70
     1
  9
$TEXTSIZE
 40
3.0
  9
$TRACEWID
 40
1.0
  9
$TEXTSTYLE
  7
YOKO
  9
$CLAYER
  8
240
  9
$CELTYPE
  6
BYLAYER
  9
$CECOLOR
 62
   256
  9
$DIMSCALE
 40
1.0
  9
$DIMASZ
 40
2.2299999999999991
  9
$DIMEXO
 40
0.5
  9
$DIMDLI
 40
7.0
  9
$DIMRND
 40
0.0
  9
$DIMDLE
 40
0.0
  9
$DIMEXE
 40
1.0
  9
$DIMTP
 40
0.0
  9
$DIMTM
 40
0.01
  9
$DIMTXT
 40
2.799999999999998
  9
$DIMCEN
 40
0.0
  9
$DIMTSZ
 40
0.0
  9
$DIMTOL
 70
     0
  9
$DIMLIM
 70
     0
  9
$DIMTIH
 70
     0
  9
$DIMTOH
 70
     0
  9
$DIMSE1
 70
     0
  9
$DIMSE2
 70
     0
  9
$DIMTAD
 70
     3
  9
$DIMZIN
 70
     9
  9
$DIMBLK
  1
OPEN
  9
$DIMASO
 70
     1
  9
$DIMSHO
 70
     1
  9
$DIMPOST
  1

  9
$DIMAPOST
  1

  9
$DIMALT
 70
     0
  9
$DIMALTD
 70
     2
  9
$DIMALTF
 40
25.3999999999999986
  9
$DIMLFAC
 40
1.0
  9
$DIMTOFL
 70
     1
  9
$DIMTVP
 40
0.0
  9
$DIMTIX
 70
     1
  9
$DIMSOXD
 70
     0
  9
$DIMSAH
 70
     0
  9
$DIMBLK1
  1

  9
$DIMBLK2
  1

  9
$DIMSTYLE
  2
BIGT
  9
$DIMCLRD
 70
   256
  9
$DIMCLRE
 70
   256
  9
$DIMCLRT
 70
    40
  9
$DIMTFAC
 40
1.0
  9
$DIMGAP
 40
1.0
  9
$LUNITS
 70
     2
  9
$LUPREC
 70
     6
  9
$SKETCHINC
 40
1.0
  9
$FILLETRAD
 40
0.0
  9
$AUNITS
 70
     0
  9
$AUPREC
 70
     6
  9
$MENU
  1
.
  9
$ELEVATION
 40
0.0
  9
$PELEVATION
 40
0.0
  9
$THICKNESS
 40
0.0
  9
$LIMCHECK
 70
     0
  9
$BLIPMODE
 70
     0
  9
$CHAMFERA
 40
0.2
  9
$CHAMFERB
 40
0.2
  9
$SKPOLY
 70
     0
  9
$TDCREATE
 40
2457820.5750810191966593
  9
$TDUPDATE
 40
2458292.6432175929658115
  9
$TDINDWG
 40
0.0122809954
  9
$TDUSRTIMER
 40
0.0122809722
  9
$USRTIMER
 70
     1
  9
$ANGBASE
 50
0.0
  9
$ANGDIR
 70
     0
  9
$PDMODE
 70
     1
  9
$PDSIZE
 40
0.0
  9
$PLINEWID
 40
0.0
  9
$COORDS
 70
     1
  9
$SPLFRAME
 70
     0
  9
$SPLINETYPE
 70
     6
  9
$SPLINESEGS
 70
     4
  9
$ATTDIA
 70
     1
  9
$ATTREQ
 70
     1
  9
$HANDLING
 70
     1
  9
$HANDSEED
  5
46B8
  9
$SURFTAB1
 70
     6
  9
$SURFTAB2
 70
     6
  9
$SURFTYPE
 70
     6
  9
$SURFU
 70
     6
  9
$SURFV
 70
     6
  9
$UCSNAME
  2

  9
$UCSORG
 10
0.0
 20
0.0
 30
0.0
  9
$UCSXDIR
 10
1.0
 20
0.0
 30
0.0
  9
$UCSYDIR
 10
0.0
 20
1.0
 30
0.0
  9
$PUCSNAME
  2

  9
$PUCSORG
 10
0.0
 20
0.0
 30
0.0
  9
$PUCSXDIR
 10
1.0
 20
0.0
 30
0.0
  9
$PUCSYDIR
 10
0.0
 20
1.0
 30
0.0
  9
$USERI1
 70
     1
  9
$USERI2
 70
     0
  9
$USERI3
 70
     0
  9
$USERI4
 70
     0
  9
$USERI5
 70
     0
  9
$USERR1
 40
0.0
  9
$USERR2
 40
0.0
  9
$USERR3
 40
0.0
  9
$USERR4
 40
0.0
  9
$USERR5
 40
0.0
  9
$WORLDVIEW
 70
     1
  9
$SHADEDGE
 70
     3
  9
$SHADEDIF
 70
    70
  9
$TILEMODE
 70
     1
  9
$MAXACTVP
 70
    16
  9
$PLIMCHECK
 70
     0
  9
$PEXTMIN
 10
1.0000000000000000E+20
 20
1.0000000000000000E+20
 30
1.0000000000000000E+20
  9
$PEXTMAX
 10
-1.0000000000000000E+20
 20
-1.0000000000000000E+20
 30
-1.0000000000000000E+20
  9
$PLIMMIN
 10
0.0
 20
0.0
  9
$PLIMMAX
 10
420.0
 20
297.0
  9
$UNITMODE
 70
     0
  9
$VISRETAIN
 70
     1
  9
$PLINEGEN
 70
     0
  9
$PSLTSCALE
 70
     1
  0
ENDSEC
  0
SECTION
  2
TABLES
  0
TABLE
  2
VPORT
 70
     1
  0
VPORT
  2
*ACTIVE
 70
     0
 10
0.0
 20
0.0
 11
1.0
 21
1.0
 12
71.4230819123324352
 22
22.1136137828802397
 13
0.0
 23
0.0
 14
7.0
 24
7.0
 15
7.0
 25
7.0
 16
0.0
 26
0.0
 36
1.0
 17
0.0
 27
0.0
 37
0.0
 40
181.3703218402393986
 41
1.887387387387387
 42
50.0
 43
0.0
 44
0.0
 50
0.0
 51
0.0
 71
     0
 72
  2000
 73
     1
 74
     0
 75
     0
 76
     1
 77
     0
 78
     0
  0
ENDTAB
  0
TABLE
  2
LTYPE
 70
    20
  0
LTYPE
  2
CONTINUOUS
 70
     0
  3
Solid line
 72
    65
 73
     0
 40
0.0
  0
LTYPE
  2
CENTER2
 70
     0
  3
___ _ ___ _ ___ _ ___ _ ___ _ ___ _ ___ _ ___ _
 72
    65
 73
     4
 40
1.125
 49
0.75
 49
-0.125
 49
0.125
 49
-0.125
  0
LTYPE
  2
HIDDEN2
 70
     0
  3
_ _ _ _ _ _ _ _ _ _ _ _ _ _ _ _ _ _ _ _ _ _ _ _
 72
    65
 73
     2
 40
0.1875
 49
0.125
 49
-0.0625
  0
LTYPE
  2
AMCONSTR
 70
     0
  3
_______________________
 72
    65
 73
     2
 40
9999.0
 49
9999.0
 49
0.0
  0
LTYPE
  2
HIDDEN
 70
     0
  3
Hidden __ __ __ __ __ __ __ __ __ __ __ __ __ _
 72
    65
 73
     2
 40
0.375
 49
0.25
 49
-0.125
  0
LTYPE
  2
PHANTOM2
 70
     0
  3
Phantom (.5x) ___ _ _ ___ _ _ ___ _ _ ___ _ _
 72
    65
 73
     6
 40
1.25
 49
0.625
 49
-0.125
 49
0.125
 49
-0.125
 49
0.125
 49
-0.125
  0
LTYPE
  2
CENTER
 70
     0
  3
Center ____ _ ____ _ ____ _ ____ _ ____ _ ____
 72
    65
 73
     4
 40
2.0
 49
1.25
 49
-0.25
 49
0.25
 49
-0.25
  0
LTYPE
  2
AMZIGZAG2
 70
     0
  3
/\/-/\/-/\/-/\/-/\/-/\/
 72
    65
 73
     2
 40
0.4401
 49
0.0001
 49
-0.4400000000000001
  0
LTYPE
  2
ACANSTGB
 70
     0
  3
__ . . __ . .
 72
    65
 73
     6
 40
0.35433070866
 49
0.15748031496
 49
-0.03937007874
 49
0.03937007874
 49
-0.03937007874
 49
0.03937007874
 49
-0.03937007874
  0
LTYPE
  2
ACANSTGL
 70
     0
  3
_ _ _ _ _
 72
    65
 73
     2
 40
0.11811023622
 49
0.07874015748
 49
-0.03937007874
  0
ENDTAB
  0
TABLE
  2
LAYER
 70
     9
  0
LAYER
  2
0
 70
     0
 62
     7
  6
CONTINUOUS
  0
LAYER
  2
240
 70
     0
 62
     4
  6
CONTINUOUS
  0
LAYER
  2
DEFPOINTS
 70
     0
 62
     7
  6
CONTINUOUS
  0
LAYER
  2
245
 70
     0
 62
     2
  6
CENTER2
  0
LAYER
  2
241
 70
     0
 62
   211
  6
CONTINUOUS
  0
LAYER
  2
242
 70
     0
 62
     3
  6
CONTINUOUS
  0
LAYER
  2
243
 70
     0
 62
   211
  6
HIDDEN2
  0
LAYER
  2
250
 70
     0
 62
     3
  6
CONTINUOUS
  0
LAYER
  2
247
 70
     0
 62
    60
  6
CONTINUOUS
  0
ENDTAB
  0
TABLE
  2
STYLE
 70
     7
  0
STYLE
  2
STANDARD
 70
     0
 40
0.0
 41
1.0
 50
0.0
 71
     0
 42
3.0
  3
romans.shx
  4
extfont.shx
  0
STYLE
  2
YOKO
 70
     0
 40
0.0
 41
1.0
 50
0.0
 71
     0
 42
3.0
  3
romans.shx
  4
extfont.shx
  0
STYLE
  2

 70
     1
 40
0.0
 41
1.0
 50
0.0
 71
     0
 42
3.0
  3
genltshp.shx
  4

  0
STYLE
  2
ACANSGDT
 70
     0
 40
0.0
 41
1.0
 50
0.0
 71
     0
 42
3.0
  3
amgdt.shx
  4

  0
ENDTAB
  0
TABLE
  2
VIEW
 70
     0
  0
ENDTAB
  0
TABLE
  2
UCS
 70
     0
  0
ENDTAB
  0
TABLE
  2
APPID
 70
    42
  0
APPID
  2
ACAD
 70
     0
  0
APPID
  2
ACADANNOTATIVE
 70
     0
  0
APPID
  2
GLOBAL
 70
     0
  0
APPID
  2
DETAIL
 70
     0
  0
APPID
  2
GRPNAME
 70
     0
  0
APPID
  2
GPARA
 70
     0
  0
APPID
  2
MCAD_NO_VIS
 70
     0
  0
APPID
  2
ACAD_TEMP_GRAPHIC
 70
     0
  0
APPID
  2
ACATTRIBSERVICES
 70
     0
  0
APPID
  2
GENIUS_GENSCREG_15
 70
     0
  0
APPID
  2
GENIUS_GENODEF_13
 70
     0
  0
APPID
  2
GENIUS_GENOBJ-N-SDF_13
 70
     0
  0
APPID
  2
GENIUS_GENREC_14
 70
     0
  0
APPID
  2
GENIUS_GENOBJ-N-REC_13
 70
     0
  0
APPID
  2
GENIUS_GENDIMSH_14
 70
     0
  0
APPID
  2
GENIUS_GENOBJ-N-DIM_13
 70
     0
  0
APPID
  2
GENIUS_GENDIM_13
 70
     0
  0
APPID
  2
GENIUS_GENDTOL_13
 70
     0
  0
APPID
  2
GENIUS_GENOLIS_13
 70
     0
  0
APPID
  2
GENIUS_GENOENT_13
 70
     0
  0
APPID
  2
GENIUS_GENOBJ-F-FEM_13
 70
     0
  0
APPID
  2
GENIUS_GENOREF_13
 70
     0
  0
APPID
  2
GENIUS_GEFFEM_13
 70
     0
  0
APPID
  2
GENIUS_GEFFEMP_13
 70
     0
  0
APPID
  2
AD_DRAW
 70
     0
  0
APPID
  2
DESIGNERASSEMBLIES
 70
     0
  0
APPID
  2
ACADM_DIM_EDIT
 70
     0
  0
APPID
  2
AMDT_DM_ADJ
 70
     0
  0
APPID
  2
ITEMNAME
 70
     0
  0
APPID
  2
GENIUS_GENOBJ-N-FIL_13
 70
     0
  0
APPID
  2
GENIUS_GENFIL_13
 70
     0
  0
APPID
  2
GENIUS_GENOBJ-N-CHA_13
 70
     0
  0
APPID
  2
ACAECLAYERSTANDARD
 70
     0
  0
APPID
  2
ACAD_NAV_VCDISPLAY
 70
     0
  0
APPID
  2
ACAD_DSTYLE_DIMJAG
 70
     0
  0
APPID
  2
ACAD_DSTYLE_DIMBREAK
 70
     0
  0
APPID
  2
ACAD_EXEMPT_FROM_CAD_STANDARDS
 70
     0
  0
APPID
  2
ACAD_MLEADERVER
 70
     0
  0
APPID
  2
ACAD_DSTYLE_DIMARC_LENGTH_
 70
     0
  0
APPID
  2
ACAD_DSTYLE_DIM_LINETYPE
 70
     0
  0
APPID
  2
ACAD_DSTYLE_DIM_EXT1_LINETYPE
 70
     0
  0
APPID
  2
ACAD_DSTYLE_DIM_EXT2_LINETYPE
 70
     0
  0
ENDTAB
  0
TABLE
  2
DIMSTYLE
 70
    16
  0
DIMSTYLE
  2
STANDARD
 70
     0
  3

  4

  5

  6

  7

 40
1.0
 41
0.18
 42
0.0625
 43
0.38
 44
0.18
 45
0.0
 46
0.0
 47
0.0
 48
0.0
140
0.18
141
0.09
142
0.0
143
25.3999999999999986
144
1.0
145
0.0
146
1.0
147
0.09
 71
     0
 72
     0
 73
     1
 74
     1
 75
     0
 76
     0
 77
     0
 78
     0
170
     0
171
     2
172
     0
173
     0
174
     0
175
     0
176
     0
177
     0
178
     0
  0
DIMSTYLE
  2
BIGT
 70
     0
  3

  4

  5

  6

  7

 40
1.0
 41
2.2299999999999991
 42
0.5
 43
7.0
 44
1.0
 45
0.0
 46
0.0
 47
0.0
 48
0.01
140
2.799999999999998
141
0.0
142
0.0
143
25.3999999999999986
144
1.0
145
0.0
146
1.0
147
1.0
 71
     0
 72
     0
 73
     0
 74
     0
 75
     0
 76
     0
 77
     3
 78
     9
170
     0
171
     2
172
     1
173
     0
174
     1
175
     0
176
   256
177
   256
178
    40
  0
DIMSTYLE
  2
AM_ANSI
 70
     0
  3

  4
mm
  5

  6

  7

 40
1.0
 41
0.12
 42
0.05
 43
0.5
 44
0.1
 45
0.0
 46
0.0
 47
0.1
 48
0.1
140
0.12
141
0.0
142
0.0
143
25.3999999999999986
144
1.0
145
0.0
146
0.71
147
0.06
 71
     0
 72
     0
 73
     1
 74
     1
 75
     0
 76
     0
 77
     0
 78
     7
170
     0
171
     2
172
     0
173
     0
174
     0
175
     0
176
   256
177
   256
178
     2
  0
DIMSTYLE
  2
AM_ANSI$3
 70
     0
  3

  4
mm
  5

  6

  7

 40
1.0
 41
0.12
 42
0.05
 43
0.5
 44
0.1
 45
0.0
 46
0.0
 47
0.1
 48
0.1
140
0.12
141
0.0
142
0.0
143
25.3999999999999986
144
1.0
145
0.0
146
0.71
147
0.06
 71
     0
 72
     0
 73
     1
 74
     1
 75
     0
 76
     0
 77
     0
 78
     7
170
     0
171
     2
172
     0
173
     0
174
     0
175
     0
176
   256
177
   256
178
     2
  0
DIMSTYLE
  2
AM_ANSI$4
 70
     0
  3

  4
mm
  5

  6

  7

 40
1.0
 41
0.12
 42
0.05
 43
0.5
 44
0.1
 45
0.0
 46
0.0
 47
0.1
 48
0.1
140
0.12
141
0.0
142
0.0
143
25.3999999999999986
144
1.0
145
0.0
146
0.71
147
0.06
 71
     0
 72
     0
 73
     1
 74
     1
 75
     0
 76
     0
 77
     0
 78
     7
170
     0
171
     2
172
     0
173
     0
174
     0
175
     0
176
   256
177
   256
178
     2
  0
DIMSTYLE
  2
AM_ANSI$7
 70
     0
  3

  4
mm
  5

  6

  7

 40
1.0
 41
0.12
 42
0.05
 43
0.5
 44
0.1
 45
0.0
 46
0.0
 47
0.1
 48
0.1
140
0.12
141
0.0
142
0.0
143
25.3999999999999986
144
1.0
145
0.0
146
0.71
147
0.06
 71
     0
 72
     0
 73
     1
 74
     1
 75
     0
 76
     0
 77
     0
 78
     7
170
     0
171
     2
172
     0
173
     0
174
     0
175
     0
176
   256
177
   256
178
     2
  0
DIMSTYLE
  2
AM_ANSI$SF
 70
     0
  3

  4
mm
  5

  6

  7

 40
1.0
 41
0.12
 42
0.05
 43
0.5
 44
0.1
 45
0.0
 46
0.0
 47
0.1
 48
0.1
140
0.12
141
0.0
142
0.0
143
25.3999999999999986
144
1.0
145
0.0
146
0.71
147
0.06
 71
     0
 72
     0
 73
     1
 74
     1
 75
     1
 76
     1
 77
     0
 78
     7
170
     0
171
     2
172
     0
173
     0
174
     0
175
     0
176
   256
177
   256
178
     2
  0
DIMSTYLE
  2
AM_ANSI$SH
 70
     0
  3

  4
mm
  5

  6
GENAXEH
  7

 40
1.0
 41
0.12
 42
0.05
 43
0.5
 44
0.1
 45
0.0
 46
0.0
 47
0.1
 48
0.1
140
0.12
141
0.0
142
0.0
143
25.3999999999999986
144
1.0
145
0.0
146
0.71
147
0.06
 71
     0
 72
     0
 73
     1
 74
     1
 75
     1
 76
     1
 77
     0
 78
     7
170
     0
171
     2
172
     0
173
     1
174
     0
175
     0
176
   256
177
   256
178
     2
  0
ENDTAB
  0
ENDSEC
  0
SECTION
  2
BLOCKS
  0
BLOCK
  8
0
  2
$MODEL_SPACE
 70
     0
 10
0.0
 20
0.0
 30
0.0
  3
$MODEL_SPACE
  1

  0
ENDBLK
  5
458A
  8
0
  0
BLOCK
 67
     1
  8
0
  2
$PAPER_SPACE
 70
     0
 10
0.0
 20
0.0
 30
0.0
  3
$PAPER_SPACE
  1

  0
ENDBLK
  5
4586
 67
     1
  8
0
  0
BLOCK
  8
0
  2
_OPEN
 70
     0
 10
0.0
 20
0.0
 30
0.0
  3
_OPEN
  1

  0
LINE
  5
3E1A
  8
0
  6
BYBLOCK
 62
     0
 10
-1.0
 20
0.1666666666666666
 30
0.0
 11
0.0
 21
0.0
 31
0.0
  0
LINE
  5
3E1B
  8
0
  6
BYBLOCK
 62
     0
 10
-1.0
 20
-0.1666666666666666
 30
0.0
 11
0.0
 21
0.0
 31
0.0
  0
LINE
  5
3E1C
  8
0
  6
BYBLOCK
 62
     0
 10
0.0
 20
0.0
 30
0.0
 11
-1.0
 21
0.0
 31
0.0
  0
ENDBLK
  5
3E1D
  8
0
  0
BLOCK
  8
0
  2
GENAXEH
 70
     0
 10
0.0
 20
0.0
 30
0.0
  3
GENAXEH
  1

  0
LINE
  5
3E45
  8
0
 10
-1.0
 20
0.0
 30
0.0
 11
1.0
 21
0.0
 31
0.0
  0
ENDBLK
  5
3E46
  8
0
  0
BLOCK
  8
0
  2
_ACMFILLEDHALF
 70
     0
 10
0.0
 20
0.0
 30
0.0
  3
_ACMFILLEDHALF
  1

  0
TRACE
  5
4639
  8
240
 62
     0
 10
-0.8
 20
0.0
 30
0.0
 11
-1.0
 21
0.166666666
 31
0.0
 12
0.0
 22
0.0
 32
0.0
 13
0.0
 23
0.0
 33
0.0
  0
LINE
  5
463A
  8
240
 62
     0
 10
-1.0
 20
0.0
 30
0.0
 11
-0.8
 21
0.0
 31
0.0
  0
ENDBLK
  5
4638
  8
0
  0
ENDSEC
  0
SECTION
  2
ENTITIES
  0
LINE
  5
42C5
  8
250
  6
CONTINUOUS
 10
0.0000000000000001
 20
32.5
 30
0.0
 11
0.0000000000000012
 21
50.0
 31
0.0
  0
LINE
  5
42C6
  8
250
  6
CONTINUOUS
 10
180.0
 20
32.5
 30
0.0
 11
180.0
 21
50.0
 31
0.0
  0
LINE
  5
42C7
  8
250
  6
CONTINUOUS
 10
2.2299999999999991
 20
49.0
 30
0.0
 11
177.7700000000000102
 21
49.0
 31
0.0
  0
LINE
  5
42C8
  8
250
  6
CONTINUOUS
 10
2.2299999999999991
 20
48.6283333333333303
 30
0.0
 11
0.0000000000000011
 21
49.0
 31
0.0
  0
LINE
  5
42C9
  8
250
  6
CONTINUOUS
 10
2.2299999999999991
 20
49.3716666666666626
 30
0.0
 11
0.0000000000000011
 21
49.0
 31
0.0
  0
LINE
  5
42CA
  8
250
  6
CONTINUOUS
 10
0.0000000000000011
 20
49.0
 30
0.0
 11
2.2299999999999991
 21
49.0
 31
0.0
  0
LINE
  5
42CB
  8
250
  6
CONTINUOUS
 10
177.7700000000000102
 20
49.3716666666666697
 30
0.0
 11
180.0
 21
49.0
 31
0.0
  0
LINE
  5
42CC
  8
250
  6
CONTINUOUS
 10
177.7700000000000102
 20
48.6283333333333303
 30
0.0
 11
180.0
 21
49.0
 31
0.0
  0
LINE
  5
42CD
  8
250
  6
CONTINUOUS
 10
180.0
 20
49.0
 30
0.0
 11
177.7700000000000102
 21
49.0
 31
0.0
  0
TEXT
  5
42CE
  8
250
  6
CONTINUOUS
 10
85.7999999999999829
 20
50.0
 30
0.0
 40
2.799999999999998
  1
180
  0
LINE
  5
42CF
  8
250
  6
CONTINUOUS
 10
180.5
 20
-32.0
 30
0.0
 11
196.5
 21
-32.0000000000000071
 31
0.0
  0
LINE
  5
42D0
  8
250
  6
CONTINUOUS
 10
180.5
 20
32.0
 30
0.0
 11
196.5
 21
32.0
 31
0.0
  0
LINE
  5
42D1
  8
250
  6
CONTINUOUS
 10
195.5
 20
-29.7699999999999996
 30
0.0
 11
195.5
 21
29.7699999999999996
 31
0.0
  0
LINE
  5
42D2
  8
250
  6
CONTINUOUS
 10
195.8716666666666129
 20
-29.7700000000000102
 30
0.0
 11
195.5
 21
-32.0000000000000071
 31
0.0
  0
LINE
  5
42D3
  8
250
  6
CONTINUOUS
 10
195.1283333333333019
 20
-29.7700000000000102
 30
0.0
 11
195.5
 21
-32.0000000000000071
 31
0.0
  0
LINE
  5
42D4
  8
250
  6
CONTINUOUS
 10
195.5
 20
-32.0000000000000071
 30
0.0
 11
195.5
 21
-29.7700000000000102
 31
0.0
  0
LINE
  5
42D5
  8
250
  6
CONTINUOUS
 10
195.1283333333333019
 20
29.7699999999999996
 30
0.0
 11
195.5
 21
32.0
 31
0.0
  0
LINE
  5
42D6
  8
250
  6
CONTINUOUS
 10
195.8716666666666129
 20
29.7699999999999996
 30
0.0
 11
195.5
 21
32.0
 31
0.0
  0
LINE
  5
42D7
  8
250
  6
CONTINUOUS
 10
195.5
 20
32.0
 30
0.0
 11
195.5
 21
29.7699999999999996
 31
0.0
  0
TEXT
  5
42D8
  8
250
  6
CONTINUOUS
 10
194.5
 20
-3.8666666666666361
 30
0.0
 40
2.799999999999998
  1
\U+2205
 50
90.0
  0
TEXT
  5
42D9
  8
250
  6
CONTINUOUS
 10
194.5
 20
-1.3333333333333031
 30
0.0
 40
2.799999999999998
  1
64
 50
90.0
  0
LINE
  5
42DA
  8
250
  6
CONTINUOUS
 10
174.7042856015530958
 20
33.7454033168916609
 30
0.0
 11
173.267412826219612
 21
32.0
 31
0.0
  0
LINE
  5
42DB
  8
250
  6
CONTINUOUS
 10
174.0605400514621124
 20
34.1170699836543392
 30
0.0
 11
173.267412826219612
 21
32.0
 31
0.0
  0
LINE
  5
42DC
  8
250
  6
CONTINUOUS
 10
173.267412826219612
 20
32.0
 30
0.0
 11
174.3824128265077036
 21
33.9312366502730001
 31
0.0
  0
LINE
  5
42DD
  8
250
  6
CONTINUOUS
 10
174.3824128265077036
 20
33.9312366502730001
 30
0.0
 11
182.4941543612661121
 21
48.0500070205625107
 31
0.0
  0
TEXT
  5
42DE
  8
250
  6
CONTINUOUS
 10
184.8941543612662031
 20
49.0500070205625178
 30
0.0
 40
2.799999999999998
  1
CK6
  7
YOKO
  0
LINE
  5
42DF
  8
250
  6
CONTINUOUS
 10
182.4941543612661121
 20
48.0500070205625107
 30
0.0
 11
195.5608210312661868
 21
48.0500070205625107
 31
0.0
1001
ITEMNAME
1000
LNSP2
  0
LINE
  5
42E0
  8
250
  6
CONTINUOUS
 10
-25.5567320655856314
 20
-19.7454033166841398
 30
0.0
 11
-24.1198592900000008
 21
-18.0
 31
0.0
  0
LINE
  5
42E1
  8
250
  6
CONTINUOUS
 10
-24.912986515548301
 20
-20.117069983539789
 30
0.0
 11
-24.1198592900000008
 21
-18.0
 31
0.0
  0
LINE
  5
42E2
  8
250
  6
CONTINUOUS
 10
-24.1198592900000008
 20
-18.0
 30
0.0
 11
-25.2348592905669591
 21
-19.9312366501119591
 31
0.0
  0
LINE
  5
42E3
  8
250
  6
CONTINUOUS
 10
-25.2348592905669484
 20
-19.9312366501119591
 30
0.0
 11
-30.0625206899999995
 21
-28.2929914700000005
 31
0.0
  0
TEXT
  5
42E4
  8
250
  6
CONTINUOUS
 10
-40.7291873499999966
 20
-27.2929914700000005
 30
0.0
 40
2.799999999999998
  1
CK6
  7
YOKO
  0
LINE
  5
42E5
  8
250
  6
CONTINUOUS
 10
-30.0625206899999995
 20
-28.2929914700000005
 30
0.0
 11
-43.1291873500000023
 21
-28.2929914700000005
 31
0.0
1001
ITEMNAME
1000
LNSP2
  0
TEXT
  5
42E6
  8
241
  6
CONTINUOUS
 10
-40.0
 20
63.0
 30
0.0
 40
5.0
  1
CKB66DP-180
  7
YOKO
 11
-40.0
 21
63.0
 31
0.0
 73
     1
  0
LINE
  5
42E7
  8
240
  6
CONTINUOUS
 10
180.0
 20
32.0
 30
0.0
 11
0.0
 21
32.0
 31
0.0
  0
LINE
  5
42E8
  8
240
  6
CONTINUOUS
 10
180.0
 20
-32.0
 30
0.0
 11
0.0
 21
-32.0
 31
0.0
  0
LINE
  5
42E9
  8
245
  6
CENTER2
 10
-41.0
 20
0.0
 30
0.0
 11
181.0
 21
0.0
 31
0.0
  0
LINE
  5
42EA
  8
240
  6
CONTINUOUS
 10
0.0
 20
18.0
 30
0.0
 11
0.0
 21
32.0
 31
0.0
  0
LINE
  5
42EB
  8
240
  6
CONTINUOUS
 10
-40.0
 20
18.0
 30
0.0
 11
-15.9557259400000007
 21
18.0
 31
0.0
  0
LINE
  5
42EC
  8
240
  6
CONTINUOUS
 10
-15.9557259400000007
 20
-18.0
 30
0.0
 11
-40.0
 21
-18.0
 31
0.0
  0
LINE
  5
42EF
  8
240
  6
CONTINUOUS
 10
-40.0
 20
18.0
 30
0.0
 11
-40.0
 21
-18.0
 31
0.0
  0
LINE
  5
42F3
  8
240
  6
CONTINUOUS
 10
0.0
 20
-32.0
 30
0.0
 11
0.0
 21
-18.0
 31
0.0
  0
CIRCLE
  5
42F5
  8
241
  6
CONTINUOUS
 10
-16.0
 20
0.0
 30
0.0
 40
6.0
  0
CIRCLE
  5
42F6
  8
241
  6
CONTINUOUS
 10
-16.0
 20
0.0
 30
0.0
 40
4.5
  0
LINE
  5
42F7
  8
245
  6
CENTER2
 10
-16.0
 20
7.0
 30
0.0
 11
-16.0
 21
-7.0
 31
0.0
  0
LINE
  5
42F9
  8
241
  6
CONTINUOUS
 10
0.0
 20
18.0
 30
0.0
 11
0.0
 21
-18.0
 31
0.0
  0
LINE
  5
42FA
  8
240
  6
CONTINUOUS
 10
-13.9349999950000001
 20
-21.5
 30
0.0
 11
-3.9650000049999989
 21
-21.5
 31
0.0
  0
LINE
  5
42FB
  8
241
  6
CONTINUOUS
 10
-1.944274059999997
 20
-18.0
 30
0.0
 11
-15.9557259400000007
 21
-18.0
 31
0.0
  0
LINE
  5
42FC
  8
240
  6
CONTINUOUS
 10
-15.9557259400000007
 20
-18.0
 30
0.0
 11
-13.9349999950000001
 21
-21.5
 31
0.0
  0
LINE
  5
42FF
  8
240
  6
CONTINUOUS
 10
0.0
 20
-18.0
 30
0.0
 11
-1.944274059999997
 21
-18.0
 31
0.0
  0
LINE
  5
4301
  8
240
  6
CONTINUOUS
 10
-1.944274059999997
 20
-18.0
 30
0.0
 11
-3.9650000049999989
 21
-21.5
 31
0.0
  0
LINE
  5
4303
  8
240
  6
CONTINUOUS
 10
-13.9349999950000001
 20
21.5
 30
0.0
 11
-3.9650000049999989
 21
21.5
 31
0.0
  0
LINE
  5
4304
  8
241
  6
CONTINUOUS
 10
-1.944274059999997
 20
18.0
 30
0.0
 11
-15.9557259400000007
 21
18.0
 31
0.0
  0
LINE
  5
4305
  8
240
  6
CONTINUOUS
 10
-15.9557259400000007
 20
18.0
 30
0.0
 11
-13.9349999950000001
 21
21.5
 31
0.0
  0
LINE
  5
4307
  8
240
  6
CONTINUOUS
 10
0.0
 20
18.0
 30
0.0
 11
-1.944274059999997
 21
18.0
 31
0.0
  0
LINE
  5
4309
  8
240
  6
CONTINUOUS
 10
-1.944274059999997
 20
18.0
 30
0.0
 11
-3.9650000049999989
 21
21.5
 31
0.0
  0
LINE
  5
430C
  8
240
  6
CONTINUOUS
 10
180.0
 20
-32.0
 30
0.0
 11
180.0
 21
32.0
 31
0.0
  0
LINE
  5
430E
  8
243
  6
HIDDEN2
 10
138.0
 20
18.0
 30
0.0
 11
180.0
 21
18.0
 31
0.0
  0
CIRCLE
  5
430F
  8
242
  6
CONTINUOUS
 10
164.0
 20
0.0
 30
0.0
 40
5.5
  0
CIRCLE
  5
4310
  8
241
  6
CONTINUOUS
 10
164.0
 20
0.0
 30
0.0
 40
6.0
  0
LINE
  5
4312
  8
245
  6
CENTER2
 10
164.0
 20
7.0
 30
0.0
 11
164.0
 21
-7.0
 31
0.0
1001
GRPNAME
1000
PASTMD1R
  0
LINE
  5
4313
  8
241
  6
CONTINUOUS
 10
161.0
 20
-1.7320508100000001
 30
0.0
 11
164.0
 21
-3.4641016200000001
 31
0.0
  0
LINE
  5
4314
  8
241
  6
CONTINUOUS
 10
164.0
 20
-3.4641016200000001
 30
0.0
 11
167.0
 21
-1.7320508100000001
 31
0.0
  0
LINE
  5
4315
  8
241
  6
CONTINUOUS
 10
167.0
 20
-1.7320508100000001
 30
0.0
 11
167.0
 21
1.7320508100000001
 31
0.0
  0
LINE
  5
4316
  8
241
  6
CONTINUOUS
 10
167.0
 20
1.7320508100000001
 30
0.0
 11
164.0
 21
3.4641016200000001
 31
0.0
  0
LINE
  5
4317
  8
241
  6
CONTINUOUS
 10
164.0
 20
3.4641016200000001
 30
0.0
 11
161.0
 21
1.7320508100000001
 31
0.0
  0
LINE
  5
4318
  8
241
  6
CONTINUOUS
 10
161.0
 20
1.7320508100000001
 30
0.0
 11
161.0
 21
-1.7320508100000001
 31
0.0
  0
LINE
  5
431A
  8
243
  6
HIDDEN2
 10
138.0
 20
-18.0
 30
0.0
 11
180.0
 21
-18.0
 31
0.0
  0
LINE
  5
43D2
  8
247
  6
CONTINUOUS
 10
7.0
 20
-18.2500000000699991
 30
0.0
 11
7.0
 21
-11.5576923080299991
 31
0.0
  0
ARC
  5
43D3
  8
247
  6
CONTINUOUS
 10
5.2500000000699742
 20
-18.2500000000699991
 30
0.0
 40
1.7499999999299991
 50
180.0
 51
0.0
  0
ARC
  5
43D4
  8
247
  6
CONTINUOUS
 10
5.2500000000699742
 20
-11.5576923080299991
 30
0.0
 40
1.7499999999299991
 50
0.0
 51
180.0
  0
LINE
  5
43D5
  8
247
  6
CONTINUOUS
 10
3.500000000140004
 20
-17.3846153847199787
 30
0.0
 11
6.5000000000200071
 21
-18.2448515419619888
 31
0.0
  0
LINE
  5
43D6
  8
247
  6
CONTINUOUS
 10
4.9230769231600089
 20
-16.4849838183357917
 30
0.0
 11
4.9230769231600089
 21
-17.7926761259758095
 31
0.0
  0
ARC
  5
43D7
  8
247
  6
CONTINUOUS
 10
4.0495986677029787
 20
-16.1451438160897602
 30
0.0
 40
0.5538165441895349
 50
72.9978896752917734
 51
172.9241662185135908
  0
ARC
  5
43D8
  8
247
  6
CONTINUOUS
 10
3.936033044465773
 20
-16.5668783230287602
 30
0.0
 40
0.9904354236226808
 50
4.7429368522022122
 51
73.8492262732662965
1001
GENIUS_GENOBJ-N-FIL_13
1002
{
1000
OWNER
1000
GEN
1002
}
1001
GENIUS_GENODEF_13
1002
{
1000
HIER
1070
     0
1002
}
1002
{
1000
MANEDIT
1070
     0
1002
}
1002
{
1000
NOSEL
1070
     0
1002
}
1002
{
1000
BEHIND
1070
     0
1002
}
1002
{
1000
OTHER
1070
     0
1002
}
1002
{
1000
REACTOR
1002
}
  0
LINE
  5
43D9
  8
247
  6
CONTINUOUS
 10
6.5000000000200071
 20
-16.9371592343220208
 30
0.0
 11
6.5000000000200071
 21
-18.2448515419619888
 31
0.0
  0
LINE
  5
43DA
  8
247
  6
CONTINUOUS
 10
3.500000000140004
 20
-17.3846153847199787
 30
0.0
 11
3.500000000140004
 21
-16.0769230770799503
 31
0.0
  0
ARC
  5
43DB
  8
247
  6
CONTINUOUS
 10
5.4820242326655357
 20
-16.56091963654697
 30
0.0
 40
0.5640818586791229
 50
65.990941652528889
 51
172.2634434590690944
  0
ARC
  5
43DC
  8
247
  6
CONTINUOUS
 10
5.4874290391865639
 20
-17.0382626853470605
 30
0.0
 40
1.0176059446230981
 50
5.701985164259785
 51
77.2773384368223759
1001
GENIUS_GENOBJ-N-FIL_13
1002
{
1000
OWNER
1000
GEN
1002
}
1001
GENIUS_GENODEF_13
1002
{
1000
HIER
1070
     0
1002
}
1002
{
1000
MANEDIT
1070
     0
1002
}
1002
{
1000
NOSEL
1070
     0
1002
}
1002
{
1000
BEHIND
1070
     0
1002
}
1002
{
1000
OTHER
1070
     0
1002
}
1002
{
1000
REACTOR
1002
}
  0
LINE
  5
43DD
  8
247
  6
CONTINUOUS
 10
6.5000000000200071
 20
-15.2833130805419994
 30
0.0
 11
3.500000000140004
 21
-14.4230769232999894
 31
0.0
  0
LINE
  5
43DE
  8
247
  6
CONTINUOUS
 10
3.500000000140004
 20
-12.00000000032
 30
0.0
 11
3.500000000140004
 21
-12.5657366194565991
 31
0.0
  0
LINE
  5
43DF
  8
247
  6
CONTINUOUS
 10
6.5000000000200071
 20
-13.4615384617999592
 30
0.0
 11
6.5000000000200071
 21
-12.8461538464399894
 31
0.0
  0
ARC
  5
43E0
  8
247
  6
CONTINUOUS
 10
5.5832851359733677
 20
-11.7087912091228308
 30
0.0
 40
2.2526500823422122
 50
202.3594881415291127
 51
254.9932485428460893
  0
ARC
  5
43E1
  8
247
  6
CONTINUOUS
 10
4.3083126551945261
 20
-12.3740694792131993
 30
0.0
 40
0.8906723995727782
 50
94.9945893190753168
 51
155.1663289573039037
1001
GENIUS_GENOBJ-N-FIL_13
1002
{
1000
OWNER
1000
GEN
1002
}
1001
GENIUS_GENODEF_13
1002
{
1000
HIER
1070
     0
1002
}
1002
{
1000
MANEDIT
1070
     0
1002
}
1002
{
1000
NOSEL
1070
     0
1002
}
1002
{
1000
BEHIND
1070
     0
1002
}
1002
{
1000
OTHER
1070
     0
1002
}
1002
{
1000
REACTOR
1002
}
  0
ARC
  5
43E2
  8
247
  6
CONTINUOUS
 10
5.1601458886677829
 20
-13.2264588862125496
 30
0.0
 40
1.392781735586712
 50
15.8460965557808002
 51
82.3251370041690649
  0
ARC
  5
43E3
  8
247
  6
CONTINUOUS
 10
5.4592434315272831
 20
-12.6422127258403805
 30
0.0
 40
1.324563662670287
 50
249.7136016704968995
 51
321.7887456564092759
1001
GENIUS_GENOBJ-N-FIL_13
1002
{
1000
OWNER
1000
GEN
1002
}
1001
GENIUS_GENODEF_13
1002
{
1000
HIER
1070
     0
1002
}
1002
{
1000
MANEDIT
1070
     0
1002
}
1002
{
1000
NOSEL
1070
     0
1002
}
1002
{
1000
BEHIND
1070
     0
1002
}
1002
{
1000
OTHER
1070
     0
1002
}
1002
{
1000
REACTOR
1002
}
  0
LINE
  5
43E4
  8
247
  6
CONTINUOUS
 10
5.346153846219976
 20
-12.53846153876
 30
0.0
 11
5.346153846219976
 21
-11.84615384648
 31
0.0
  0
LINE
  5
43E5
  8
247
  6
CONTINUOUS
 10
3.500000000139976
 20
-18.2500000000699991
 30
0.0
 11
3.500000000139976
 21
-17.5769230770200409
 31
0.0
  0
VIEWPORT
  5
22
 67
     1
  8
0
 10
261.517699115044195
 20
148.5
 30
0.0
 40
523.0353982300885036
 41
297.0
 68
     1
 69
     1
1001
ACAD
1000
MVIEW
1002
{
1070
    16
1010
0.0
1020
0.0
1030
0.0
1010
0.0
1020
0.0
1030
1.0
1040
0.0
1040
297.0
1040
261.517699115044195
1040
148.5
1040
50.0
1040
0.0
1040
0.0
1070
     0
1070
   100
1070
     1
1070
     1
1070
     0
1070
     0
1070
     0
1070
     0
1040
0.0
1040
0.0
1040
0.0
1040
1.0
1040
1.0
1040
10.0
1040
10.0
1070
     0
1002
{
1002
}
1002
}
1001
GENIUS_GENODEF_13
1002
{
1000
HIER
1070
     0
1002
}
1002
{
1000
MANEDIT
1070
     0
1002
}
1002
{
1000
NOSEL
1070
     0
1002
}
1002
{
1000
BEHIND
1070
     0
1002
}
1002
{
1000
OTHER
1070
     0
1002
}
1002
{
1000
REACTOR
1002
}
1001
GENIUS_GENOBJ-N-SDF_13
1002
{
1000
OWNER
1000
GEN
1002
}
1001
GENIUS_GENSCREG_15
1000
PF
1040
1.0
1000
DF
1040
1.0
1000
MIN
1011
0.0
1021
0.0
1031
0.0
1021
0.0
1031
0.0
1000
MAX
1011
523.0353982300885036
1021
0.0
1031
0.0
1021
297.0
1031
0.0
1000
FLAGS
1070
     4
  0
ENDSEC
  0
EOF
