  0
SECTION
  2
HEADER
  9
$ACADVER
  1
AC1009
  9
$INSBASE
 10
0.0
 20
0.0
 30
0.0
  9
$EXTMIN
 10
-45.1558097500000031
 20
-32.0
 30
0.0
  9
$EXTMAX
 10
74.5049103500000029
 20
61.0000000000000071
 30
0.0
  9
$LIMMIN
 10
0.0
 20
0.0
  9
$LIMMAX
 10
420.0
 20
297.0
  9
$ORTHOMODE
 70
     1
  9
$REGENMODE
 70
     1
  9
$FILLMODE
 70
     1
  9
$QTEXTMODE
 70
     0
  9
$MIRRTEXT
 70
     1
  9
$DRAGMODE
 70
     2
  9
$LTSCALE
 40
10.0
  9
$OSMODE
 70
   807
  9
$ATTMODE
 70
     1
  9
$TEXTSIZE
 40
3.0
  9
$TRACEWID
 40
1.0
  9
$TEXTSTYLE
  7
YOKO
  9
$CLAYER
  8
240
  9
$CELTYPE
  6
BYLAYER
  9
$CECOLOR
 62
   256
  9
$DIMSCALE
 40
1.0
  9
$DIMASZ
 40
2.2299999999999991
  9
$DIMEXO
 40
0.5
  9
$DIMDLI
 40
2.5
  9
$DIMRND
 40
0.0
  9
$DIMDLE
 40
0.0
  9
$DIMEXE
 40
1.0
  9
$DIMTP
 40
0.0
  9
$DIMTM
 40
0.0
  9
$DIMTXT
 40
2.799999999999998
  9
$DIMCEN
 40
0.0
  9
$DIMTSZ
 40
0.0
  9
$DIMTOL
 70
     0
  9
$DIMLIM
 70
     0
  9
$DIMTIH
 70
     0
  9
$DIMTOH
 70
     0
  9
$DIMSE1
 70
     0
  9
$DIMSE2
 70
     0
  9
$DIMTAD
 70
     3
  9
$DIMZIN
 70
     8
  9
$DIMBLK
  1

  9
$DIMASO
 70
     1
  9
$DIMSHO
 70
     1
  9
$DIMPOST
  1

  9
$DIMAPOST
  1

  9
$DIMALT
 70
     0
  9
$DIMALTD
 70
     2
  9
$DIMALTF
 40
25.3999999999999986
  9
$DIMLFAC
 40
1.0
  9
$DIMTOFL
 70
     1
  9
$DIMTVP
 40
0.0
  9
$DIMTIX
 70
     1
  9
$DIMSOXD
 70
     0
  9
$DIMSAH
 70
     1
  9
$DIMBLK1
  1
OPEN
  9
$DIMBLK2
  1
OPEN
  9
$DIMSTYLE
  2
BIGT
  9
$DIMCLRD
 70
   256
  9
$DIMCLRE
 70
   256
  9
$DIMCLRT
 70
    40
  9
$DIMTFAC
 40
1.0
  9
$DIMGAP
 40
1.0
  9
$LUNITS
 70
     2
  9
$LUPREC
 70
     2
  9
$SKETCHINC
 40
1.0
  9
$FILLETRAD
 40
5.0
  9
$AUNITS
 70
     0
  9
$AUPREC
 70
     3
  9
$MENU
  1
.
  9
$ELEVATION
 40
0.0
  9
$PELEVATION
 40
0.0
  9
$THICKNESS
 40
0.0
  9
$LIMCHECK
 70
     0
  9
$BLIPMODE
 70
     0
  9
$CHAMFERA
 40
10.0
  9
$CHAMFERB
 40
10.0
  9
$SKPOLY
 70
     0
  9
$TDCREATE
 40
2455448.4739814819768071
  9
$TDUPDATE
 40
2458295.6927199070341885
  9
$TDINDWG
 40
0.0174713773
  9
$TDUSRTIMER
 40
0.0174713773
  9
$USRTIMER
 70
     1
  9
$ANGBASE
 50
0.0
  9
$ANGDIR
 70
     0
  9
$PDMODE
 70
     1
  9
$PDSIZE
 40
-5.0
  9
$PLINEWID
 40
0.0
  9
$COORDS
 70
     1
  9
$SPLFRAME
 70
     0
  9
$SPLINETYPE
 70
     6
  9
$SPLINESEGS
 70
     8
  9
$ATTDIA
 70
     1
  9
$ATTREQ
 70
     1
  9
$HANDLING
 70
     1
  9
$HANDSEED
  5
EEF
  9
$SURFTAB1
 70
     6
  9
$SURFTAB2
 70
     6
  9
$SURFTYPE
 70
     6
  9
$SURFU
 70
     6
  9
$SURFV
 70
     6
  9
$UCSNAME
  2

  9
$UCSORG
 10
0.0
 20
0.0
 30
0.0
  9
$UCSXDIR
 10
1.0
 20
0.0
 30
0.0
  9
$UCSYDIR
 10
0.0
 20
1.0
 30
0.0
  9
$PUCSNAME
  2

  9
$PUCSORG
 10
0.0
 20
0.0
 30
0.0
  9
$PUCSXDIR
 10
1.0
 20
0.0
 30
0.0
  9
$PUCSYDIR
 10
0.0
 20
1.0
 30
0.0
  9
$USERI1
 70
     1
  9
$USERI2
 70
     0
  9
$USERI3
 70
     0
  9
$USERI4
 70
     0
  9
$USERI5
 70
     0
  9
$USERR1
 40
0.0
  9
$USERR2
 40
0.0
  9
$USERR3
 40
0.0
  9
$USERR4
 40
0.0
  9
$USERR5
 40
0.0
  9
$WORLDVIEW
 70
     1
  9
$SHADEDGE
 70
     3
  9
$SHADEDIF
 70
    70
  9
$TILEMODE
 70
     1
  9
$MAXACTVP
 70
    16
  9
$PLIMCHECK
 70
     0
  9
$PEXTMIN
 10
1.0000000000000000E+20
 20
1.0000000000000000E+20
 30
1.0000000000000000E+20
  9
$PEXTMAX
 10
-1.0000000000000000E+20
 20
-1.0000000000000000E+20
 30
-1.0000000000000000E+20
  9
$PLIMMIN
 10
0.0
 20
0.0
  9
$PLIMMAX
 10
420.0
 20
297.0
  9
$UNITMODE
 70
     0
  9
$VISRETAIN
 70
     0
  9
$PLINEGEN
 70
     0
  9
$PSLTSCALE
 70
     1
  0
ENDSEC
  0
SECTION
  2
TABLES
  0
TABLE
  2
VPORT
 70
     1
  0
VPORT
  2
*ACTIVE
 70
     0
 10
0.0
 20
0.0
 11
1.0
 21
1.0
 12
43.6302211832309581
 22
22.2572031123272289
 13
0.0
 23
0.0
 14
7.0
 24
7.0
 15
7.0
 25
7.0
 16
0.0
 26
0.0
 36
1.0
 17
0.0
 27
0.0
 37
0.0
 40
148.9255375380579096
 41
1.887387387387387
 42
50.0
 43
0.0
 44
0.0
 50
0.0
 51
0.0
 71
     0
 72
  2000
 73
     1
 74
     0
 75
     0
 76
     1
 77
     0
 78
     0
  0
ENDTAB
  0
TABLE
  2
LTYPE
 70
    22
  0
LTYPE
  2
CONTINUOUS
 70
     0
  3
Solid line
 72
    65
 73
     0
 40
0.0
  0
LTYPE
  2
CENTER2
 70
     0
  3
___ _ ___ _ ___ _ ___ _ ___ _ ___ _ ___ _ ___ _
 72
    65
 73
     4
 40
1.125
 49
0.75
 49
-0.125
 49
0.125
 49
-0.125
  0
LTYPE
  2
HIDDEN2
 70
     0
  3
_ _ _ _ _ _ _ _ _ _ _ _ _ _ _ _ _ _ _ _ _ _ _ _
 72
    65
 73
     2
 40
0.1875
 49
0.125
 49
-0.0625
  0
LTYPE
  2
HIDDEN
 70
     0
  3
Hidden __ __ __ __ __ __ __ __ __ __ __ __ __ _
 72
    65
 73
     2
 40
9.5249999999999986
 49
6.3499999999999979
 49
-3.174999999999998
  0
LTYPE
  2
PHANTOM2
 70
     0
  3
Phantom (.5x) ___ _ _ ___ _ _ ___ _ _ ___ _ _
 72
    65
 73
     6
 40
31.75
 49
15.875
 49
-3.174999999999998
 49
3.174999999999998
 49
-3.174999999999998
 49
3.174999999999998
 49
-3.174999999999998
  0
LTYPE
  2
CENTER
 70
     0
  3
Center ____ _ ____ _ ____ _ ____ _ ____ _ ____
 72
    65
 73
     4
 40
50.7999999999999972
 49
31.75
 49
-6.3499999999999979
 49
6.3499999999999979
 49
-6.3499999999999979
  0
LTYPE
  2
AMCONSTR
 70
     0
  3
_______________________
 72
    65
 73
     2
 40
9999.0
 49
9999.0
 49
0.0
  0
LTYPE
  2
AMZIGZAG2
 70
     0
  3
/\/-/\/-/\/-/\/-/\/-/\/
 72
    65
 73
     2
 40
0.4401
 49
0.0001
 49
-0.4400000000000003
  0
LTYPE
  2
ACANSTGB
 70
     0
  3
__ . . __ . .
 72
    65
 73
     6
 40
0.35433070866
 49
0.15748031496
 49
-0.03937007874
 49
0.03937007874
 49
-0.03937007874
 49
0.03937007874
 49
-0.03937007874
  0
LTYPE
  2
ACANSTGL
 70
     0
  3
_ _ _ _ _
 72
    65
 73
     2
 40
0.11811023622
 49
0.07874015748
 49
-0.03937007874
  0
ENDTAB
  0
TABLE
  2
LAYER
 70
     9
  0
LAYER
  2
0
 70
     0
 62
     7
  6
CONTINUOUS
  0
LAYER
  2
240
 70
     0
 62
     4
  6
CONTINUOUS
  0
LAYER
  2
241
 70
     0
 62
   211
  6
CONTINUOUS
  0
LAYER
  2
242
 70
     0
 62
     3
  6
CONTINUOUS
  0
LAYER
  2
245
 70
     0
 62
     2
  6
CENTER2
  0
LAYER
  2
250
 70
     0
 62
     3
  6
CONTINUOUS
  0
LAYER
  2
DEFPOINTS
 70
     0
 62
     7
  6
CONTINUOUS
  0
LAYER
  2
243
 70
     0
 62
   211
  6
HIDDEN2
  0
LAYER
  2
247
 70
     0
 62
    60
  6
CONTINUOUS
  0
ENDTAB
  0
TABLE
  2
STYLE
 70
     9
  0
STYLE
  2
STANDARD
 70
     0
 40
0.0
 41
1.0
 50
0.0
 71
     0
 42
3.0
  3
romans.shx
  4
BIGFONT.SHX
  0
STYLE
  2
YOKO
 70
     0
 40
0.0
 41
1.0
 50
0.0
 71
     0
 42
3.0
  3
romans.shx
  4
extfont.shx
  0
STYLE
  2
ACANSGDT
 70
     0
 40
0.0
 41
1.0
 50
0.0
 71
     0
 42
3.0
  3
amgdt.shx
  4

  0
ENDTAB
  0
TABLE
  2
VIEW
 70
     0
  0
ENDTAB
  0
TABLE
  2
UCS
 70
     0
  0
ENDTAB
  0
TABLE
  2
APPID
 70
    24
  0
APPID
  2
ACAD
 70
     0
  0
APPID
  2
ACADANNOTATIVE
 70
     0
  0
APPID
  2
GLOBAL
 70
     0
  0
APPID
  2
DETAIL
 70
     0
  0
APPID
  2
GRPNAME
 70
     0
  0
APPID
  2
GPARA
 70
     0
  0
APPID
  2
DCO15
 70
     0
  0
APPID
  2
ITEMNAME
 70
     0
  0
APPID
  2
GRADE_0
 70
     0
  0
APPID
  2
CONTENTBLOCKICON
 70
     0
  0
APPID
  2
MCAD_NO_VIS
 70
     0
  0
APPID
  2
ACAD_TEMP_GRAPHIC
 70
     0
  0
APPID
  2
ACATTRIBSERVICES
 70
     0
  0
APPID
  2
DESIGNERASSEMBLIES
 70
     0
  0
APPID
  2
ACAD_DSTYLE_DIMJAG
 70
     0
  0
APPID
  2
ACAD_DSTYLE_DIMBREAK
 70
     0
  0
APPID
  2
GENIUS_GENSCREG_15
 70
     0
  0
APPID
  2
GENIUS_GENODEF_13
 70
     0
  0
APPID
  2
GENIUS_GENOBJ-N-SDF_13
 70
     0
  0
APPID
  2
ACAD_NAV_VCDISPLAY
 70
     0
  0
APPID
  2
GENIUS_GENOBJ-N-FIL_13
 70
     0
  0
APPID
  2
ACAECLAYERSTANDARD
 70
     0
  0
APPID
  2
ACAD_MLEADERVER
 70
     0
  0
APPID
  2
ACAD_EXEMPT_FROM_CAD_STANDARDS
 70
     0
  0
ENDTAB
  0
TABLE
  2
DIMSTYLE
 70
    24
  0
DIMSTYLE
  2
STANDARD
 70
     0
  3

  4

  5

  6

  7

 40
1.0
 41
0.18
 42
0.0625
 43
0.38
 44
0.18
 45
0.0
 46
0.0
 47
0.0
 48
0.0
140
0.18
141
0.09
142
0.0
143
25.3999999999999986
144
1.0
145
0.0
146
1.0
147
0.09
 71
     0
 72
     0
 73
     1
 74
     1
 75
     0
 76
     0
 77
     0
 78
     0
170
     0
171
     2
172
     0
173
     0
174
     0
175
     0
176
     0
177
     0
178
     0
  0
DIMSTYLE
  2
BIGT
 70
     0
  3

  4

  5

  6

  7

 40
1.0
 41
2.2299999999999991
 42
0.5
 43
2.5
 44
1.0
 45
0.0
 46
0.0
 47
0.0
 48
0.0
140
2.799999999999998
141
0.0
142
0.0
143
25.3999999999999986
144
1.0
145
0.0
146
1.0
147
1.0
 71
     0
 72
     0
 73
     0
 74
     0
 75
     0
 76
     0
 77
     3
 78
     8
170
     0
171
     2
172
     1
173
     1
174
     1
175
     0
176
   256
177
   256
178
    40
  0
DIMSTYLE
  2
AM_ANSI
 70
     0
  3

  4
mm
  5

  6

  7

 40
1.0
 41
0.1
 42
0.05
 43
0.5
 44
0.1
 45
0.0
 46
0.0
 47
0.1
 48
0.1
140
0.12
141
0.0
142
0.0
143
25.3999999999999986
144
1.0
145
0.0
146
0.71
147
0.06
 71
     0
 72
     0
 73
     1
 74
     1
 75
     0
 76
     0
 77
     0
 78
     7
170
     0
171
     2
172
     0
173
     0
174
     0
175
     0
176
   256
177
   256
178
     2
  0
DIMSTYLE
  2
AM_ANSI$3
 70
     0
  3

  4
mm
  5

  6

  7

 40
1.0
 41
0.1
 42
0.05
 43
0.5
 44
0.1
 45
0.0
 46
0.0
 47
0.1
 48
0.1
140
0.12
141
0.0
142
0.0
143
25.3999999999999986
144
1.0
145
0.0
146
0.71
147
0.06
 71
     0
 72
     0
 73
     1
 74
     1
 75
     0
 76
     0
 77
     0
 78
     7
170
     0
171
     2
172
     0
173
     0
174
     0
175
     0
176
   256
177
   256
178
     2
  0
DIMSTYLE
  2
AM_ANSI$4
 70
     0
  3

  4
mm
  5

  6

  7

 40
1.0
 41
0.1
 42
0.05
 43
0.5
 44
0.1
 45
0.0
 46
0.0
 47
0.1
 48
0.1
140
0.12
141
0.0
142
0.0
143
25.3999999999999986
144
1.0
145
0.0
146
0.71
147
0.06
 71
     0
 72
     0
 73
     1
 74
     1
 75
     0
 76
     0
 77
     0
 78
     7
170
     0
171
     2
172
     0
173
     0
174
     0
175
     0
176
   256
177
   256
178
     2
  0
DIMSTYLE
  2
AM_ANSI$7
 70
     0
  3

  4
mm
  5

  6

  7

 40
1.0
 41
0.1
 42
0.05
 43
0.5
 44
0.1
 45
0.0
 46
0.0
 47
0.1
 48
0.1
140
0.24
141
0.0
142
0.0
143
25.3999999999999986
144
1.0
145
0.0
146
0.71
147
0.06
 71
     0
 72
     0
 73
     1
 74
     1
 75
     0
 76
     0
 77
     0
 78
     7
170
     0
171
     2
172
     0
173
     0
174
     0
175
     0
176
   256
177
   256
178
     2
  0
DIMSTYLE
  2
AM_ANSI$SF
 70
     0
  3

  4
mm
  5

  6

  7

 40
1.0
 41
0.1
 42
0.05
 43
0.5
 44
0.1
 45
0.0
 46
0.0
 47
0.1
 48
0.1
140
0.12
141
0.0
142
0.0
143
25.3999999999999986
144
1.0
145
0.0
146
0.71
147
0.06
 71
     0
 72
     0
 73
     1
 74
     1
 75
     1
 76
     1
 77
     0
 78
     7
170
     0
171
     2
172
     0
173
     0
174
     0
175
     0
176
   256
177
   256
178
     2
  0
DIMSTYLE
  2
AM_ANSI$SH
 70
     0
  3

  4
mm
  5

  6

  7

 40
1.0
 41
0.1
 42
0.05
 43
0.5
 44
0.1
 45
0.0
 46
0.0
 47
0.1
 48
0.1
140
0.12
141
0.0
142
0.0
143
25.3999999999999986
144
1.0
145
0.0
146
0.71
147
0.06
 71
     0
 72
     0
 73
     1
 74
     1
 75
     1
 76
     1
 77
     0
 78
     7
170
     0
171
     2
172
     0
173
     1
174
     0
175
     0
176
   256
177
   256
178
     2
  0
ENDTAB
  0
ENDSEC
  0
SECTION
  2
BLOCKS
  0
BLOCK
  8
0
  2
$MODEL_SPACE
 70
     0
 10
0.0
 20
0.0
 30
0.0
  3
$MODEL_SPACE
  1

  0
ENDBLK
  5
DC4
  8
0
  0
BLOCK
 67
     1
  8
0
  2
$PAPER_SPACE
 70
     0
 10
0.0
 20
0.0
 30
0.0
  3
$PAPER_SPACE
  1

  0
ENDBLK
  5
DC0
 67
     1
  8
0
  0
BLOCK
  8
0
  2
_OPEN
 70
     0
 10
0.0
 20
0.0
 30
0.0
  3
_OPEN
  1

  0
LINE
  5
595
  8
0
  6
BYBLOCK
 62
     0
 10
-1.0
 20
0.16666667
 30
0.0
 11
0.0
 21
0.0
 31
0.0
  0
LINE
  5
596
  8
0
  6
BYBLOCK
 62
     0
 10
-1.0
 20
-0.16666667
 30
0.0
 11
0.0
 21
0.0
 31
0.0
  0
LINE
  5
597
  8
0
  6
BYBLOCK
 62
     0
 10
0.0
 20
0.0
 30
0.0
 11
-1.0
 21
0.0
 31
0.0
  0
ENDBLK
  5
599
  8
0
  0
BLOCK
  8
0
  2
矢印なし
 70
     0
 10
0.0
 20
0.0
 30
0.0
  3
矢印なし
  1

  0
ENDBLK
  5
6E5
  8
0
  0
BLOCK
  8
0
  2
_ACMFILLEDHALF
 70
     0
 10
0.0
 20
0.0
 30
0.0
  3
_ACMFILLEDHALF
  1

  0
TRACE
  5
E6F
  8
240
 62
     0
 10
-0.8
 20
0.0
 30
0.0
 11
-1.0
 21
0.166666666
 31
0.0
 12
0.0
 22
0.0
 32
0.0
 13
0.0
 23
0.0
 33
0.0
  0
LINE
  5
E70
  8
240
 62
     0
 10
-1.0
 20
0.0
 30
0.0
 11
-0.8
 21
0.0
 31
0.0
  0
ENDBLK
  5
E6E
  8
0
  0
ENDSEC
  0
SECTION
  2
ENTITIES
  0
INSERT
  5
6E6
  8
245
  2
矢印なし
 10
175.6238269700000103
 20
90.551235719999994
 30
0.0
  0
LINE
  5
8C5
  8
250
  6
CONTINUOUS
 10
61.4382436899999931
 20
34.4490983299999982
 30
0.0
 11
74.5049103500000029
 21
34.4490983299999982
 31
0.0
1001
ITEMNAME
1000
LNSP2
  0
LINE
  5
8CD
  8
250
  6
CONTINUOUS
 10
-32.0891430799999995
 20
-28.3439190100000005
 30
0.0
 11
-45.1558097500000031
 21
-28.3439190100000005
 31
0.0
1001
ITEMNAME
1000
LNSP2
  0
TEXT
  5
8D3
  8
241
  6
CONTINUOUS
 10
-40.0
 20
56.0
 30
0.0
 40
5.0
  1
CKB63-56
  7
YOKO
 11
-40.0
 21
56.0
 31
0.0
 73
     1
  0
LINE
  5
AFD
  8
243
  6
HIDDEN2
 10
34.0
 20
9.0
 30
0.0
 11
56.0
 21
9.0
 31
0.0
  0
LINE
  5
AFE
  8
245
  6
CENTER2
 10
57.0
 20
0.0
 30
0.0
 11
-41.0
 21
0.0
 31
0.0
  0
LINE
  5
AFF
  8
240
  6
CONTINUOUS
 10
56.0
 20
15.5
 30
0.0
 11
17.0
 21
15.5
 31
0.0
  0
LINE
  5
B00
  8
240
  6
CONTINUOUS
 10
56.0
 20
-15.5
 30
0.0
 11
17.0
 21
-15.5
 31
0.0
  0
LINE
  5
B01
  8
240
  6
CONTINUOUS
 10
12.0
 20
32.0
 30
0.0
 11
12.0
 21
20.5
 31
0.0
  0
LINE
  5
B02
  8
240
  6
CONTINUOUS
 10
0.0
 20
32.0
 30
0.0
 11
0.0
 21
18.0
 31
0.0
  0
LINE
  5
B03
  8
240
  6
CONTINUOUS
 10
-15.9557259400000007
 20
-18.0
 30
0.0
 11
-40.0
 21
-18.0
 31
0.0
  0
LINE
  5
B06
  8
240
  6
CONTINUOUS
 10
-40.0
 20
18.0
 30
0.0
 11
-15.9557259400000007
 21
18.0
 31
0.0
  0
LINE
  5
B08
  8
240
  6
CONTINUOUS
 10
-40.0
 20
-18.0
 30
0.0
 11
-40.0
 21
18.0
 31
0.0
  0
LINE
  5
B0B
  8
240
  6
CONTINUOUS
 10
0.0
 20
-32.0
 30
0.0
 11
0.0
 21
-18.0
 31
0.0
  0
LINE
  5
B0C
  8
240
  6
CONTINUOUS
 10
12.0
 20
-32.0
 30
0.0
 11
12.0
 21
-20.5
 31
0.0
  0
LINE
  5
B0D
  8
240
  6
CONTINUOUS
 10
12.0
 20
-32.0
 30
0.0
 11
0.0
 21
-32.0
 31
0.0
  0
CIRCLE
  5
B10
  8
241
  6
CONTINUOUS
 10
-16.0
 20
0.0
 30
0.0
 40
4.5
  0
CIRCLE
  5
B11
  8
241
  6
CONTINUOUS
 10
-16.0
 20
0.0
 30
0.0
 40
6.0
  0
LINE
  5
B14
  8
245
  6
CENTER2
 10
-16.0
 20
7.0
 30
0.0
 11
-16.0
 21
-7.0
 31
0.0
  0
LINE
  5
B15
  8
240
  6
CONTINUOUS
 10
-13.9349999950000001
 20
-21.5
 30
0.0
 11
-3.9650000049999989
 21
-21.5
 31
0.0
  0
LINE
  5
B16
  8
241
  6
CONTINUOUS
 10
-1.9442740599999979
 20
-18.0
 30
0.0
 11
-15.9557259400000007
 21
-18.0
 31
0.0
  0
LINE
  5
B17
  8
240
  6
CONTINUOUS
 10
-15.9557259400000007
 20
-18.0
 30
0.0
 11
-13.9349999950000001
 21
-21.5
 31
0.0
  0
LINE
  5
B19
  8
241
  6
CONTINUOUS
 10
0.0
 20
-18.0
 30
0.0
 11
0.0
 21
18.0
 31
0.0
  0
LINE
  5
B1A
  8
240
  6
CONTINUOUS
 10
-1.9442740599999979
 20
-18.0
 30
0.0
 11
-3.9650000049999989
 21
-21.5
 31
0.0
  0
LINE
  5
B1C
  8
240
  6
CONTINUOUS
 10
0.0
 20
-18.0
 30
0.0
 11
-1.9442740599999979
 21
-18.0
 31
0.0
  0
LINE
  5
B1E
  8
240
  6
CONTINUOUS
 10
-13.9349999950000001
 20
21.5
 30
0.0
 11
-3.9650000049999989
 21
21.5
 31
0.0
  0
LINE
  5
B1F
  8
241
  6
CONTINUOUS
 10
-1.9442740599999979
 20
18.0
 30
0.0
 11
-15.9557259400000007
 21
18.0
 31
0.0
  0
LINE
  5
B20
  8
240
  6
CONTINUOUS
 10
-15.9557259400000007
 20
18.0
 30
0.0
 11
-13.9349999950000001
 21
21.5
 31
0.0
  0
LINE
  5
B22
  8
240
  6
CONTINUOUS
 10
-1.9442740599999979
 20
18.0
 30
0.0
 11
-3.9650000049999989
 21
21.5
 31
0.0
  0
LINE
  5
B24
  8
240
  6
CONTINUOUS
 10
0.0
 20
18.0
 30
0.0
 11
-1.9442740599999979
 21
18.0
 31
0.0
  0
LINE
  5
B27
  8
241
  6
CONTINUOUS
 10
12.0
 20
20.5
 30
0.0
 11
12.0
 21
-20.5
 31
0.0
  0
ARC
  5
B28
  8
240
  6
CONTINUOUS
 10
17.0
 20
-20.5
 30
0.0
 40
5.0
 50
90.0
 51
180.0
  0
ARC
  5
B29
  8
240
  6
CONTINUOUS
 10
17.0
 20
20.5
 30
0.0
 40
5.0
 50
180.0
 51
270.0
  0
LINE
  5
B2A
  8
240
  6
CONTINUOUS
 10
12.0
 20
32.0
 30
0.0
 11
0.0
 21
32.0
 31
0.0
  0
LINE
  5
B2D
  8
240
  6
CONTINUOUS
 10
56.0
 20
15.5
 30
0.0
 11
56.0
 21
0.0
 31
0.0
  0
LINE
  5
B2E
  8
245
  6
CENTER2
 10
48.0
 20
4.0
 30
0.0
 11
48.0
 21
-4.0
 31
0.0
1001
GRPNAME
1000
PASTMD1U
  0
LINE
  5
B2F
  8
240
  6
CONTINUOUS
 10
56.0
 20
-15.5
 30
0.0
 11
56.0
 21
0.0
 31
0.0
  0
CIRCLE
  5
B30
  8
241
  6
CONTINUOUS
 10
48.0
 20
0.0
 30
0.0
 40
3.0
  0
CIRCLE
  5
B31
  8
242
  6
CONTINUOUS
 10
48.0
 20
0.0
 30
0.0
 40
2.649999999999999
  0
LINE
  5
B34
  8
241
  6
CONTINUOUS
 10
46.5
 20
-0.8660253999999999
 30
0.0
 11
48.0
 21
-1.7320508100000001
 31
0.0
  0
LINE
  5
B35
  8
241
  6
CONTINUOUS
 10
48.0
 20
-1.7320508100000001
 30
0.0
 11
49.5
 21
-0.8660253999999999
 31
0.0
  0
LINE
  5
B36
  8
241
  6
CONTINUOUS
 10
49.5
 20
-0.8660253999999999
 30
0.0
 11
49.5
 21
0.8660253999999999
 31
0.0
  0
LINE
  5
B37
  8
241
  6
CONTINUOUS
 10
49.5
 20
0.8660253999999999
 30
0.0
 11
48.0
 21
1.7320508100000001
 31
0.0
  0
LINE
  5
B38
  8
241
  6
CONTINUOUS
 10
48.0
 20
1.7320508100000001
 30
0.0
 11
46.5
 21
0.8660253999999999
 31
0.0
  0
LINE
  5
B39
  8
241
  6
CONTINUOUS
 10
46.5
 20
0.8660253999999999
 30
0.0
 11
46.5
 21
-0.8660253999999999
 31
0.0
  0
TEXT
  5
B3A
  8
250
  6
CONTINUOUS
 10
-42.7558097499999903
 20
-27.3439190100000005
 30
0.0
 40
2.799999999999998
  1
CK6
  7
YOKO
1001
ITEMNAME
1000
LNSP3
1001
ACAD
1000
MTEXTBEGIN
1070
    73
1070
     1
1070
    44
1040
1.0
1070
    74
1070
     0
1000
MTEXTEND
1000
MTEXTBEGIN
1070
    73
1070
     1
1070
    44
1040
1.0
1070
    74
1070
     0
1000
MTEXTEND
  0
TEXT
  5
B3D
  8
250
  6
CONTINUOUS
 10
63.8382436899999988
 20
35.4490983299999982
 30
0.0
 40
2.799999999999998
  1
CK3
  7
YOKO
1001
ITEMNAME
1000
LNSP3
1001
ACAD
1000
MTEXTBEGIN
1070
    73
1070
     1
1070
    44
1040
1.0
1070
    74
1070
     0
1000
MTEXTEND
1000
MTEXTBEGIN
1070
    73
1070
     1
1070
    44
1040
1.0
1070
    74
1070
     0
1000
MTEXTEND
  0
LINE
  5
B40
  8
250
  6
CONTINUOUS
 10
0.0
 20
32.5
 30
0.0
 11
0.0
 21
43.0
 31
0.0
  0
LINE
  5
B41
  8
250
  6
CONTINUOUS
 10
56.0
 20
16.0
 30
0.0
 11
56.0
 21
43.0
 31
0.0
  0
LINE
  5
B42
  8
250
  6
CONTINUOUS
 10
2.2299999999999991
 20
42.0
 30
0.0
 11
53.7700000000000031
 21
42.0
 31
0.0
  0
LINE
  5
B46
  8
250
  6
CONTINUOUS
 10
56.5
 20
-15.5
 30
0.0
 11
69.0
 21
-15.5
 31
0.0
  0
LINE
  5
B47
  8
250
  6
CONTINUOUS
 10
56.5
 20
15.5
 30
0.0
 11
69.0
 21
15.5
 31
0.0
  0
LINE
  5
B48
  8
250
  6
CONTINUOUS
 10
68.0
 20
-13.2699999999999996
 30
0.0
 11
68.0
 21
13.2699999999999996
 31
0.0
  0
LINE
  5
B4C
  8
250
  6
CONTINUOUS
 10
-27.2320786593139808
 20
-19.9312366508353698
 30
0.0
 11
-32.0891430799999995
 21
-28.3439190100000005
 31
0.0
1001
ACAD
1000
DSTYLE
1002
{
1070
     6
1000
OPEN
1070
   343
1005
594
1002
}
  0
LINE
  5
B4D
  8
250
  6
CONTINUOUS
 10
-27.5539514408906712
 20
-19.7454033138997005
 30
0.0
 11
-26.1170786600000007
 21
-18.0
 31
0.0
  0
LINE
  5
B4E
  8
250
  6
CONTINUOUS
 10
-26.910205877737301
 20
-20.1170699877710284
 30
0.0
 11
-26.1170786600000007
 21
-18.0
 31
0.0
  0
LINE
  5
B4F
  8
250
  6
CONTINUOUS
 10
-26.1170786600000007
 20
-18.0
 30
0.0
 11
-27.2320786593139808
 21
-19.9312366508353698
 31
0.0
  0
LINE
  5
B50
  8
250
  6
CONTINUOUS
 10
51.6129766606324196
 20
17.4312366500741582
 30
0.0
 11
61.4382436899999931
 21
34.4490983299999982
 31
0.0
1001
ACAD
1000
DSTYLE
1002
{
1070
     6
1000
OPEN
1070
   343
1005
594
1002
}
  0
LINE
  5
B51
  8
250
  6
CONTINUOUS
 10
51.9348494420822604
 20
17.2454033129187607
 30
0.0
 11
50.497976659999992
 21
15.5
 31
0.0
  0
LINE
  5
B52
  8
250
  6
CONTINUOUS
 10
51.2911038791826002
 20
17.61706998722957
 30
0.0
 11
50.497976659999992
 21
15.5
 31
0.0
  0
LINE
  5
B53
  8
250
  6
CONTINUOUS
 10
50.497976659999992
 20
15.5
 30
0.0
 11
51.6129766606324196
 21
17.4312366500741582
 31
0.0
  0
TEXT
  5
B54
  8
250
  6
CONTINUOUS
 10
25.3333333333333393
 20
43.0
 30
0.0
 40
2.799999999999998
  1
56
1001
ACAD
1000
MTEXTBEGIN
1070
    73
1070
     1
1070
    44
1040
1.0
1070
    74
1070
     0
1000
MTEXTEND
  0
LINE
  5
B55
  8
250
  6
CONTINUOUS
 10
53.7700000000000031
 20
42.3716666740999983
 30
0.0
 11
56.0
 21
42.0
 31
0.0
  0
LINE
  5
B56
  8
250
  6
CONTINUOUS
 10
53.7700000000000031
 20
41.6283333258999875
 30
0.0
 11
56.0
 21
42.0
 31
0.0
  0
LINE
  5
B57
  8
250
  6
CONTINUOUS
 10
56.0
 20
42.0
 30
0.0
 11
53.7700000000000031
 21
42.0
 31
0.0
  0
LINE
  5
B58
  8
250
  6
CONTINUOUS
 10
2.2299999999999991
 20
41.6283333258999875
 30
0.0
 11
0.0
 21
42.0
 31
0.0
  0
LINE
  5
B59
  8
250
  6
CONTINUOUS
 10
2.2299999999999991
 20
42.3716666740999983
 30
0.0
 11
0.0
 21
42.0
 31
0.0
  0
LINE
  5
B5A
  8
250
  6
CONTINUOUS
 10
0.0
 20
42.0
 30
0.0
 11
2.2299999999999991
 21
42.0
 31
0.0
  0
TEXT
  5
B5B
  8
250
  6
CONTINUOUS
 10
66.9999999999999858
 20
-3.533333333333331
 30
0.0
 40
2.799999999999998
  1
\U+220531
 50
90.0
1001
ACAD
1000
MTEXTBEGIN
1070
    73
1070
     1
1070
    44
1040
1.0
1070
    74
1070
     0
1000
MTEXTEND
  0
LINE
  5
B5C
  8
250
  6
CONTINUOUS
 10
67.6283333259000017
 20
13.2699999999999996
 30
0.0
 11
68.0
 21
15.5
 31
0.0
  0
LINE
  5
B5D
  8
250
  6
CONTINUOUS
 10
68.3716666740999983
 20
13.2699999999999996
 30
0.0
 11
68.0
 21
15.5
 31
0.0
  0
LINE
  5
B5E
  8
250
  6
CONTINUOUS
 10
68.0
 20
15.5
 30
0.0
 11
68.0
 21
13.2699999999999996
 31
0.0
  0
LINE
  5
B5F
  8
250
  6
CONTINUOUS
 10
68.3716666740999983
 20
-13.2699999999999996
 30
0.0
 11
68.0
 21
-15.5
 31
0.0
  0
LINE
  5
B60
  8
250
  6
CONTINUOUS
 10
67.6283333259000017
 20
-13.2699999999999996
 30
0.0
 11
68.0
 21
-15.5
 31
0.0
  0
LINE
  5
B61
  8
250
  6
CONTINUOUS
 10
68.0
 20
-15.5
 30
0.0
 11
68.0
 21
-13.2699999999999996
 31
0.0
  0
LINE
  5
B62
  8
243
  6
HIDDEN2
 10
34.0
 20
-9.0
 30
0.0
 11
56.0
 21
-9.0
 31
0.0
  0
LINE
  5
C02
  8
247
  6
CONTINUOUS
 10
7.9999999999999529
 20
-24.000000000069889
 30
0.0
 11
7.9999999999999583
 21
-17.307692308029889
 31
0.0
  0
ARC
  5
C03
  8
247
  6
CONTINUOUS
 10
6.2500000000699583
 20
-24.000000000069889
 30
0.0
 40
1.7499999999299991
 50
180.0
 51
0.0
  0
ARC
  5
C04
  8
247
  6
CONTINUOUS
 10
6.2500000000699583
 20
-17.307692308029889
 30
0.0
 40
1.7499999999299991
 50
0.0
 51
180.0
  0
LINE
  5
C05
  8
247
  6
CONTINUOUS
 10
4.5000000001399583
 20
-23.1346153847198899
 30
0.0
 11
7.5000000000199529
 21
-23.9948515419619
 31
0.0
  0
LINE
  5
C06
  8
247
  6
CONTINUOUS
 10
5.9230769231599583
 20
-22.2349838183357207
 30
0.0
 11
5.9230769231599583
 21
-23.5426761259757207
 31
0.0
  0
ARC
  5
C07
  8
247
  6
CONTINUOUS
 10
5.0495986677029343
 20
-21.8951438160896714
 30
0.0
 40
0.5538165441895349
 50
72.9978896752916171
 51
172.9241662185123118
  0
ARC
  5
C08
  8
247
  6
CONTINUOUS
 10
4.9360330444657343
 20
-22.3168783230286714
 30
0.0
 40
0.9904354236226808
 50
4.7429368522013933
 51
73.8492262732676181
1001
GENIUS_GENOBJ-N-FIL_13
1002
{
1000
OWNER
1000
GEN
1002
}
1001
GENIUS_GENODEF_13
1002
{
1000
HIER
1070
     0
1002
}
1002
{
1000
MANEDIT
1070
     0
1002
}
1002
{
1000
NOSEL
1070
     0
1002
}
1002
{
1000
BEHIND
1070
     0
1002
}
1002
{
1000
OTHER
1070
     0
1002
}
1002
{
1000
REACTOR
1002
}
  0
LINE
  5
C09
  8
247
  6
CONTINUOUS
 10
7.5000000000199529
 20
-22.6871592343219
 30
0.0
 11
7.5000000000199529
 21
-23.9948515419619
 31
0.0
  0
LINE
  5
C0A
  8
247
  6
CONTINUOUS
 10
4.5000000001399583
 20
-23.1346153847198899
 30
0.0
 11
4.5000000001399592
 21
-21.8269230770799005
 31
0.0
  0
ARC
  5
C0B
  8
247
  6
CONTINUOUS
 10
6.4820242326655091
 20
-22.3109196365468598
 30
0.0
 40
0.5640818586791229
 50
65.9909416525305801
 51
172.2634434590694923
  0
ARC
  5
C0C
  8
247
  6
CONTINUOUS
 10
6.487429039186547
 20
-22.788262685346961
 30
0.0
 40
1.0176059446230981
 50
5.7019851642581392
 51
77.2773384368208838
1001
GENIUS_GENOBJ-N-FIL_13
1002
{
1000
OWNER
1000
GEN
1002
}
1001
GENIUS_GENODEF_13
1002
{
1000
HIER
1070
     0
1002
}
1002
{
1000
MANEDIT
1070
     0
1002
}
1002
{
1000
NOSEL
1070
     0
1002
}
1002
{
1000
BEHIND
1070
     0
1002
}
1002
{
1000
OTHER
1070
     0
1002
}
1002
{
1000
REACTOR
1002
}
  0
LINE
  5
C0D
  8
247
  6
CONTINUOUS
 10
7.5000000000199529
 20
-21.0333130805419017
 30
0.0
 11
4.5000000001399592
 21
-20.1730769232998917
 31
0.0
  0
LINE
  5
C0E
  8
247
  6
CONTINUOUS
 10
4.5000000001399592
 20
-17.7500000003198792
 30
0.0
 11
4.5000000001399592
 21
-18.3157366194564801
 31
0.0
  0
LINE
  5
C0F
  8
247
  6
CONTINUOUS
 10
7.5000000000199529
 20
-19.2115384617998899
 30
0.0
 11
7.5000000000199529
 21
-18.5961538464398899
 31
0.0
  0
ARC
  5
C10
  8
247
  6
CONTINUOUS
 10
6.5832851359733411
 20
-17.4587912091227402
 30
0.0
 40
2.2526500823422122
 50
202.3594881415268105
 51
254.9932485428466009
  0
ARC
  5
C11
  8
247
  6
CONTINUOUS
 10
5.308312655194471
 20
-18.1240694792131087
 30
0.0
 40
0.8906723995727782
 50
94.9945893190751036
 51
155.1663289573035911
1001
GENIUS_GENOBJ-N-FIL_13
1002
{
1000
OWNER
1000
GEN
1002
}
1001
GENIUS_GENODEF_13
1002
{
1000
HIER
1070
     0
1002
}
1002
{
1000
MANEDIT
1070
     0
1002
}
1002
{
1000
NOSEL
1070
     0
1002
}
1002
{
1000
BEHIND
1070
     0
1002
}
1002
{
1000
OTHER
1070
     0
1002
}
1002
{
1000
REACTOR
1002
}
  0
ARC
  5
C12
  8
247
  6
CONTINUOUS
 10
6.1601458886677172
 20
-18.9764588862124803
 30
0.0
 40
1.392781735586712
 50
15.8460965557792495
 51
82.325137004170557
  0
ARC
  5
C13
  8
247
  6
CONTINUOUS
 10
6.459243431527244
 20
-18.3922127258402384
 30
0.0
 40
1.324563662670287
 50
249.7136016704980932
 51
321.7887456564076842
1001
GENIUS_GENOBJ-N-FIL_13
1002
{
1000
OWNER
1000
GEN
1002
}
1001
GENIUS_GENODEF_13
1002
{
1000
HIER
1070
     0
1002
}
1002
{
1000
MANEDIT
1070
     0
1002
}
1002
{
1000
NOSEL
1070
     0
1002
}
1002
{
1000
BEHIND
1070
     0
1002
}
1002
{
1000
OTHER
1070
     0
1002
}
1002
{
1000
REACTOR
1002
}
  0
LINE
  5
C14
  8
247
  6
CONTINUOUS
 10
6.3461538462199591
 20
-18.2884615387598899
 30
0.0
 11
6.3461538462199591
 21
-17.5961538464798792
 31
0.0
  0
LINE
  5
C15
  8
247
  6
CONTINUOUS
 10
4.5000000001399592
 20
-24.000000000069889
 30
0.0
 11
4.5000000001399592
 21
-23.3269230770198917
 31
0.0
  0
VIEWPORT
  5
22
 67
     1
  8
0
 10
261.5176991199999748
 20
148.5
 30
0.0
 40
523.0353982300000553
 41
297.0
 68
     1
 69
     1
1001
ACAD
1000
MVIEW
1002
{
1070
    16
1010
0.0
1020
0.0
1030
0.0
1010
0.0
1020
0.0
1030
1.0
1040
0.0
1040
297.0
1040
261.5176991199999748
1040
148.5
1040
50.0
1040
0.0
1040
0.0
1070
     0
1070
   100
1070
     1
1070
     1
1070
     0
1070
     0
1070
     0
1070
     0
1040
0.0
1040
0.0
1040
0.0
1040
1.0
1040
1.0
1040
10.0
1040
10.0
1070
     0
1002
{
1002
}
1002
}
1001
GENIUS_GENODEF_13
1002
{
1000
HIER
1070
     0
1002
}
1002
{
1000
MANEDIT
1070
     0
1002
}
1002
{
1000
NOSEL
1070
     0
1002
}
1002
{
1000
BEHIND
1070
     0
1002
}
1002
{
1000
OTHER
1070
     0
1002
}
1002
{
1000
REACTOR
1002
}
1001
GENIUS_GENOBJ-N-SDF_13
1002
{
1000
OWNER
1000
GEN
1002
}
1001
GENIUS_GENSCREG_15
1000
PF
1040
1.0
1000
DF
1040
1.0
1000
MIN
1011
0.0000000049999471
1021
0.0
1031
0.0
1021
0.0
1031
0.0
1000
MAX
1011
523.0353982350000024
1021
0.0
1031
0.0
1021
297.0
1031
0.0
1000
FLAGS
1070
     4
  0
ENDSEC
  0
EOF
