  0
SECTION
  2
HEADER
  9
$ACADVER
  1
AC1009
  9
$INSBASE
 10
0.0
 20
0.0
 30
0.0
  9
$EXTMIN
 10
-45.5304002299999979
 20
-32.0
 30
0.0
  9
$EXTMAX
 10
81.0276265199999983
 20
61.0000000000000071
 30
0.0
  9
$LIMMIN
 10
0.0
 20
0.0
  9
$LIMMAX
 10
420.0
 20
297.0
  9
$ORTHOMODE
 70
     0
  9
$REGENMODE
 70
     1
  9
$FILLMODE
 70
     1
  9
$QTEXTMODE
 70
     0
  9
$MIRRTEXT
 70
     1
  9
$DRAGMODE
 70
     2
  9
$LTSCALE
 40
10.0
  9
$OSMODE
 70
   807
  9
$ATTMODE
 70
     1
  9
$TEXTSIZE
 40
3.0
  9
$TRACEWID
 40
1.0
  9
$TEXTSTYLE
  7
YOKO
  9
$CLAYER
  8
240
  9
$CELTYPE
  6
BYLAYER
  9
$CECOLOR
 62
   256
  9
$DIMSCALE
 40
1.0
  9
$DIMASZ
 40
2.2299999999999991
  9
$DIMEXO
 40
0.5
  9
$DIMDLI
 40
2.5
  9
$DIMRND
 40
0.0
  9
$DIMDLE
 40
0.0
  9
$DIMEXE
 40
1.0
  9
$DIMTP
 40
0.0
  9
$DIMTM
 40
0.0
  9
$DIMTXT
 40
2.799999999999998
  9
$DIMCEN
 40
0.0
  9
$DIMTSZ
 40
0.0
  9
$DIMTOL
 70
     0
  9
$DIMLIM
 70
     0
  9
$DIMTIH
 70
     0
  9
$DIMTOH
 70
     0
  9
$DIMSE1
 70
     0
  9
$DIMSE2
 70
     0
  9
$DIMTAD
 70
     3
  9
$DIMZIN
 70
     8
  9
$DIMBLK
  1

  9
$DIMASO
 70
     1
  9
$DIMSHO
 70
     1
  9
$DIMPOST
  1

  9
$DIMAPOST
  1

  9
$DIMALT
 70
     0
  9
$DIMALTD
 70
     2
  9
$DIMALTF
 40
25.3999999999999986
  9
$DIMLFAC
 40
1.0
  9
$DIMTOFL
 70
     1
  9
$DIMTVP
 40
0.0
  9
$DIMTIX
 70
     1
  9
$DIMSOXD
 70
     0
  9
$DIMSAH
 70
     1
  9
$DIMBLK1
  1
OPEN
  9
$DIMBLK2
  1
OPEN
  9
$DIMSTYLE
  2
BIGT
  9
$DIMCLRD
 70
   256
  9
$DIMCLRE
 70
   256
  9
$DIMCLRT
 70
    40
  9
$DIMTFAC
 40
1.0
  9
$DIMGAP
 40
1.0
  9
$LUNITS
 70
     2
  9
$LUPREC
 70
     2
  9
$SKETCHINC
 40
1.0
  9
$FILLETRAD
 40
1.0
  9
$AUNITS
 70
     0
  9
$AUPREC
 70
     3
  9
$MENU
  1
.
  9
$ELEVATION
 40
0.0
  9
$PELEVATION
 40
0.0
  9
$THICKNESS
 40
0.0
  9
$LIMCHECK
 70
     0
  9
$BLIPMODE
 70
     0
  9
$CHAMFERA
 40
10.0
  9
$CHAMFERB
 40
10.0
  9
$SKPOLY
 70
     0
  9
$TDCREATE
 40
2455448.4657986108213663
  9
$TDUPDATE
 40
2458295.6829050928354263
  9
$TDINDWG
 40
0.0084074421
  9
$TDUSRTIMER
 40
0.0084074306
  9
$USRTIMER
 70
     1
  9
$ANGBASE
 50
0.0
  9
$ANGDIR
 70
     0
  9
$PDMODE
 70
     1
  9
$PDSIZE
 40
-5.0
  9
$PLINEWID
 40
0.0
  9
$COORDS
 70
     1
  9
$SPLFRAME
 70
     0
  9
$SPLINETYPE
 70
     6
  9
$SPLINESEGS
 70
     8
  9
$ATTDIA
 70
     1
  9
$ATTREQ
 70
     1
  9
$HANDLING
 70
     1
  9
$HANDSEED
  5
DDD
  9
$SURFTAB1
 70
     6
  9
$SURFTAB2
 70
     6
  9
$SURFTYPE
 70
     6
  9
$SURFU
 70
     6
  9
$SURFV
 70
     6
  9
$UCSNAME
  2

  9
$UCSORG
 10
0.0
 20
0.0
 30
0.0
  9
$UCSXDIR
 10
1.0
 20
0.0
 30
0.0
  9
$UCSYDIR
 10
0.0
 20
1.0
 30
0.0
  9
$PUCSNAME
  2

  9
$PUCSORG
 10
0.0
 20
0.0
 30
0.0
  9
$PUCSXDIR
 10
1.0
 20
0.0
 30
0.0
  9
$PUCSYDIR
 10
0.0
 20
1.0
 30
0.0
  9
$USERI1
 70
     1
  9
$USERI2
 70
     0
  9
$USERI3
 70
     0
  9
$USERI4
 70
     0
  9
$USERI5
 70
     0
  9
$USERR1
 40
0.0
  9
$USERR2
 40
0.0
  9
$USERR3
 40
0.0
  9
$USERR4
 40
0.0
  9
$USERR5
 40
0.0
  9
$WORLDVIEW
 70
     1
  9
$SHADEDGE
 70
     3
  9
$SHADEDIF
 70
    70
  9
$TILEMODE
 70
     1
  9
$MAXACTVP
 70
    16
  9
$PLIMCHECK
 70
     0
  9
$PEXTMIN
 10
1.0000000000000000E+20
 20
1.0000000000000000E+20
 30
1.0000000000000000E+20
  9
$PEXTMAX
 10
-1.0000000000000000E+20
 20
-1.0000000000000000E+20
 30
-1.0000000000000000E+20
  9
$PLIMMIN
 10
0.0
 20
0.0
  9
$PLIMMAX
 10
420.0
 20
297.0
  9
$UNITMODE
 70
     0
  9
$VISRETAIN
 70
     0
  9
$PLINEGEN
 70
     0
  9
$PSLTSCALE
 70
     1
  0
ENDSEC
  0
SECTION
  2
TABLES
  0
TABLE
  2
VPORT
 70
     1
  0
VPORT
  2
*ACTIVE
 70
     0
 10
0.0
 20
0.0
 11
1.0
 21
1.0
 12
39.2384612903667929
 22
12.2197070131999208
 13
0.0
 23
0.0
 14
7.0
 24
7.0
 15
7.0
 25
7.0
 16
0.0
 26
0.0
 36
1.0
 17
0.0
 27
0.0
 37
0.0
 40
149.9295489898794074
 41
1.887387387387387
 42
50.0
 43
0.0
 44
0.0
 50
0.0
 51
0.0
 71
     0
 72
  2000
 73
     1
 74
     0
 75
     0
 76
     1
 77
     0
 78
     0
  0
ENDTAB
  0
TABLE
  2
LTYPE
 70
    22
  0
LTYPE
  2
CONTINUOUS
 70
     0
  3
Solid line
 72
    65
 73
     0
 40
0.0
  0
LTYPE
  2
CENTER2
 70
     0
  3
___ _ ___ _ ___ _ ___ _ ___ _ ___ _ ___ _ ___ _
 72
    65
 73
     4
 40
1.125
 49
0.75
 49
-0.125
 49
0.125
 49
-0.125
  0
LTYPE
  2
HIDDEN2
 70
     0
  3
_ _ _ _ _ _ _ _ _ _ _ _ _ _ _ _ _ _ _ _ _ _ _ _
 72
    65
 73
     2
 40
0.1875
 49
0.125
 49
-0.0625
  0
LTYPE
  2
HIDDEN
 70
     0
  3
Hidden __ __ __ __ __ __ __ __ __ __ __ __ __ _
 72
    65
 73
     2
 40
9.5249999999999986
 49
6.3499999999999979
 49
-3.174999999999998
  0
LTYPE
  2
PHANTOM2
 70
     0
  3
Phantom (.5x) ___ _ _ ___ _ _ ___ _ _ ___ _ _
 72
    65
 73
     6
 40
31.75
 49
15.875
 49
-3.174999999999998
 49
3.174999999999998
 49
-3.174999999999998
 49
3.174999999999998
 49
-3.174999999999998
  0
LTYPE
  2
CENTER
 70
     0
  3
Center ____ _ ____ _ ____ _ ____ _ ____ _ ____
 72
    65
 73
     4
 40
50.7999999999999972
 49
31.75
 49
-6.3499999999999979
 49
6.3499999999999979
 49
-6.3499999999999979
  0
LTYPE
  2
AMCONSTR
 70
     0
  3
_______________________
 72
    65
 73
     2
 40
9999.0
 49
9999.0
 49
0.0
  0
LTYPE
  2
AMZIGZAG2
 70
     0
  3
/\/-/\/-/\/-/\/-/\/-/\/
 72
    65
 73
     2
 40
0.4401
 49
0.0001
 49
-0.4400000000000003
  0
LTYPE
  2
ACANSTGB
 70
     0
  3
__ . . __ . .
 72
    65
 73
     6
 40
0.35433070866
 49
0.15748031496
 49
-0.03937007874
 49
0.03937007874
 49
-0.03937007874
 49
0.03937007874
 49
-0.03937007874
  0
LTYPE
  2
ACANSTGL
 70
     0
  3
_ _ _ _ _
 72
    65
 73
     2
 40
0.11811023622
 49
0.07874015748
 49
-0.03937007874
  0
ENDTAB
  0
TABLE
  2
LAYER
 70
     9
  0
LAYER
  2
0
 70
     0
 62
     7
  6
CONTINUOUS
  0
LAYER
  2
240
 70
     0
 62
     4
  6
CONTINUOUS
  0
LAYER
  2
241
 70
     0
 62
   211
  6
CONTINUOUS
  0
LAYER
  2
242
 70
     0
 62
     3
  6
CONTINUOUS
  0
LAYER
  2
245
 70
     0
 62
     2
  6
CENTER2
  0
LAYER
  2
250
 70
     0
 62
     3
  6
CONTINUOUS
  0
LAYER
  2
DEFPOINTS
 70
     0
 62
     7
  6
CONTINUOUS
  0
LAYER
  2
247
 70
     0
 62
    60
  6
CONTINUOUS
  0
LAYER
  2
243
 70
     0
 62
   211
  6
HIDDEN2
  0
ENDTAB
  0
TABLE
  2
STYLE
 70
     9
  0
STYLE
  2
STANDARD
 70
     0
 40
0.0
 41
1.0
 50
0.0
 71
     0
 42
3.0
  3
romans.shx
  4
BIGFONT.SHX
  0
STYLE
  2
YOKO
 70
     0
 40
0.0
 41
1.0
 50
0.0
 71
     0
 42
3.0
  3
romans.shx
  4
extfont.shx
  0
STYLE
  2
ACANSGDT
 70
     0
 40
0.0
 41
1.0
 50
0.0
 71
     0
 42
3.0
  3
amgdt.shx
  4

  0
ENDTAB
  0
TABLE
  2
VIEW
 70
     0
  0
ENDTAB
  0
TABLE
  2
UCS
 70
     0
  0
ENDTAB
  0
TABLE
  2
APPID
 70
    26
  0
APPID
  2
ACAD
 70
     0
  0
APPID
  2
ACADANNOTATIVE
 70
     0
  0
APPID
  2
GLOBAL
 70
     0
  0
APPID
  2
DETAIL
 70
     0
  0
APPID
  2
GRPNAME
 70
     0
  0
APPID
  2
GPARA
 70
     0
  0
APPID
  2
DCO15
 70
     0
  0
APPID
  2
ITEMNAME
 70
     0
  0
APPID
  2
GRADE_0
 70
     0
  0
APPID
  2
CONTENTBLOCKICON
 70
     0
  0
APPID
  2
MCAD_NO_VIS
 70
     0
  0
APPID
  2
ACAD_TEMP_GRAPHIC
 70
     0
  0
APPID
  2
ACATTRIBSERVICES
 70
     0
  0
APPID
  2
DESIGNERASSEMBLIES
 70
     0
  0
APPID
  2
ACAD_DSTYLE_DIMJAG
 70
     0
  0
APPID
  2
ACAD_DSTYLE_DIMBREAK
 70
     0
  0
APPID
  2
GENIUS_GENSCREG_15
 70
     0
  0
APPID
  2
GENIUS_GENOBJ-N-SDF_13
 70
     0
  0
APPID
  2
GENIUS_GENODEF_13
 70
     0
  0
APPID
  2
ACAD_NAV_VCDISPLAY
 70
     0
  0
APPID
  2
ACAECLAYERSTANDARD
 70
     0
  0
APPID
  2
GENIUS_GENDTOL_13
 70
     0
  0
APPID
  2
ACAD_DSTYLE_DIMINSPECT
 70
     0
  0
APPID
  2
GENIUS_GENOBJ-N-FIL_13
 70
     0
  0
APPID
  2
ACAD_MLEADERVER
 70
     0
  0
APPID
  2
ACAD_EXEMPT_FROM_CAD_STANDARDS
 70
     0
  0
ENDTAB
  0
TABLE
  2
DIMSTYLE
 70
    24
  0
DIMSTYLE
  2
STANDARD
 70
     0
  3

  4

  5

  6

  7

 40
1.0
 41
0.18
 42
0.0625
 43
0.38
 44
0.18
 45
0.0
 46
0.0
 47
0.0
 48
0.0
140
0.18
141
0.09
142
0.0
143
25.3999999999999986
144
1.0
145
0.0
146
1.0
147
0.09
 71
     0
 72
     0
 73
     1
 74
     1
 75
     0
 76
     0
 77
     0
 78
     0
170
     0
171
     2
172
     0
173
     0
174
     0
175
     0
176
     0
177
     0
178
     0
  0
DIMSTYLE
  2
BIGT
 70
     0
  3

  4

  5

  6

  7

 40
1.0
 41
2.2299999999999991
 42
0.5
 43
2.5
 44
1.0
 45
0.0
 46
0.0
 47
0.0
 48
0.0
140
2.799999999999998
141
0.0
142
0.0
143
25.3999999999999986
144
1.0
145
0.0
146
1.0
147
1.0
 71
     0
 72
     0
 73
     0
 74
     0
 75
     0
 76
     0
 77
     3
 78
     8
170
     0
171
     2
172
     1
173
     1
174
     1
175
     0
176
   256
177
   256
178
    40
  0
DIMSTYLE
  2
AM_ANSI
 70
     0
  3

  4
mm
  5

  6

  7

 40
1.0
 41
0.1
 42
0.05
 43
0.5
 44
0.1
 45
0.0
 46
0.0
 47
0.1
 48
0.1
140
0.12
141
0.0
142
0.0
143
25.3999999999999986
144
1.0
145
0.0
146
0.71
147
0.06
 71
     0
 72
     0
 73
     1
 74
     1
 75
     0
 76
     0
 77
     0
 78
     7
170
     0
171
     2
172
     0
173
     0
174
     0
175
     0
176
   256
177
   256
178
     2
  0
DIMSTYLE
  2
AM_ANSI$3
 70
     0
  3

  4
mm
  5

  6

  7

 40
1.0
 41
0.1
 42
0.05
 43
0.5
 44
0.1
 45
0.0
 46
0.0
 47
0.1
 48
0.1
140
0.12
141
0.0
142
0.0
143
25.3999999999999986
144
1.0
145
0.0
146
0.71
147
0.06
 71
     0
 72
     0
 73
     1
 74
     1
 75
     0
 76
     0
 77
     0
 78
     7
170
     0
171
     2
172
     0
173
     0
174
     0
175
     0
176
   256
177
   256
178
     2
  0
DIMSTYLE
  2
AM_ANSI$4
 70
     0
  3

  4
mm
  5

  6

  7

 40
1.0
 41
0.1
 42
0.05
 43
0.5
 44
0.1
 45
0.0
 46
0.0
 47
0.1
 48
0.1
140
0.12
141
0.0
142
0.0
143
25.3999999999999986
144
1.0
145
0.0
146
0.71
147
0.06
 71
     0
 72
     0
 73
     1
 74
     1
 75
     0
 76
     0
 77
     0
 78
     7
170
     0
171
     2
172
     0
173
     0
174
     0
175
     0
176
   256
177
   256
178
     2
  0
DIMSTYLE
  2
AM_ANSI$7
 70
     0
  3

  4
mm
  5

  6

  7

 40
1.0
 41
0.1
 42
0.05
 43
0.5
 44
0.1
 45
0.0
 46
0.0
 47
0.1
 48
0.1
140
0.24
141
0.0
142
0.0
143
25.3999999999999986
144
1.0
145
0.0
146
0.71
147
0.06
 71
     0
 72
     0
 73
     1
 74
     1
 75
     0
 76
     0
 77
     0
 78
     7
170
     0
171
     2
172
     0
173
     0
174
     0
175
     0
176
   256
177
   256
178
     2
  0
DIMSTYLE
  2
AM_ANSI$SF
 70
     0
  3

  4
mm
  5

  6

  7

 40
1.0
 41
0.1
 42
0.05
 43
0.5
 44
0.1
 45
0.0
 46
0.0
 47
0.1
 48
0.1
140
0.12
141
0.0
142
0.0
143
25.3999999999999986
144
1.0
145
0.0
146
0.71
147
0.06
 71
     0
 72
     0
 73
     1
 74
     1
 75
     1
 76
     1
 77
     0
 78
     7
170
     0
171
     2
172
     0
173
     0
174
     0
175
     0
176
   256
177
   256
178
     2
  0
DIMSTYLE
  2
AM_ANSI$SH
 70
     0
  3

  4
mm
  5

  6

  7

 40
1.0
 41
0.1
 42
0.05
 43
0.5
 44
0.1
 45
0.0
 46
0.0
 47
0.1
 48
0.1
140
0.12
141
0.0
142
0.0
143
25.3999999999999986
144
1.0
145
0.0
146
0.71
147
0.06
 71
     0
 72
     0
 73
     1
 74
     1
 75
     1
 76
     1
 77
     0
 78
     7
170
     0
171
     2
172
     0
173
     1
174
     0
175
     0
176
   256
177
   256
178
     2
  0
ENDTAB
  0
ENDSEC
  0
SECTION
  2
BLOCKS
  0
BLOCK
  8
0
  2
$MODEL_SPACE
 70
     0
 10
0.0
 20
0.0
 30
0.0
  3
$MODEL_SPACE
  1

  0
ENDBLK
  5
CB0
  8
0
  0
BLOCK
 67
     1
  8
0
  2
$PAPER_SPACE
 70
     0
 10
0.0
 20
0.0
 30
0.0
  3
$PAPER_SPACE
  1

  0
ENDBLK
  5
CAC
 67
     1
  8
0
  0
BLOCK
  8
0
  2
_OPEN
 70
     0
 10
0.0
 20
0.0
 30
0.0
  3
_OPEN
  1

  0
LINE
  5
595
  8
0
  6
BYBLOCK
 62
     0
 10
-1.0
 20
0.16666667
 30
0.0
 11
0.0
 21
0.0
 31
0.0
  0
LINE
  5
596
  8
0
  6
BYBLOCK
 62
     0
 10
-1.0
 20
-0.16666667
 30
0.0
 11
0.0
 21
0.0
 31
0.0
  0
LINE
  5
597
  8
0
  6
BYBLOCK
 62
     0
 10
0.0
 20
0.0
 30
0.0
 11
-1.0
 21
0.0
 31
0.0
  0
ENDBLK
  5
599
  8
0
  0
BLOCK
  8
0
  2
矢印なし
 70
     0
 10
0.0
 20
0.0
 30
0.0
  3
矢印なし
  1

  0
ENDBLK
  5
6E5
  8
0
  0
BLOCK
  8
0
  2
_ACMFILLEDHALF
 70
     0
 10
0.0
 20
0.0
 30
0.0
  3
_ACMFILLEDHALF
  1

  0
TRACE
  5
D5D
  8
240
 62
     0
 10
-0.8
 20
0.0
 30
0.0
 11
-1.0
 21
0.166666666
 31
0.0
 12
0.0
 22
0.0
 32
0.0
 13
0.0
 23
0.0
 33
0.0
  0
LINE
  5
D5E
  8
240
 62
     0
 10
-1.0
 20
0.0
 30
0.0
 11
-0.8
 21
0.0
 31
0.0
  0
ENDBLK
  5
D5C
  8
0
  0
ENDSEC
  0
SECTION
  2
ENTITIES
  0
INSERT
  5
6E6
  8
245
  2
矢印なし
 10
175.6238269700000103
 20
90.551235719999994
 30
0.0
  0
LINE
  5
8B2
  8
250
  6
CONTINUOUS
 10
68.7609598599999998
 20
21.7971587400000004
 30
0.0
 11
81.0276265199999983
 21
21.7971587400000004
 31
0.0
1001
ITEMNAME
1000
LNSP2
  0
LINE
  5
8BA
  8
250
  6
CONTINUOUS
 10
-32.4637335600000014
 20
-27.9608799700000006
 30
0.0
 11
-45.5304002299999979
 21
-27.9608799700000006
 31
0.0
1001
ITEMNAME
1000
LNSP2
  0
TEXT
  5
8C0
  8
241
  6
CONTINUOUS
 10
-40.0
 20
56.0
 30
0.0
 40
5.0
  1
CKB61-67
  7
YOKO
 11
-40.0
 21
56.0
 31
0.0
 73
     1
  0
LINE
  5
A40
  8
240
  6
CONTINUOUS
 10
-15.9557259400000007
 20
-18.0
 30
0.0
 11
-40.0
 21
-18.0
 31
0.0
  0
LINE
  5
A41
  8
240
  6
CONTINUOUS
 10
-40.0
 20
18.0
 30
0.0
 11
-15.9557259400000007
 21
18.0
 31
0.0
  0
LINE
  5
A42
  8
245
  6
CENTER2
 10
67.5
 20
0.0
 30
0.0
 11
-41.0
 21
0.0
 31
0.0
  0
LINE
  5
A43
  8
240
  6
CONTINUOUS
 10
-40.0
 20
18.0
 30
0.0
 11
-40.0
 21
-18.0
 31
0.0
  0
LINE
  5
A47
  8
240
  6
CONTINUOUS
 10
15.6666666652941196
 20
-32.0
 30
0.0
 11
25.7702963800000013
 21
-14.5
 31
0.0
  0
LINE
  5
A48
  8
241
  6
CONTINUOUS
 10
15.6666666699999997
 20
-31.816496579999999
 30
0.0
 11
15.6666666699999997
 21
31.816496579999999
 31
0.0
  0
LINE
  5
A49
  8
240
  6
CONTINUOUS
 10
0.0
 20
-32.0
 30
0.0
 11
0.0
 21
-18.0
 31
0.0
  0
LINE
  5
A4A
  8
240
  6
CONTINUOUS
 10
0.0
 20
-32.0
 30
0.0
 11
15.6666666652941196
 21
-32.0
 31
0.0
  0
LINE
  5
A4D
  8
243
  6
HIDDEN2
 10
52.5
 20
5.5
 30
0.0
 11
66.5
 21
5.5
 31
0.0
  0
LINE
  5
A4E
  8
240
  6
CONTINUOUS
 10
66.5
 20
-9.5
 30
0.0
 11
34.4305504200000101
 21
-9.5
 31
0.0
  0
LINE
  5
A4F
  8
240
  6
CONTINUOUS
 10
66.5
 20
9.5
 30
0.0
 11
34.4305504200000101
 21
9.5
 31
0.0
  0
LINE
  5
A50
  8
240
  6
CONTINUOUS
 10
0.0
 20
32.0
 30
0.0
 11
15.6666666652941196
 21
32.0
 31
0.0
  0
LINE
  5
A52
  8
245
  6
CENTER2
 10
-16.0
 20
7.0
 30
0.0
 11
-16.0
 21
-7.0
 31
0.0
  0
CIRCLE
  5
A54
  8
241
  6
CONTINUOUS
 10
-16.0
 20
0.0
 30
0.0
 40
4.5
  0
CIRCLE
  5
A55
  8
241
  6
CONTINUOUS
 10
-16.0
 20
0.0
 30
0.0
 40
6.0
  0
LINE
  5
A57
  8
241
  6
CONTINUOUS
 10
-1.9442740599999979
 20
-18.0
 30
0.0
 11
-15.9557259400000007
 21
-18.0
 31
0.0
  0
LINE
  5
A58
  8
240
  6
CONTINUOUS
 10
-15.9557259400000007
 20
-18.0
 30
0.0
 11
-13.9349999950000001
 21
-21.5
 31
0.0
  0
LINE
  5
A59
  8
241
  6
CONTINUOUS
 10
0.0
 20
-18.0
 30
0.0
 11
0.0
 21
18.0
 31
0.0
  0
LINE
  5
A5A
  8
240
  6
CONTINUOUS
 10
-1.9442740599999979
 20
-18.0
 30
0.0
 11
-3.9650000049999981
 21
-21.5
 31
0.0
  0
LINE
  5
A5B
  8
240
  6
CONTINUOUS
 10
-13.9349999950000001
 20
-21.5
 30
0.0
 11
-3.9650000049999981
 21
-21.5
 31
0.0
  0
LINE
  5
A5D
  8
240
  6
CONTINUOUS
 10
0.0
 20
-18.0
 30
0.0
 11
-1.9442740599999979
 21
-18.0
 31
0.0
  0
LINE
  5
A60
  8
241
  6
CONTINUOUS
 10
-1.9442740599999979
 20
18.0
 30
0.0
 11
-15.9557259400000007
 21
18.0
 31
0.0
  0
LINE
  5
A61
  8
240
  6
CONTINUOUS
 10
-15.9557259400000007
 20
18.0
 30
0.0
 11
-13.9349999950000001
 21
21.5
 31
0.0
  0
LINE
  5
A62
  8
240
  6
CONTINUOUS
 10
0.0
 20
32.0
 30
0.0
 11
0.0
 21
18.0
 31
0.0
  0
LINE
  5
A63
  8
240
  6
CONTINUOUS
 10
-1.9442740599999979
 20
18.0
 30
0.0
 11
-3.9650000049999989
 21
21.5
 31
0.0
  0
LINE
  5
A64
  8
240
  6
CONTINUOUS
 10
-13.9349999950000001
 20
21.5
 30
0.0
 11
-3.9650000049999989
 21
21.5
 31
0.0
  0
LINE
  5
A66
  8
240
  6
CONTINUOUS
 10
0.0
 20
18.0
 30
0.0
 11
-1.9442740599999979
 21
18.0
 31
0.0
  0
ARC
  5
A6A
  8
240
  6
CONTINUOUS
 10
34.4305504200000101
 20
-19.5
 30
0.0
 40
10.0
 50
90.0
 51
150.0
  0
LINE
  5
A6B
  8
241
  6
CONTINUOUS
 10
28.6570477200000013
 20
-11.33503419
 30
0.0
 11
28.6570477200000013
 21
11.33503419
 31
0.0
  0
ARC
  5
A6D
  8
240
  6
CONTINUOUS
 10
34.4305504200000101
 20
19.5
 30
0.0
 40
10.0
 50
210.0
 51
270.0
  0
LINE
  5
A6E
  8
240
  6
CONTINUOUS
 10
15.6666666652941196
 20
32.0
 30
0.0
 11
25.7702963800000013
 21
14.5
 31
0.0
  0
LINE
  5
A70
  8
240
  6
CONTINUOUS
 10
66.5
 20
9.5
 30
0.0
 11
66.5
 21
0.0
 31
0.0
  0
LINE
  5
A71
  8
240
  6
CONTINUOUS
 10
66.5
 20
-9.5
 30
0.0
 11
66.5
 21
0.0
 31
0.0
  0
CIRCLE
  5
A72
  8
242
  6
CONTINUOUS
 10
61.5
 20
0.0
 30
0.0
 40
1.75
  0
CIRCLE
  5
A73
  8
241
  6
CONTINUOUS
 10
61.5
 20
0.0
 30
0.0
 40
2.0
  0
LINE
  5
A74
  8
245
  6
CENTER2
 10
61.5
 20
3.0
 30
0.0
 11
61.5
 21
-3.0
 31
0.0
1001
GRPNAME
1000
PASTMD0W
  0
TEXT
  5
A77
  8
250
  6
CONTINUOUS
 10
-43.1304002299999993
 20
-26.9608799700000006
 30
0.0
 40
2.799999999999998
  1
CK6
  7
YOKO
1001
ITEMNAME
1000
LNSP3
1001
ACAD
1000
MTEXTBEGIN
1070
    73
1070
     1
1070
    44
1040
1.0
1070
    74
1070
     0
1000
MTEXTEND
  0
TEXT
  5
A7A
  8
250
  6
CONTINUOUS
 10
71.1609598599999771
 20
22.7971587400000004
 30
0.0
 40
2.799999999999998
  1
CK1
  7
YOKO
1001
ITEMNAME
1000
LNSP3
1001
ACAD
1000
MTEXTBEGIN
1070
    73
1070
     1
1070
    44
1040
1.0
1070
    74
1070
     0
1000
MTEXTEND
  0
LINE
  5
A7D
  8
250
  6
CONTINUOUS
 10
0.0
 20
32.5
 30
0.0
 11
0.0
 21
43.0
 31
0.0
  0
LINE
  5
A7E
  8
250
  6
CONTINUOUS
 10
66.5
 20
10.0
 30
0.0
 11
66.5
 21
43.0
 31
0.0
  0
LINE
  5
A7F
  8
250
  6
CONTINUOUS
 10
2.2299999999999991
 20
42.0
 30
0.0
 11
64.269999999999996
 21
42.0
 31
0.0
  0
LINE
  5
A83
  8
250
  6
CONTINUOUS
 10
67.0
 20
-9.5
 30
0.0
 11
78.0
 21
-9.5
 31
0.0
  0
LINE
  5
A84
  8
250
  6
CONTINUOUS
 10
67.0
 20
9.5
 30
0.0
 11
78.0
 21
9.5
 31
0.0
  0
LINE
  5
A85
  8
250
  6
CONTINUOUS
 10
77.0
 20
-7.2699999999999978
 30
0.0
 11
77.0
 21
7.2699999999999978
 31
0.0
  0
LINE
  5
A89
  8
241
  6
CONTINUOUS
 10
60.5
 20
-0.5773502700000001
 30
0.0
 11
61.5
 21
-1.1547005400000001
 31
0.0
  0
LINE
  5
A8A
  8
241
  6
CONTINUOUS
 10
61.5
 20
-1.1547005400000001
 30
0.0
 11
62.5
 21
-0.5773502700000001
 31
0.0
  0
LINE
  5
A8B
  8
241
  6
CONTINUOUS
 10
62.5
 20
-0.5773502700000001
 30
0.0
 11
62.5
 21
0.5773502700000001
 31
0.0
  0
LINE
  5
A8C
  8
241
  6
CONTINUOUS
 10
62.5
 20
0.5773502700000001
 30
0.0
 11
61.5
 21
1.1547005400000001
 31
0.0
  0
LINE
  5
A8D
  8
241
  6
CONTINUOUS
 10
61.5
 20
1.1547005400000001
 30
0.0
 11
60.5
 21
0.5773502700000001
 31
0.0
  0
LINE
  5
A8E
  8
241
  6
CONTINUOUS
 10
60.5
 20
0.5773502700000001
 30
0.0
 11
60.5
 21
-0.5773502700000001
 31
0.0
  0
LINE
  5
A8F
  8
250
  6
CONTINUOUS
 10
-27.8278168297026305
 20
-19.931236650610991
 30
0.0
 11
-32.4637335600000014
 21
-27.9608799700000006
 31
0.0
1001
ACAD
1000
DSTYLE
1002
{
1070
     6
1000
OPEN
1002
}
  0
LINE
  5
A90
  8
250
  6
CONTINUOUS
 10
-28.1496896112419215
 20
-19.7454033136105416
 30
0.0
 11
-26.7128168300000013
 21
-18.0
 31
0.0
  0
LINE
  5
A91
  8
250
  6
CONTINUOUS
 10
-27.5059440481633395
 20
-20.1170699876114298
 30
0.0
 11
-26.7128168300000013
 21
-18.0
 31
0.0
  0
LINE
  5
A92
  8
250
  6
CONTINUOUS
 10
-26.7128168300000013
 20
-18.0
 30
0.0
 11
-27.8278168297026305
 21
-19.931236650610991
 31
0.0
  0
LINE
  5
A93
  8
250
  6
CONTINUOUS
 10
62.7761919501405714
 20
11.4312366503581408
 30
0.0
 11
68.7609598599999998
 21
21.7971587400000004
 31
0.0
1001
ACAD
1000
DSTYLE
1002
{
1070
     6
1000
OPEN
1002
}
  0
LINE
  5
A94
  8
250
  6
CONTINUOUS
 10
63.098064731637713
 20
11.2454033132847098
 30
0.0
 11
61.6611919500000027
 21
9.5
 31
0.0
  0
LINE
  5
A95
  8
250
  6
CONTINUOUS
 10
62.4543191686434085
 20
11.6170699874315702
 30
0.0
 11
61.6611919500000027
 21
9.5
 31
0.0
  0
LINE
  5
A96
  8
250
  6
CONTINUOUS
 10
61.6611919500000027
 20
9.5
 30
0.0
 11
62.7761919501405714
 21
11.4312366503581408
 31
0.0
  0
TEXT
  5
A97
  8
250
  6
CONTINUOUS
 10
28.5166666666666586
 20
43.0
 30
0.0
 40
2.799999999999998
  1
66.5
1001
ACAD
1000
MTEXTBEGIN
1070
    73
1070
     1
1070
    44
1040
1.0
1070
    74
1070
     0
1000
MTEXTEND
  0
LINE
  5
A98
  8
250
  6
CONTINUOUS
 10
64.269999999999996
 20
42.3716666740999983
 30
0.0
 11
66.5
 21
42.0
 31
0.0
  0
LINE
  5
A99
  8
250
  6
CONTINUOUS
 10
64.269999999999996
 20
41.6283333258999875
 30
0.0
 11
66.5
 21
42.0
 31
0.0
  0
LINE
  5
A9A
  8
250
  6
CONTINUOUS
 10
66.5
 20
42.0
 30
0.0
 11
64.269999999999996
 21
42.0
 31
0.0
  0
LINE
  5
A9B
  8
250
  6
CONTINUOUS
 10
2.2299999999999991
 20
41.6283333258999875
 30
0.0
 11
0.0
 21
42.0
 31
0.0
  0
LINE
  5
A9C
  8
250
  6
CONTINUOUS
 10
2.2299999999999991
 20
42.3716666740999983
 30
0.0
 11
0.0
 21
42.0
 31
0.0
  0
LINE
  5
A9D
  8
250
  6
CONTINUOUS
 10
0.0
 20
42.0
 30
0.0
 11
2.2299999999999991
 21
42.0
 31
0.0
  0
TEXT
  5
A9E
  8
250
  6
CONTINUOUS
 10
75.9999999999999858
 20
-3.8666666666666649
 30
0.0
 40
2.799999999999998
  1
\U+220519
 50
90.0
1001
ACAD
1000
MTEXTBEGIN
1070
    73
1070
     1
1070
    44
1040
1.0
1070
    74
1070
     0
1000
MTEXTEND
  0
LINE
  5
A9F
  8
250
  6
CONTINUOUS
 10
76.6283333259000017
 20
7.2699999999999978
 30
0.0
 11
77.0
 21
9.5
 31
0.0
  0
LINE
  5
AA0
  8
250
  6
CONTINUOUS
 10
77.3716666740999983
 20
7.2699999999999978
 30
0.0
 11
77.0
 21
9.5
 31
0.0
  0
LINE
  5
AA1
  8
250
  6
CONTINUOUS
 10
77.0
 20
9.5
 30
0.0
 11
77.0
 21
7.2699999999999978
 31
0.0
  0
LINE
  5
AA2
  8
250
  6
CONTINUOUS
 10
77.3716666740999983
 20
-7.2699999999999978
 30
0.0
 11
77.0
 21
-9.5
 31
0.0
  0
LINE
  5
AA3
  8
250
  6
CONTINUOUS
 10
76.6283333259000017
 20
-7.2699999999999978
 30
0.0
 11
77.0
 21
-9.5
 31
0.0
  0
LINE
  5
AA4
  8
250
  6
CONTINUOUS
 10
77.0
 20
-9.5
 30
0.0
 11
77.0
 21
-7.2699999999999978
 31
0.0
  0
LINE
  5
AA6
  8
243
  6
HIDDEN2
 10
52.5
 20
-5.5
 30
0.0
 11
66.5
 21
-5.5
 31
0.0
  0
LINE
  5
B67
  8
247
  6
CONTINUOUS
 10
7.9999999999999529
 20
-24.000000000069889
 30
0.0
 11
7.9999999999999583
 21
-17.307692308029889
 31
0.0
  0
ARC
  5
B68
  8
247
  6
CONTINUOUS
 10
6.2500000000699583
 20
-24.000000000069889
 30
0.0
 40
1.7499999999299991
 50
180.0
 51
0.0
  0
ARC
  5
B69
  8
247
  6
CONTINUOUS
 10
6.2500000000699583
 20
-17.307692308029889
 30
0.0
 40
1.7499999999299991
 50
0.0
 51
180.0
  0
LINE
  5
B6A
  8
247
  6
CONTINUOUS
 10
4.5000000001399583
 20
-23.1346153847198899
 30
0.0
 11
7.5000000000199529
 21
-23.9948515419619
 31
0.0
  0
LINE
  5
B6B
  8
247
  6
CONTINUOUS
 10
5.9230769231599583
 20
-22.2349838183357207
 30
0.0
 11
5.9230769231599583
 21
-23.5426761259757207
 31
0.0
  0
ARC
  5
B6C
  8
247
  6
CONTINUOUS
 10
5.0495986677029343
 20
-21.8951438160896714
 30
0.0
 40
0.5538165441895349
 50
72.9978896752916171
 51
172.9241662185123118
  0
ARC
  5
B6D
  8
247
  6
CONTINUOUS
 10
4.9360330444657343
 20
-22.3168783230286714
 30
0.0
 40
0.9904354236226808
 50
4.7429368522013933
 51
73.8492262732676181
1001
GENIUS_GENOBJ-N-FIL_13
1002
{
1000
OWNER
1000
GEN
1002
}
1001
GENIUS_GENODEF_13
1002
{
1000
HIER
1070
     0
1002
}
1002
{
1000
MANEDIT
1070
     0
1002
}
1002
{
1000
NOSEL
1070
     0
1002
}
1002
{
1000
BEHIND
1070
     0
1002
}
1002
{
1000
OTHER
1070
     0
1002
}
1002
{
1000
REACTOR
1002
}
  0
LINE
  5
B6E
  8
247
  6
CONTINUOUS
 10
7.5000000000199529
 20
-22.6871592343219
 30
0.0
 11
7.5000000000199529
 21
-23.9948515419619
 31
0.0
  0
LINE
  5
B6F
  8
247
  6
CONTINUOUS
 10
4.5000000001399583
 20
-23.1346153847198899
 30
0.0
 11
4.5000000001399592
 21
-21.8269230770799005
 31
0.0
  0
ARC
  5
B70
  8
247
  6
CONTINUOUS
 10
6.4820242326655091
 20
-22.3109196365468598
 30
0.0
 40
0.5640818586791229
 50
65.9909416525305801
 51
172.2634434590694923
  0
ARC
  5
B71
  8
247
  6
CONTINUOUS
 10
6.487429039186547
 20
-22.788262685346961
 30
0.0
 40
1.0176059446230981
 50
5.7019851642581392
 51
77.2773384368208838
1001
GENIUS_GENOBJ-N-FIL_13
1002
{
1000
OWNER
1000
GEN
1002
}
1001
GENIUS_GENODEF_13
1002
{
1000
HIER
1070
     0
1002
}
1002
{
1000
MANEDIT
1070
     0
1002
}
1002
{
1000
NOSEL
1070
     0
1002
}
1002
{
1000
BEHIND
1070
     0
1002
}
1002
{
1000
OTHER
1070
     0
1002
}
1002
{
1000
REACTOR
1002
}
  0
LINE
  5
B72
  8
247
  6
CONTINUOUS
 10
7.5000000000199529
 20
-21.0333130805419017
 30
0.0
 11
4.5000000001399592
 21
-20.1730769232998917
 31
0.0
  0
LINE
  5
B73
  8
247
  6
CONTINUOUS
 10
4.5000000001399592
 20
-17.7500000003198792
 30
0.0
 11
4.5000000001399592
 21
-18.3157366194564801
 31
0.0
  0
LINE
  5
B74
  8
247
  6
CONTINUOUS
 10
7.5000000000199529
 20
-19.2115384617998899
 30
0.0
 11
7.5000000000199529
 21
-18.5961538464398899
 31
0.0
  0
ARC
  5
B75
  8
247
  6
CONTINUOUS
 10
6.5832851359733411
 20
-17.4587912091227402
 30
0.0
 40
2.2526500823422122
 50
202.3594881415268105
 51
254.9932485428466009
  0
ARC
  5
B76
  8
247
  6
CONTINUOUS
 10
5.308312655194471
 20
-18.1240694792131087
 30
0.0
 40
0.8906723995727782
 50
94.9945893190751036
 51
155.1663289573035911
1001
GENIUS_GENOBJ-N-FIL_13
1002
{
1000
OWNER
1000
GEN
1002
}
1001
GENIUS_GENODEF_13
1002
{
1000
HIER
1070
     0
1002
}
1002
{
1000
MANEDIT
1070
     0
1002
}
1002
{
1000
NOSEL
1070
     0
1002
}
1002
{
1000
BEHIND
1070
     0
1002
}
1002
{
1000
OTHER
1070
     0
1002
}
1002
{
1000
REACTOR
1002
}
  0
ARC
  5
B77
  8
247
  6
CONTINUOUS
 10
6.1601458886677172
 20
-18.9764588862124803
 30
0.0
 40
1.392781735586712
 50
15.8460965557792495
 51
82.325137004170557
  0
ARC
  5
B78
  8
247
  6
CONTINUOUS
 10
6.459243431527244
 20
-18.3922127258402384
 30
0.0
 40
1.324563662670287
 50
249.7136016704980932
 51
321.7887456564076842
1001
GENIUS_GENOBJ-N-FIL_13
1002
{
1000
OWNER
1000
GEN
1002
}
1001
GENIUS_GENODEF_13
1002
{
1000
HIER
1070
     0
1002
}
1002
{
1000
MANEDIT
1070
     0
1002
}
1002
{
1000
NOSEL
1070
     0
1002
}
1002
{
1000
BEHIND
1070
     0
1002
}
1002
{
1000
OTHER
1070
     0
1002
}
1002
{
1000
REACTOR
1002
}
  0
LINE
  5
B79
  8
247
  6
CONTINUOUS
 10
6.3461538462199591
 20
-18.2884615387598899
 30
0.0
 11
6.3461538462199591
 21
-17.5961538464798792
 31
0.0
  0
LINE
  5
B7A
  8
247
  6
CONTINUOUS
 10
4.5000000001399592
 20
-24.000000000069889
 30
0.0
 11
4.5000000001399592
 21
-23.3269230770198917
 31
0.0
  0
VIEWPORT
  5
22
 67
     1
  8
0
 10
261.5176991199999748
 20
148.5
 30
0.0
 40
523.0353982300000553
 41
297.0
 68
     1
 69
     1
1001
ACAD
1000
MVIEW
1002
{
1070
    16
1010
0.0
1020
0.0
1030
0.0
1010
0.0
1020
0.0
1030
1.0
1040
0.0
1040
297.0
1040
261.5176991199999748
1040
148.5
1040
50.0
1040
0.0
1040
0.0
1070
     0
1070
   100
1070
     1
1070
     1
1070
     0
1070
     0
1070
     0
1070
     0
1040
0.0
1040
0.0
1040
0.0
1040
1.0
1040
1.0
1040
10.0
1040
10.0
1070
     0
1002
{
1002
}
1002
}
1001
GENIUS_GENOBJ-N-SDF_13
1002
{
1000
OWNER
1000
GEN
1002
}
1001
GENIUS_GENODEF_13
1002
{
1000
HIER
1070
     0
1002
}
1002
{
1000
MANEDIT
1070
     0
1002
}
1002
{
1000
NOSEL
1070
     0
1002
}
1002
{
1000
BEHIND
1070
     0
1002
}
1002
{
1000
OTHER
1070
     0
1002
}
1002
{
1000
REACTOR
1002
}
1001
GENIUS_GENSCREG_15
1000
PF
1040
1.0
1000
DF
1040
1.0
1000
MIN
1011
0.0000000049999471
1021
0.0
1031
0.0
1021
0.0
1031
0.0
1000
MAX
1011
523.0353982350000024
1021
0.0
1031
0.0
1021
297.0
1031
0.0
1000
FLAGS
1070
     4
  0
ENDSEC
  0
EOF
