  0
SECTION
  2
HEADER
  9
$ACADVER
  1
AC1009
  9
$INSBASE
 10
0.0
 20
0.0
 30
0.0
  9
$EXTMIN
 10
-46.752583035866223
 20
-35.304410928814761
 30
0.0
  9
$EXTMAX
 10
264.99694077101509
 20
75.000000000000014
 30
0.0
  9
$LIMMIN
 10
0.0
 20
0.0
  9
$LIMMAX
 10
297.0
 20
210.0
  9
$ORTHOMODE
 70
     0
  9
$REGENMODE
 70
     1
  9
$FILLMODE
 70
     1
  9
$QTEXTMODE
 70
     0
  9
$MIRRTEXT
 70
     1
  9
$DRAGMODE
 70
     2
  9
$LTSCALE
 40
10.0
  9
$OSMODE
 70
    39
  9
$ATTMODE
 70
     1
  9
$TEXTSIZE
 40
3.0
  9
$TRACEWID
 40
1.0
  9
$TEXTSTYLE
  7
YOKO
  9
$CLAYER
  8
240
  9
$CELTYPE
  6
BYLAYER
  9
$CECOLOR
 62
   256
  9
$DIMSCALE
 40
1.0
  9
$DIMASZ
 40
2.2299999999999991
  9
$DIMEXO
 40
0.5
  9
$DIMDLI
 40
7.0
  9
$DIMRND
 40
0.0
  9
$DIMDLE
 40
0.0
  9
$DIMEXE
 40
1.0
  9
$DIMTP
 40
0.0
  9
$DIMTM
 40
0.01
  9
$DIMTXT
 40
2.7999999999999989
  9
$DIMCEN
 40
0.0
  9
$DIMTSZ
 40
0.0
  9
$DIMTOL
 70
     0
  9
$DIMLIM
 70
     0
  9
$DIMTIH
 70
     0
  9
$DIMTOH
 70
     0
  9
$DIMSE1
 70
     0
  9
$DIMSE2
 70
     0
  9
$DIMTAD
 70
     3
  9
$DIMZIN
 70
     9
  9
$DIMBLK
  1
OPEN
  9
$DIMASO
 70
     1
  9
$DIMSHO
 70
     1
  9
$DIMPOST
  1

  9
$DIMAPOST
  1

  9
$DIMALT
 70
     0
  9
$DIMALTD
 70
     2
  9
$DIMALTF
 40
25.399999999999999
  9
$DIMLFAC
 40
1.0
  9
$DIMTOFL
 70
     1
  9
$DIMTVP
 40
0.0
  9
$DIMTIX
 70
     1
  9
$DIMSOXD
 70
     0
  9
$DIMSAH
 70
     0
  9
$DIMBLK1
  1

  9
$DIMBLK2
  1

  9
$DIMSTYLE
  2
BIGT
  9
$DIMCLRD
 70
   256
  9
$DIMCLRE
 70
   256
  9
$DIMCLRT
 70
    40
  9
$DIMTFAC
 40
1.0
  9
$DIMGAP
 40
1.0
  9
$LUNITS
 70
     2
  9
$LUPREC
 70
     6
  9
$SKETCHINC
 40
1.0
  9
$FILLETRAD
 40
0.0
  9
$AUNITS
 70
     0
  9
$AUPREC
 70
     6
  9
$MENU
  1
.
  9
$ELEVATION
 40
0.0
  9
$PELEVATION
 40
0.0
  9
$THICKNESS
 40
0.0
  9
$LIMCHECK
 70
     0
  9
$BLIPMODE
 70
     0
  9
$CHAMFERA
 40
0.2
  9
$CHAMFERB
 40
0.2
  9
$SKPOLY
 70
     0
  9
$TDCREATE
 40
2457820.6458280561
  9
$TDUPDATE
 40
2457821.4716529981
  9
$TDINDWG
 40
0.0081033218
  9
$TDUSRTIMER
 40
0.0081032986
  9
$USRTIMER
 70
     1
  9
$ANGBASE
 50
0.0
  9
$ANGDIR
 70
     0
  9
$PDMODE
 70
     1
  9
$PDSIZE
 40
0.0
  9
$PLINEWID
 40
0.0
  9
$COORDS
 70
     1
  9
$SPLFRAME
 70
     0
  9
$SPLINETYPE
 70
     6
  9
$SPLINESEGS
 70
     4
  9
$ATTDIA
 70
     1
  9
$ATTREQ
 70
     1
  9
$HANDLING
 70
     1
  9
$HANDSEED
  5
46DC
  9
$SURFTAB1
 70
     6
  9
$SURFTAB2
 70
     6
  9
$SURFTYPE
 70
     6
  9
$SURFU
 70
     6
  9
$SURFV
 70
     6
  9
$UCSNAME
  2

  9
$UCSORG
 10
0.0
 20
0.0
 30
0.0
  9
$UCSXDIR
 10
1.0
 20
0.0
 30
0.0
  9
$UCSYDIR
 10
0.0
 20
1.0
 30
0.0
  9
$PUCSNAME
  2

  9
$PUCSORG
 10
0.0
 20
0.0
 30
0.0
  9
$PUCSXDIR
 10
1.0
 20
0.0
 30
0.0
  9
$PUCSYDIR
 10
0.0
 20
1.0
 30
0.0
  9
$USERI1
 70
     1
  9
$USERI2
 70
     0
  9
$USERI3
 70
     0
  9
$USERI4
 70
     0
  9
$USERI5
 70
     0
  9
$USERR1
 40
0.0
  9
$USERR2
 40
0.0
  9
$USERR3
 40
0.0
  9
$USERR4
 40
0.0
  9
$USERR5
 40
0.0
  9
$WORLDVIEW
 70
     1
  9
$SHADEDGE
 70
     3
  9
$SHADEDIF
 70
    70
  9
$TILEMODE
 70
     1
  9
$MAXACTVP
 70
    16
  9
$PLIMCHECK
 70
     0
  9
$PEXTMIN
 10
1.0000000000000000E+020
 20
1.0000000000000000E+020
 30
1.0000000000000000E+020
  9
$PEXTMAX
 10
-1.0000000000000000E+020
 20
-1.0000000000000000E+020
 30
-1.0000000000000000E+020
  9
$PLIMMIN
 10
0.0
 20
0.0
  9
$PLIMMAX
 10
420.0
 20
297.0
  9
$UNITMODE
 70
     0
  9
$VISRETAIN
 70
     1
  9
$PLINEGEN
 70
     0
  9
$PSLTSCALE
 70
     1
  0
ENDSEC
  0
SECTION
  2
TABLES
  0
TABLE
  2
VPORT
 70
     1
  0
VPORT
  2
*ACTIVE
 70
     0
 10
0.0
 20
0.0
 11
1.0
 21
1.0
 12
122.3870650582633
 22
40.545873838238073
 13
0.0
 23
0.0
 14
7.0
 24
7.0
 15
7.0
 25
7.0
 16
0.0
 26
0.0
 36
1.0
 17
0.0
 27
0.0
 37
0.0
 40
281.78032864014199
 41
1.506104328523862
 42
50.0
 43
0.0
 44
0.0
 50
0.0
 51
0.0
 71
     0
 72
  2000
 73
     1
 74
     0
 75
     0
 76
     1
 77
     0
 78
     0
  0
ENDTAB
  0
TABLE
  2
LTYPE
 70
    21
  0
LTYPE
  2
CONTINUOUS
 70
     0
  3
Solid line
 72
    65
 73
     0
 40
0.0
  0
LTYPE
  2
CENTER2
 70
     0
  3
___ _ ___ _ ___ _ ___ _ ___ _ ___ _ ___ _ ___ _
 72
    65
 73
     4
 40
1.125
 49
0.75
 49
-0.125
 49
0.125
 49
-0.125
  0
LTYPE
  2
PHANTOM2
 70
     0
  3
___ _ _ ___ _ _ ___ _ _ ___ _ _ ___ _ _ ___ _ _
 72
    65
 73
     6
 40
1.25
 49
0.625
 49
-0.125
 49
0.125
 49
-0.125
 49
0.125
 49
-0.125
  0
LTYPE
  2
AM_ISO02W050
 70
     0
  3
__ __ __ __ __ __ __ __ __ __ __ __ __ __ __
 72
    65
 73
     2
 40
7.5
 49
6.0
 49
-1.5
  0
LTYPE
  2
AMCONSTR
 70
     0
  3
_______________________
 72
    65
 73
     2
 40
9999.0
 49
9999.0
 49
0.0
  0
LTYPE
  2
ACISOWELD
 70
     0
  3
_ _ _ _ _
 72
    65
 73
     2
 40
2.0
 49
2.0
 49
-1.0
  0
LTYPE
  2
ACISOTGB
 70
     0
  3
__ . . __ . .
 72
    65
 73
     6
 40
9.0
 49
4.0
 49
-1.0
 49
1.0
 49
-1.0
 49
1.0
 49
-1.0
  0
LTYPE
  2
ACISOTGL
 70
     0
  3
_ _ _ _ _
 72
    65
 73
     2
 40
3.0
 49
2.0
 49
-1.0
  0
LTYPE
  2
AM_ISO08W050
 70
     0
  3
____ . ____ . ____ . ____ . ____ . ____ . ____
 72
    65
 73
     4
 40
18.0
 49
12.0
 49
-1.5
 49
3.0
 49
-1.5
  0
LTYPE
  2
AM_ISO09W050
 70
     0
  3
_____ . . _____ . . _____ . . ____ .. ____
 72
    65
 73
     6
 40
22.5
 49
12.0
 49
-1.5
 49
3.0
 49
-1.5
 49
3.0
 49
-1.5
  0
LTYPE
  2
AM_ISO08W050X2
 70
     0
  3
__ . __ . __ . __ . __ . __
 72
    65
 73
     4
 40
9.0
 49
6.0
 49
-0.75
 49
1.5
 49
-0.75
  0
LTYPE
  2
AM_ISO02W050X2
 70
     0
  3
 _ _ _ _ _ _ _ _ _ _ _ _
 72
    65
 73
     2
 40
3.75
 49
3.0
 49
-0.75
  0
LTYPE
  2
AMZIGZAG
 70
     0
  3
/\/-/\/-/\/-/\/-/\/-/\/
 72
    65
 73
     2
 40
11.0001
 49
0.0001
 49
-11.0
  0
ENDTAB
  0
TABLE
  2
LAYER
 70
     9
  0
LAYER
  2
0
 70
     0
 62
     7
  6
CONTINUOUS
  0
LAYER
  2
DEFPOINTS
 70
     0
 62
     7
  6
CONTINUOUS
  0
LAYER
  2
245
 70
     0
 62
     2
  6
CENTER2
  0
LAYER
  2
240
 70
     0
 62
     4
  6
CONTINUOUS
  0
LAYER
  2
241
 70
     0
 62
   211
  6
CONTINUOUS
  0
LAYER
  2
242
 70
     0
 62
     3
  6
CONTINUOUS
  0
LAYER
  2
246
 70
     0
 62
     3
  6
PHANTOM2
  0
LAYER
  2
247
 70
     0
 62
    60
  6
CONTINUOUS
  0
LAYER
  2
250
 70
     0
 62
     3
  6
CONTINUOUS
  0
ENDTAB
  0
TABLE
  2
STYLE
 70
     8
  0
STYLE
  2
STANDARD
 70
     0
 40
0.0
 41
1.0
 50
0.0
 71
     0
 42
3.0
  3
romans.shx
  4
extfont.shx
  0
STYLE
  2
ACISOGDT
 70
     0
 40
0.0
 41
1.0
 50
0.0
 71
     0
 42
3.0
  3
amgdt.shx
  4
extfont.shx
  0
STYLE
  2
YOKO
 70
     0
 40
0.0
 41
1.0
 50
0.0
 71
     0
 42
3.0
  3
romans.shx
  4
extfont.shx
  0
STYLE
  2

 70
     1
 40
0.0
 41
1.0
 50
0.0
 71
     0
 42
3.0
  3
genltshp.shx
  4

  0
ENDTAB
  0
TABLE
  2
VIEW
 70
     0
  0
ENDTAB
  0
TABLE
  2
UCS
 70
     0
  0
ENDTAB
  0
TABLE
  2
APPID
 70
    44
  0
APPID
  2
ACAD
 70
     0
  0
APPID
  2
GLOBAL
 70
     0
  0
APPID
  2
DETAIL
 70
     0
  0
APPID
  2
GRPNAME
 70
     0
  0
APPID
  2
GPARA
 70
     0
  0
APPID
  2
MCAD_NO_VIS
 70
     0
  0
APPID
  2
ACAD_TEMP_GRAPHIC
 70
     0
  0
APPID
  2
ACATTRIBSERVICES
 70
     0
  0
APPID
  2
GENIUS_GENSCREG_15
 70
     0
  0
APPID
  2
GENIUS_GENODEF_13
 70
     0
  0
APPID
  2
GENIUS_GENOBJ-N-SDF_13
 70
     0
  0
APPID
  2
GENIUS_GENREC_14
 70
     0
  0
APPID
  2
GENIUS_GENOBJ-N-REC_13
 70
     0
  0
APPID
  2
GENIUS_GENDIMSH_14
 70
     0
  0
APPID
  2
GENIUS_GENOBJ-N-DIM_13
 70
     0
  0
APPID
  2
GENIUS_GENDIM_13
 70
     0
  0
APPID
  2
GENIUS_GENDTOL_13
 70
     0
  0
APPID
  2
GENIUS_GENOLIS_13
 70
     0
  0
APPID
  2
GENIUS_GENOENT_13
 70
     0
  0
APPID
  2
GENIUS_GENOBJ-F-FEM_13
 70
     0
  0
APPID
  2
GENIUS_GENOREF_13
 70
     0
  0
APPID
  2
GENIUS_GEFFEM_13
 70
     0
  0
APPID
  2
GENIUS_GEFFEMP_13
 70
     0
  0
APPID
  2
AD_DRAW
 70
     0
  0
APPID
  2
DESIGNERASSEMBLIES
 70
     0
  0
APPID
  2
ACADM_DIM_EDIT
 70
     0
  0
APPID
  2
AMDT_DM_ADJ
 70
     0
  0
APPID
  2
ITEMNAME
 70
     0
  0
APPID
  2
GENIUS_GENOBJ-N-FIL_13
 70
     0
  0
APPID
  2
GENIUS_GENFIL_13
 70
     0
  0
APPID
  2
GENIUS_GENOBJ-N-CHA_13
 70
     0
  0
APPID
  2
ACAECLAYERSTANDARD
 70
     0
  0
APPID
  2
ACAD_NAV_VCDISPLAY
 70
     0
  0
APPID
  2
ACAD_DSTYLE_DIMJAG
 70
     0
  0
APPID
  2
HATCH_TYPE
 70
     0
  0
APPID
  2
HATCH_DISPLAY
 70
     0
  0
APPID
  2
HATCH_DISTANCE
 70
     0
  0
APPID
  2
ACAD_DSTYLE_DIMBREAK
 70
     0
  0
APPID
  2
ACAD_EXEMPT_FROM_CAD_STANDARDS
 70
     0
  0
APPID
  2
ACAD_MLEADERVER
 70
     0
  0
APPID
  2
ACAD_DSTYLE_DIMARC_LENGTH_
 70
     0
  0
APPID
  2
ACAD_DSTYLE_DIM_LINETYPE
 70
     0
  0
APPID
  2
ACAD_DSTYLE_DIM_EXT1_LINETYPE
 70
     0
  0
APPID
  2
ACAD_DSTYLE_DIM_EXT2_LINETYPE
 70
     0
  0
ENDTAB
  0
TABLE
  2
DIMSTYLE
 70
    29
  0
DIMSTYLE
  2
BIGT
 70
     0
  3

  4

  5
OPEN
  6

  7

 40
1.0
 41
2.2299999999999991
 42
0.5
 43
7.0
 44
1.0
 45
0.0
 46
0.0
 47
0.0
 48
0.01
140
2.7999999999999989
141
0.0
142
0.0
143
25.399999999999999
144
1.0
145
0.0
146
1.0
147
1.0
 71
     0
 72
     0
 73
     0
 74
     0
 75
     0
 76
     0
 77
     3
 78
     9
170
     0
171
     2
172
     1
173
     0
174
     1
175
     0
176
   256
177
   256
178
    40
  0
DIMSTYLE
  2
AM_ISO
 70
     0
  3

  4
"
  5

  6

  7

 40
1.0
 41
2.5
 42
1.0
 43
10.0
 44
1.0
 45
0.0
 46
0.0
 47
0.1
 48
0.1
140
3.5
141
0.0
142
0.0
143
0.0393701
144
1.0
145
0.0
146
0.71
147
1.5
 71
     0
 72
     0
 73
     0
 74
     0
 75
     0
 76
     0
 77
     1
 78
     8
170
     0
171
     2
172
     1
173
     0
174
     0
175
     0
176
   256
177
   256
178
     2
  0
DIMSTYLE
  2
AM_ISO$3
 70
     0
  3

  4
"
  5

  6

  7

 40
1.0
 41
2.5
 42
1.0
 43
10.0
 44
1.0
 45
0.0
 46
0.0
 47
0.1
 48
0.1
140
3.5
141
0.0
142
0.0
143
0.0393701
144
1.0
145
0.0
146
0.71
147
1.5
 71
     0
 72
     0
 73
     0
 74
     1
 75
     0
 76
     0
 77
     1
 78
     8
170
     0
171
     2
172
     0
173
     0
174
     0
175
     0
176
   256
177
   256
178
     2
  0
DIMSTYLE
  2
AM_ISO$4
 70
     0
  3

  4
"
  5

  6

  7

 40
1.0
 41
2.5
 42
1.0
 43
10.0
 44
1.0
 45
0.0
 46
0.0
 47
0.1
 48
0.1
140
3.5
141
0.0
142
0.0
143
0.0393701
144
1.0
145
0.0
146
0.71
147
1.5
 71
     0
 72
     0
 73
     0
 74
     1
 75
     0
 76
     0
 77
     1
 78
     8
170
     0
171
     2
172
     0
173
     0
174
     0
175
     0
176
   256
177
   256
178
     2
  0
DIMSTYLE
  2
AM_ISO$6
 70
     0
  3

  4
"
  5

  6

  7

 40
1.0
 41
2.5
 42
1.0
 43
10.0
 44
1.0
 45
0.0
 46
0.0
 47
0.1
 48
0.1
140
3.5
141
0.0
142
0.0
143
0.0393701
144
1.0
145
0.0
146
0.71
147
1.5
 71
     0
 72
     0
 73
     0
 74
     0
 75
     0
 76
     0
 77
     0
 78
     8
170
     0
171
     2
172
     1
173
     0
174
     0
175
     0
176
   256
177
   256
178
     2
  0
DIMSTYLE
  2
AM_ISO$7
 70
     0
  3

  4
"
  5

  6

  7

 40
1.0
 41
2.5
 42
1.0
 43
10.0
 44
1.0
 45
0.0
 46
0.0
 47
0.1
 48
0.1
140
5.0
141
0.0
142
0.0
143
0.0393701
144
1.0
145
0.0
146
0.71
147
1.5
 71
     0
 72
     0
 73
     0
 74
     0
 75
     0
 76
     0
 77
     1
 78
     8
170
     0
171
     2
172
     1
173
     0
174
     0
175
     0
176
   256
177
   256
178
     2
  0
DIMSTYLE
  2
AM_ISO$SF
 70
     0
  3

  4
"
  5

  6

  7

 40
1.0
 41
2.5
 42
1.0
 43
10.0
 44
1.0
 45
0.0
 46
0.0
 47
0.1
 48
0.1
140
3.5
141
0.0
142
0.0
143
0.0393701
144
1.0
145
0.0
146
0.71
147
1.5
 71
     0
 72
     0
 73
     0
 74
     0
 75
     1
 76
     1
 77
     1
 78
     8
170
     0
171
     2
172
     1
173
     0
174
     0
175
     0
176
   256
177
   256
178
     2
  0
DIMSTYLE
  2
AM_ISO$SH
 70
     0
  3

  4
"
  5

  6
GENAXEH
  7

 40
1.0
 41
2.5
 42
1.0
 43
10.0
 44
1.0
 45
0.0
 46
0.0
 47
0.1
 48
0.1
140
3.5
141
0.0
142
0.0
143
0.0393701
144
2.0
145
0.0
146
0.71
147
1.5
 71
     0
 72
     0
 73
     0
 74
     0
 75
     1
 76
     1
 77
     1
 78
     8
170
     0
171
     2
172
     1
173
     1
174
     0
175
     0
176
   256
177
   256
178
     2
  0
ENDTAB
  0
ENDSEC
  0
SECTION
  2
BLOCKS
  0
BLOCK
  8
0
  2
$MODEL_SPACE
 70
     0
 10
0.0
 20
0.0
 30
0.0
  3
$MODEL_SPACE
  1

  0
ENDBLK
  5
1C
  8
0
  0
BLOCK
 67
     1
  8
0
  2
$PAPER_SPACE
 70
     0
 10
0.0
 20
0.0
 30
0.0
  3
$PAPER_SPACE
  1

  0
ENDBLK
  5
19
 67
     1
  8
0
  0
BLOCK
  8
0
  2
_OPEN
 70
     0
 10
0.0
 20
0.0
 30
0.0
  3
_OPEN
  1

  0
LINE
  5
3E1A
  8
0
  6
BYBLOCK
 62
     0
 10
-1.0
 20
0.1666666666666666
 30
0.0
 11
0.0
 21
0.0
 31
0.0
  0
LINE
  5
3E1B
  8
0
  6
BYBLOCK
 62
     0
 10
-1.0
 20
-0.1666666666666666
 30
0.0
 11
0.0
 21
0.0
 31
0.0
  0
LINE
  5
3E1C
  8
0
  6
BYBLOCK
 62
     0
 10
0.0
 20
0.0
 30
0.0
 11
-1.0
 21
0.0
 31
0.0
  0
ENDBLK
  5
3E1D
  8
0
  0
BLOCK
  8
0
  2
GENAXEH
 70
     0
 10
0.0
 20
0.0
 30
0.0
  3
GENAXEH
  1

  0
LINE
  5
3E45
  8
0
 10
-1.0
 20
0.0
 30
0.0
 11
1.0
 21
0.0
 31
0.0
  0
ENDBLK
  5
3E46
  8
0
  0
BLOCK
  8
0
  2
*U4
 70
     1
 10
0.0
 20
0.0
 30
0.0
  3
*U4
  1

  0
TEXT
  5
4222
  8
250
 10
116.0
 20
57.000000000000007
 30
0.0
 40
2.799999999999998
  1
240
  0
ENDBLK
  5
4223
  8
0
  0
ENDSEC
  0
SECTION
  2
ENTITIES
  0
TEXT
  5
43F9
  8
241
  6
CONTINUOUS
 10
-35.0
 20
70.0
 30
0.0
 40
5.0
  1
CKB6-EWN68DP-240
  7
YOKO
 11
-35.0
 21
70.0
 31
0.0
 73
     1
  0
LINE
  5
43FA
  8
250
  6
CONTINUOUS
 10
-32.75258303586623
 20
-35.304410928814761
 30
0.0
 11
-46.752583035866223
 21
-35.304410928814761
 31
0.0
1001
ITEMNAME
1000
LNSP2
  0
LINE
  5
43FB
  8
240
  6
CONTINUOUS
 10
201.0
 20
27.5
 30
0.0
 11
211.18367130453939
 21
27.5
 31
0.0
  0
POLYLINE
  5
43FC
  8
240
  6
CONTINUOUS
 66
     1
 10
0.0
 20
0.0
 30
0.0
 70
     8
  0
VERTEX
  5
43FD
  8
240
  6
CONTINUOUS
 10
208.5
 20
37.0
 30
0.0
 70
    32
  0
VERTEX
  5
43FE
  8
240
  6
CONTINUOUS
 10
208.87117399999991
 20
36.916686000000027
 30
0.0
 70
    32
  0
VERTEX
  5
43FF
  8
240
  6
CONTINUOUS
 10
209.24234799999991
 20
36.837911000000076
 30
0.0
 70
    32
  0
VERTEX
  5
4400
  8
240
  6
CONTINUOUS
 10
209.61352099999991
 20
36.763674000000037
 30
0.0
 70
    32
  0
VERTEX
  5
4401
  8
240
  6
CONTINUOUS
 10
209.9846949999997
 20
36.693975000000023
 30
0.0
 70
    32
  0
SEQEND
  5
4402
  8
240
  6
CONTINUOUS
  0
LINE
  5
4403
  8
240
  6
CONTINUOUS
 10
201.0
 20
27.5
 30
0.0
 11
201.0
 21
34.0
 31
0.0
  0
ARC
  5
4404
  8
240
  6
CONTINUOUS
 10
204.0
 20
34.0
 30
0.0
 40
3.0
 50
90.0
 51
180.0
  0
LINE
  5
4405
  8
240
  6
CONTINUOUS
 10
204.0
 20
37.0
 30
0.0
 11
208.5
 21
37.0
 31
0.0
  0
LINE
  5
4406
  8
241
  6
CONTINUOUS
 10
230.817004
 20
34.900374000000063
 30
0.0
 11
239.08241199999981
 21
29.532755000000009
 31
0.0
  0
LINE
  5
4407
  8
240
  6
CONTINUOUS
 10
230.0
 20
27.5
 30
0.0
 11
237.34738399999989
 21
27.5
 31
0.0
  0
LINE
  5
4408
  8
240
  6
CONTINUOUS
 10
228.3932769999999
 20
37.68117500000006
 30
0.0
 11
238.42440299999981
 21
39.449933999999992
 31
0.0
  0
LINE
  5
4409
  8
241
  6
CONTINUOUS
 10
230.85326299999991
 20
35.592245000000048
 30
0.0
 11
239.41840400000001
 21
39.956402000000033
 31
0.0
  0
LINE
  5
440A
  8
240
  6
CONTINUOUS
 10
219.816328695457
 20
27.5
 30
0.0
 11
230.0
 21
27.5
 31
0.0
  0
POLYLINE
  5
440B
  8
240
  6
CONTINUOUS
 66
     1
 10
0.0
 20
0.0
 30
0.0
 70
     8
  0
VERTEX
  5
440C
  8
240
  6
CONTINUOUS
 10
221.01530399999999
 20
36.693975000000023
 30
0.0
 70
    32
  0
VERTEX
  5
440D
  8
240
  6
CONTINUOUS
 10
221.3864779999999
 20
36.763674000000037
 30
0.0
 70
    32
  0
VERTEX
  5
440E
  8
240
  6
CONTINUOUS
 10
221.75765199999989
 20
36.837911000000076
 30
0.0
 70
    32
  0
VERTEX
  5
440F
  8
240
  6
CONTINUOUS
 10
222.128826
 20
36.916686000000027
 30
0.0
 70
    32
  0
VERTEX
  5
4410
  8
240
  6
CONTINUOUS
 10
222.5
 20
37.0
 30
0.0
 70
    32
  0
SEQEND
  5
4411
  8
240
  6
CONTINUOUS
  0
LINE
  5
4412
  8
240
  6
CONTINUOUS
 10
211.86774817453031
 20
29.600000000000019
 30
0.0
 11
219.13225182546969
 21
29.600000000000019
 31
0.0
1001
GRPNAME
1000
PASTMD30
  0
LINE
  5
4413
  8
240
  6
CONTINUOUS
 10
211.86774817453031
 20
29.100000000000019
 30
0.0
 11
211.86774817453031
 21
29.600000000000019
 31
0.0
1001
GRPNAME
1000
PASTMD30
  0
LINE
  5
4414
  8
240
  6
CONTINUOUS
 10
211.6836713045407
 20
28.000000000000171
 30
0.0
 11
211.86774817453031
 21
29.100000000000019
 31
0.0
1001
GRPNAME
1000
PASTMD30
  0
LINE
  5
4415
  8
240
  6
CONTINUOUS
 10
211.18367130454061
 20
27.5
 30
0.0
 11
211.68367130454061
 21
28.0
 31
0.0
1001
GRPNAME
1000
PASTMD30
  0
LINE
  5
4416
  8
240
  6
CONTINUOUS
 10
219.13225182546969
 20
29.100000000000019
 30
0.0
 11
219.13225182546969
 21
29.600000000000019
 31
0.0
1001
GRPNAME
1000
PASTMD30
  0
LINE
  5
4417
  8
240
  6
CONTINUOUS
 10
219.3163286954593
 20
28.000000000000171
 30
0.0
 11
219.13225182546969
 21
29.100000000000019
 31
0.0
1001
GRPNAME
1000
PASTMD30
  0
LINE
  5
4418
  8
240
  6
CONTINUOUS
 10
219.8163286954593
 20
27.5
 30
0.0
 11
219.31632869545939
 21
28.0
 31
0.0
1001
GRPNAME
1000
PASTMD30
  0
POLYLINE
  5
4419
  8
241
  6
CONTINUOUS
 66
     1
 10
0.0
 20
0.0
 30
0.0
 70
     8
  0
VERTEX
  5
441A
  8
241
  6
CONTINUOUS
 10
209.9846949999997
 20
36.693975000000023
 30
0.0
 70
    32
  0
VERTEX
  5
441B
  8
241
  6
CONTINUOUS
 10
212.74234799999999
 20
36.318243000000002
 30
0.0
 70
    32
  0
VERTEX
  5
441C
  8
241
  6
CONTINUOUS
 10
215.5
 20
36.19300000000004
 30
0.0
 70
    32
  0
VERTEX
  5
441D
  8
241
  6
CONTINUOUS
 10
218.25765199999989
 20
36.318243000000002
 30
0.0
 70
    32
  0
VERTEX
  5
441E
  8
241
  6
CONTINUOUS
 10
221.01530399999999
 20
36.693975000000023
 30
0.0
 70
    32
  0
SEQEND
  5
441F
  8
241
  6
CONTINUOUS
  0
LINE
  5
4420
  8
240
  6
CONTINUOUS
 10
215.5
 20
37.10000000000003
 30
0.0
 11
211.5
 21
37.10000000000003
 31
0.0
  0
LINE
  5
4421
  8
240
  6
CONTINUOUS
 10
211.5
 20
37.10000000000003
 30
0.0
 11
209.9846949999997
 21
36.693975000000023
 31
0.0
  0
LINE
  5
4422
  8
240
  6
CONTINUOUS
 10
215.5
 20
37.10000000000003
 30
0.0
 11
219.5
 21
37.10000000000003
 31
0.0
  0
LINE
  5
4423
  8
240
  6
CONTINUOUS
 10
219.5
 20
37.10000000000003
 30
0.0
 11
221.01530399999999
 21
36.693975000000023
 31
0.0
  0
LINE
  5
4424
  8
241
  6
CONTINUOUS
 10
230.0
 20
27.5
 30
0.0
 11
230.0
 21
34.0
 31
0.0
  0
LINE
  5
4425
  8
240
  6
CONTINUOUS
 10
222.5
 20
37.0
 30
0.0
 11
228.0
 21
37.0
 31
0.0
  0
LINE
  5
4426
  8
240
  6
CONTINUOUS
 10
228.0
 20
37.0
 30
0.0
 11
228.3932769999999
 21
37.68117500000006
 31
0.0
  0
ARC
  5
4427
  8
241
  6
CONTINUOUS
 10
227.0
 20
34.0
 30
0.0
 40
3.0
 50
0.0
 51
90.0
  0
ARC
  5
4428
  8
241
  6
CONTINUOUS
 10
231.03485900000001
 20
35.235841999999991
 30
0.0
 40
0.4
 50
116.9999999999993
 51
236.99999999999901
  0
CIRCLE
  5
4429
  8
246
  6
PHANTOM2
 10
236.5772529999999
 20
34.945378000000069
 30
0.0
 40
3.174999999999998
  0
LINE
  5
442A
  8
241
  6
CONTINUOUS
 10
239.99945199999991
 20
39.579065000000021
 30
0.0
 11
239.49635199999989
 21
29.979357000000061
 31
0.0
  0
LINE
  5
442B
  8
240
  6
CONTINUOUS
 10
237.70093799999989
 20
27.64644600000004
 30
0.0
 11
238.91877500000001
 21
28.864283
 31
0.0
  0
ARC
  5
442C
  8
240
  6
CONTINUOUS
 10
237.34738399999989
 20
28.0
 30
0.0
 40
0.5
 50
270.0
 51
314.99999999999972
  0
LINE
  5
442D
  8
240
  6
CONTINUOUS
 10
239.085959
 20
29.600441000000039
 30
0.0
 11
239.0645359999998
 21
29.191669000000051
 31
0.0
  0
ARC
  5
442E
  8
240
  6
CONTINUOUS
 10
238.56522099999989
 20
29.21783600000003
 30
0.0
 40
0.5
 50
314.99999999999972
 51
357.00000000000091
  0
ARC
  5
442F
  8
241
  6
CONTINUOUS
 10
239.09690000000001
 20
30.000292000000002
 30
0.0
 40
0.4
 50
236.99999999999901
 51
357.00000000000091
  0
ARC
  5
4430
  8
241
  6
CONTINUOUS
 10
239.59999999999999
 20
39.600000000000023
 30
0.0
 40
0.4
 50
357.00000000000091
 51
116.9999999999993
  0
LINE
  5
4431
  8
250
  6
CONTINUOUS
 10
242.42551219958651
 20
55.939921598048912
 30
0.0
 11
264.99694077101509
 21
55.939921598048912
 31
0.0
1001
ITEMNAME
1000
LNSP2
  0
TEXT
  5
4432
  8
250
  6
CONTINUOUS
 10
244.85408362815789
 20
56.939921598048898
 30
0.0
 40
3.0
  1
ENH6-1
  7
YOKO
1001
ITEMNAME
1000
LNSP3
1001
ACAD
1000
MTEXTBEGIN
1070
    73
1070
     1
1070
    44
1040
1.0
1070
    74
1070
     0
1000
MTEXTEND
  0
TEXT
  5
4433
  8
250
  6
CONTINUOUS
 10
-44.181154464437633
 20
-34.304410928814761
 30
0.0
 40
3.0
  1
CK6
  7
YOKO
1001
ITEMNAME
1000
LNSP3
1001
ACAD
1000
MTEXTBEGIN
1070
    73
1070
     1
1070
    44
1040
1.0
1070
    74
1070
     0
1000
MTEXTEND
  0
LINE
  5
4434
  8
250
  6
CONTINUOUS
 10
240.09999999999999
 20
40.000000000000007
 30
0.0
 11
253.9999941635885
 21
40.000000000000007
 31
0.0
  0
LINE
  5
4435
  8
250
  6
CONTINUOUS
 10
252.9999941635885
 20
37.770000000000039
 30
0.0
 11
252.9999941635885
 21
-15.34285773397748
 31
0.0
  0
TEXT
  5
4436
  8
250
  6
CONTINUOUS
 10
251.9999941635885
 20
-14.342857733977461
 30
0.0
 40
3.0
  1
üi
 50
90.0
1001
ACAD
1000
MTEXTBEGIN
1070
    73
1070
     1
1070
    44
1040
1.0
1070
    74
1070
     0
1000
MTEXTEND
  0
TEXT
  5
4437
  8
250
  6
CONTINUOUS
 10
251.9999941635885
 20
-10.74285773397747
 30
0.0
 40
3.0
  1
\U+2205
 50
90.0
1001
ACAD
1000
MTEXTBEGIN
1070
    73
1070
     1
1070
    44
1040
1.0
1070
    74
1070
     0
1000
MTEXTEND
  0
TEXT
  5
4438
  8
250
  6
CONTINUOUS
 10
251.9999941635885
 20
-8.0285720196917492
 30
0.0
 40
3.0
  1
68ü`
 50
90.0
1001
ACAD
1000
MTEXTBEGIN
1070
    73
1070
     1
1070
    44
1040
1.0
1070
    74
1070
     0
1000
MTEXTEND
  0
TEXT
  5
4439
  8
250
  6
CONTINUOUS
 10
251.9999941635885
 20
1.28571369459395
 30
0.0
 40
3.0
  1
\U+2205
 50
90.0
1001
ACAD
1000
MTEXTBEGIN
1070
    73
1070
     1
1070
    44
1040
1.0
1070
    74
1070
     0
1000
MTEXTEND
  0
TEXT
  5
443A
  8
250
  6
CONTINUOUS
 10
251.9999941635885
 20
3.9999994088796722
 30
0.0
 40
3.0
  1
100üj
 50
90.0
1001
ACAD
1000
MTEXTBEGIN
1070
    73
1070
     1
1070
    44
1040
1.0
1070
    74
1070
     0
1000
MTEXTEND
  0
LINE
  5
443B
  8
250
  6
CONTINUOUS
 10
252.62832749692191
 20
37.770000000000039
 30
0.0
 11
252.9999941635885
 21
40.000000000000007
 31
0.0
  0
LINE
  5
443C
  8
250
  6
CONTINUOUS
 10
253.37166083025519
 20
37.770000000000039
 30
0.0
 11
252.9999941635885
 21
40.000000000000007
 31
0.0
  0
LINE
  5
443D
  8
250
  6
CONTINUOUS
 10
252.9999941635885
 20
40.000000000000007
 30
0.0
 11
252.9999941635885
 21
37.770000000000039
 31
0.0
  0
LINE
  5
443E
  8
250
  6
CONTINUOUS
 10
-23.87687672794711
 20
-19.931236650439271
 30
0.0
 11
-32.75258303586623
 21
-35.304410928814761
 31
0.0
1001
ACAD
1000
DSTYLE
1002
{
1070
     6
1000
OPEN
1070
    78
1070
     8
1070
   140
1040
3.0
1070
   173
1070
     1
1002
}
  0
LINE
  5
443F
  8
250
  6
CONTINUOUS
 10
-24.198749503020331
 20
-19.745403317105929
 30
0.0
 11
-22.761876727947111
 21
-17.999999999999979
 31
0.0
  0
LINE
  5
4440
  8
250
  6
CONTINUOUS
 10
-23.5550039528739
 20
-20.117069983772609
 30
0.0
 11
-22.761876727947111
 21
-17.999999999999979
 31
0.0
  0
LINE
  5
4441
  8
250
  6
CONTINUOUS
 10
-22.761876727947111
 20
-17.999999999999979
 30
0.0
 11
-23.87687672794711
 21
-19.931236650439271
 31
0.0
  0
LINE
  5
4442
  8
250
  6
CONTINUOUS
 10
236.99614469573541
 20
41.22805460791723
 30
0.0
 11
242.42551219958651
 21
55.939921598048912
 31
0.0
1001
ACAD
1000
DSTYLE
1002
{
1070
     6
1000
OPEN
1070
    78
1070
     8
1070
   140
1040
3.0
1070
   173
1070
     1
1002
}
  0
LINE
  5
4443
  8
250
  6
CONTINUOUS
 10
237.34482472342521
 20
41.099375357836323
 30
0.0
 11
236.2240691952498
 21
39.135974441778771
 31
0.0
  0
LINE
  5
4444
  8
250
  6
CONTINUOUS
 10
236.6474646680457
 20
41.35673385799813
 30
0.0
 11
236.2240691952498
 21
39.135974441778771
 31
0.0
  0
LINE
  5
4445
  8
250
  6
CONTINUOUS
 10
236.2240691952498
 20
39.135974441778771
 30
0.0
 11
236.99614469573541
 21
41.22805460791723
 31
0.0
  0
LINE
  5
4448
  8
245
  6
CENTER2
 10
-43.75527500000004
 20
0.0
 30
0.0
 11
241.4257749999999
 21
0.0
 31
0.0
  0
LINE
  5
444A
  8
240
  6
CONTINUOUS
 10
-40.0
 20
-18.0
 30
0.0
 11
-40.0
 21
18.000000000000011
 31
0.0
  0
LINE
  5
4452
  8
240
  6
CONTINUOUS
 10
236.1999999999999
 20
-25.0
 30
0.0
 11
235.2473719999999
 21
-26.649999999999959
 31
0.0
  0
LINE
  5
4453
  8
245
  6
CENTER2
 10
215.5
 20
40.058591999999969
 30
0.0
 11
215.5
 21
-33.55501100000005
 31
0.0
  0
LINE
  5
4456
  8
240
  6
CONTINUOUS
 10
0.0
 20
-31.999999999999989
 30
0.0
 11
0.0
 21
-17.999999999999972
 31
0.0
  0
LINE
  5
4457
  8
241
  6
CONTINUOUS
 10
191.9999718666075
 20
32.0
 30
0.0
 11
191.9999718666075
 21
-32.0
 31
0.0
  0
LINE
  5
4458
  8
240
  6
CONTINUOUS
 10
221.75
 20
-29.651030999999929
 30
0.0
 11
232.9499999999999
 21
-26.649999999999959
 31
0.0
  0
LINE
  5
4459
  8
241
  6
CONTINUOUS
 10
232.9499999999999
 20
-26.649999999999959
 30
0.0
 11
215.5
 21
-26.649999999999959
 31
0.0
  0
LINE
  5
445A
  8
240
  6
CONTINUOUS
 10
194.4111759999999
 20
-32.0
 30
0.0
 11
0.0
 21
-31.999999999999989
 31
0.0
  0
LINE
  5
445B
  8
240
  6
CONTINUOUS
 10
209.25
 20
-29.651030999999929
 30
0.0
 11
198.0499999999999
 21
-26.649999999999959
 31
0.0
  0
LINE
  5
445C
  8
241
  6
CONTINUOUS
 10
198.0499999999999
 20
-26.649999999999959
 30
0.0
 11
215.5
 21
-26.649999999999959
 31
0.0
  0
LINE
  5
445D
  8
240
  6
CONTINUOUS
 10
197.5
 20
-26.649999999999959
 30
0.0
 11
194.4111759999999
 21
-32.0
 31
0.0
  0
LINE
  5
445E
  8
240
  6
CONTINUOUS
 10
197.5
 20
-26.649999999999959
 30
0.0
 11
198.0499999999999
 21
-26.649999999999959
 31
0.0
  0
LINE
  5
445F
  8
240
  6
CONTINUOUS
 10
215.5
 20
-29.651030999999929
 30
0.0
 11
209.25
 21
-29.651030999999929
 31
0.0
  0
LINE
  5
4460
  8
240
  6
CONTINUOUS
 10
215.5
 20
-29.651030999999929
 30
0.0
 11
221.75
 21
-29.651030999999929
 31
0.0
  0
LINE
  5
4461
  8
240
  6
CONTINUOUS
 10
235.2473719999999
 20
-26.649999999999959
 30
0.0
 11
232.9499999999999
 21
-26.649999999999959
 31
0.0
  0
LINE
  5
4462
  8
240
  6
CONTINUOUS
 10
219.40000000000001
 20
27.5
 30
0.0
 11
229.85000000000039
 21
27.5
 31
0.0
  0
LINE
  5
4463
  8
241
  6
CONTINUOUS
 10
224.63064199999999
 20
23.800000000000011
 30
0.0
 11
230.1999999999999
 21
23.800000000000011
 31
0.0
  0
LINE
  5
4464
  8
241
  6
CONTINUOUS
 10
215.4871179999999
 20
26.25
 30
0.0
 11
230.5
 21
22.227309999999989
 31
0.0
  0
LINE
  5
4465
  8
240
  6
CONTINUOUS
 10
194.68021392822251
 20
32.0
 30
0.0
 11
0.0000000000000284
 21
32.0
 31
0.0
  0
LINE
  5
446A
  8
245
  6
CENTER2
 10
-15.99999999999997
 20
9.4657429999999323
 30
0.0
 11
-15.99999999999997
 21
-9.8178660000000235
 31
0.0
  0
LINE
  5
446C
  8
241
  6
CONTINUOUS
 10
0.0
 20
0.0
 30
0.0
 11
-0.0000000000000426
 21
18.0
 31
0.0
  0
CIRCLE
  5
446F
  8
241
  6
CONTINUOUS
 10
-15.99999999999997
 20
-0.0000000000000426
 30
0.0
 40
5.9835000000000003
  0
CIRCLE
  5
4470
  8
241
  6
CONTINUOUS
 10
-15.99999999999997
 20
-0.0000000000000426
 30
0.0
 40
4.5
  0
LINE
  5
4472
  8
240
  6
CONTINUOUS
 10
-40.0
 20
-18.0
 30
0.0
 11
-16.005726960257189
 21
-18.000000000000011
 31
0.0
  0
LINE
  5
4474
  8
240
  6
CONTINUOUS
 10
-16.005726960257189
 20
-18.000000000000011
 30
0.0
 11
-13.98499967329049
 21
-21.499999999999989
 31
0.0
  0
LINE
  5
4475
  8
241
  6
CONTINUOUS
 10
0.0
 20
0.0
 30
0.0
 11
0.0000000000000142
 21
-18.0
 31
0.0
  0
LINE
  5
4476
  8
240
  6
CONTINUOUS
 10
-1.9942741274754181
 20
-17.999999999999979
 30
0.0
 11
-4.0150001454207924
 21
-21.499999999999989
 31
0.0
  0
LINE
  5
4477
  8
240
  6
CONTINUOUS
 10
-13.98499967329049
 20
-21.499999999999989
 30
0.0
 11
-4.0150001454207924
 21
-21.499999999999989
 31
0.0
  0
LINE
  5
44A6
  8
240
  6
CONTINUOUS
 10
-1.9942741274754181
 20
-17.999999999999979
 30
0.0
 11
0.0
 21
-17.999999999999972
 31
0.0
  0
LINE
  5
44C7
  8
240
  6
CONTINUOUS
 10
-40.0
 20
18.000000000000011
 30
0.0
 11
-16.00572633225439
 21
17.999999999999979
 31
0.0
  0
LINE
  5
44C8
  8
240
  6
CONTINUOUS
 10
-16.00572633225439
 20
17.999999999999979
 30
0.0
 11
-13.984999777957629
 21
21.499999999999989
 31
0.0
  0
LINE
  5
44CA
  8
240
  6
CONTINUOUS
 10
0.0000000000000264
 20
32.0
 30
0.0
 11
-0.0000000000001279
 21
18.000000000000011
 31
0.0
  0
LINE
  5
44CB
  8
240
  6
CONTINUOUS
 10
-1.99427475547746
 20
17.999999999999311
 30
0.0
 11
-4.0150000407537201
 21
21.499999999999989
 31
0.0
  0
LINE
  5
44CC
  8
240
  6
CONTINUOUS
 10
-13.984999777957629
 20
21.499999999999989
 30
0.0
 11
-4.0150000407537201
 21
21.499999999999989
 31
0.0
  0
LINE
  5
44CF
  8
240
  6
CONTINUOUS
 10
-1.99427475547746
 20
17.999999999999311
 30
0.0
 11
-0.0000000000001279
 21
18.000000000000011
 31
0.0
  0
LINE
  5
44D3
  8
241
  6
CONTINUOUS
 10
215.5
 20
2.8867510000000021
 30
0.0
 11
213.0
 21
1.443375000000003
 31
0.0
  0
LINE
  5
44D4
  8
241
  6
CONTINUOUS
 10
213.0
 20
-1.443375999999942
 30
0.0
 11
215.5
 21
-2.886751999999944
 31
0.0
  0
CIRCLE
  5
44D5
  8
241
  6
CONTINUOUS
 10
215.5
 20
0.0
 30
0.0
 40
5.25
  0
CIRCLE
  5
44D6
  8
242
  6
CONTINUOUS
 10
215.5
 20
0.0
 30
0.0
 40
5.0
  0
LINE
  5
44D7
  8
241
  6
CONTINUOUS
 10
213.0
 20
1.443375000000003
 30
0.0
 11
213.0
 21
-1.443375999999942
 31
0.0
  0
LINE
  5
44D8
  8
241
  6
CONTINUOUS
 10
215.5
 20
-2.886751999999944
 30
0.0
 11
218.0
 21
-1.443375999999942
 31
0.0
  0
LINE
  5
44D9
  8
241
  6
CONTINUOUS
 10
218.0
 20
1.443375000000003
 30
0.0
 11
215.5
 21
2.8867510000000021
 31
0.0
  0
LINE
  5
44DA
  8
241
  6
CONTINUOUS
 10
218.0
 20
-1.443375999999942
 30
0.0
 11
218.0
 21
1.443375000000003
 31
0.0
  0
LINE
  5
44DB
  8
240
  6
CONTINUOUS
 10
201.14999999999989
 20
27.5
 30
0.0
 11
211.60000000000011
 21
27.5
 31
0.0
  0
LINE
  5
44DC
  8
241
  6
CONTINUOUS
 10
215.4871179999999
 20
26.25
 30
0.0
 11
200.80000000000001
 21
26.25
 31
0.0
  0
LINE
  5
44DD
  8
240
  6
CONTINUOUS
 10
194.68021392822251
 20
32.0
 30
0.0
 11
197.99997792822271
 21
26.25
 31
0.0
  0
LINE
  5
44DE
  8
240
  6
CONTINUOUS
 10
200.80000000000001
 20
26.25
 30
0.0
 11
197.99997792822271
 21
26.25
 31
0.0
  0
LINE
  5
44DF
  8
240
  6
CONTINUOUS
 10
200.80000000000001
 20
26.25
 30
0.0
 11
200.80000000000001
 21
27.150000000000048
 31
0.0
  0
LINE
  5
44E0
  8
240
  6
CONTINUOUS
 10
201.15000000000001
 20
27.5
 30
0.0
 11
200.80000000000001
 21
27.150000000000048
 31
0.0
  0
LINE
  5
44E1
  8
241
  6
CONTINUOUS
 10
215.5
 20
29.300000000000011
 30
0.0
 11
212.10121599999991
 21
29.300000000000011
 31
0.0
  0
LINE
  5
44E2
  8
241
  6
CONTINUOUS
 10
211.8682069999999
 20
29.10274200000007
 30
0.0
 11
212.10121599999991
 21
29.300000000000011
 31
0.0
  0
LINE
  5
44E3
  8
241
  6
CONTINUOUS
 10
211.8682069999999
 20
29.10274200000007
 30
0.0
 11
211.59999999999999
 21
27.5
 31
0.0
  0
LINE
  5
44E4
  8
241
  6
CONTINUOUS
 10
215.5
 20
29.300000000000011
 30
0.0
 11
218.89878300000001
 21
29.300000000000011
 31
0.0
  0
LINE
  5
44E5
  8
241
  6
CONTINUOUS
 10
218.89878300000001
 20
29.300000000000011
 30
0.0
 11
219.1317929999999
 21
29.10274200000007
 31
0.0
  0
LINE
  5
44E6
  8
241
  6
CONTINUOUS
 10
219.40000000000001
 20
27.5
 30
0.0
 11
219.13225199999991
 21
29.100000000000019
 31
0.0
  0
LINE
  5
44E7
  8
240
  6
CONTINUOUS
 10
236.1999999999999
 20
20.700000000000049
 30
0.0
 11
236.1999999999999
 21
-25.0
 31
0.0
  0
LINE
  5
44E8
  8
240
  6
CONTINUOUS
 10
230.5
 20
22.227309999999989
 30
0.0
 11
230.5
 21
23.5
 31
0.0
  0
LINE
  5
44E9
  8
240
  6
CONTINUOUS
 10
230.5
 20
22.227309999999989
 30
0.0
 11
236.1999999999999
 21
20.700000000000049
 31
0.0
  0
LINE
  5
44EA
  8
240
  6
CONTINUOUS
 10
230.1999999999999
 20
23.800000000000011
 30
0.0
 11
230.5
 21
23.5
 31
0.0
  0
LINE
  5
44EB
  8
241
  6
CONTINUOUS
 10
225.75025699999989
 20
23.5
 30
0.0
 11
230.5
 21
23.5
 31
0.0
  0
LINE
  5
44EC
  8
240
  6
CONTINUOUS
 10
230.1999999999999
 20
23.800000000000011
 30
0.0
 11
230.1999999999999
 21
27.150000000000048
 31
0.0
  0
LINE
  5
44ED
  8
240
  6
CONTINUOUS
 10
229.85000000000039
 20
27.5
 30
0.0
 11
230.1999999999999
 21
27.150000000000048
 31
0.0
  0
POLYLINE
  5
44F0
  8
241
  6
CONTINUOUS
 66
     1
 10
0.0
 20
0.0
 30
0.0
 70
     8
  0
VERTEX
  5
44F1
  8
241
  6
CONTINUOUS
 10
201.56399999999999
 20
19.940899999999999
 30
0.0
 70
    32
  0
VERTEX
  5
44F2
  8
241
  6
CONTINUOUS
 10
201.58099999999999
 20
19.7042
 30
0.0
 70
    32
  0
VERTEX
  5
44F3
  8
241
  6
CONTINUOUS
 10
201.631
 20
19.4681
 30
0.0
 70
    32
  0
VERTEX
  5
44F4
  8
241
  6
CONTINUOUS
 10
201.715
 20
19.2332
 30
0.0
 70
    32
  0
VERTEX
  5
44F5
  8
241
  6
CONTINUOUS
 10
201.83099999999999
 20
19.0001
 30
0.0
 70
    32
  0
VERTEX
  5
44F6
  8
241
  6
CONTINUOUS
 10
201.97999999999999
 20
18.769300000000001
 30
0.0
 70
    32
  0
VERTEX
  5
44F7
  8
241
  6
CONTINUOUS
 10
202.16200000000001
 20
18.5413
 30
0.0
 70
    32
  0
VERTEX
  5
44F8
  8
241
  6
CONTINUOUS
 10
202.375
 20
18.316700000000001
 30
0.0
 70
    32
  0
VERTEX
  5
44F9
  8
241
  6
CONTINUOUS
 10
202.62
 20
18.0962
 30
0.0
 70
    32
  0
VERTEX
  5
44FA
  8
241
  6
CONTINUOUS
 10
202.89500000000001
 20
17.880099999999999
 30
0.0
 70
    32
  0
VERTEX
  5
44FB
  8
241
  6
CONTINUOUS
 10
203.20099999999999
 20
17.669
 30
0.0
 70
    32
  0
VERTEX
  5
44FC
  8
241
  6
CONTINUOUS
 10
203.536
 20
17.4634
 30
0.0
 70
    32
  0
VERTEX
  5
44FD
  8
241
  6
CONTINUOUS
 10
203.899
 20
17.2638
 30
0.0
 70
    32
  0
VERTEX
  5
44FE
  8
241
  6
CONTINUOUS
 10
204.291
 20
17.070799999999998
 30
0.0
 70
    32
  0
VERTEX
  5
44FF
  8
241
  6
CONTINUOUS
 10
204.709
 20
16.884699999999999
 30
0.0
 70
    32
  0
VERTEX
  5
4500
  8
241
  6
CONTINUOUS
 10
205.15299999999999
 20
16.706
 30
0.0
 70
    32
  0
VERTEX
  5
4501
  8
241
  6
CONTINUOUS
 10
205.62100000000001
 20
16.5351
 30
0.0
 70
    32
  0
VERTEX
  5
4502
  8
241
  6
CONTINUOUS
 10
206.113
 20
16.372499999999999
 30
0.0
 70
    32
  0
VERTEX
  5
4503
  8
241
  6
CONTINUOUS
 10
206.62799999999999
 20
16.218499999999999
 30
0.0
 70
    32
  0
VERTEX
  5
4504
  8
241
  6
CONTINUOUS
 10
207.16300000000001
 20
16.073599999999999
 30
0.0
 70
    32
  0
VERTEX
  5
4505
  8
241
  6
CONTINUOUS
 10
207.71899999999999
 20
15.938000000000001
 30
0.0
 70
    32
  0
VERTEX
  5
4506
  8
241
  6
CONTINUOUS
 10
208.29300000000001
 20
15.812099999999999
 30
0.0
 70
    32
  0
VERTEX
  5
4507
  8
241
  6
CONTINUOUS
 10
208.88399999999999
 20
15.696199999999999
 30
0.0
 70
    32
  0
VERTEX
  5
4508
  8
241
  6
CONTINUOUS
 10
209.49100000000001
 20
15.5906
 30
0.0
 70
    32
  0
VERTEX
  5
4509
  8
241
  6
CONTINUOUS
 10
210.11199999999999
 20
15.4954
 30
0.0
 70
    32
  0
VERTEX
  5
450A
  8
241
  6
CONTINUOUS
 10
210.745
 20
15.411099999999999
 30
0.0
 70
    32
  0
VERTEX
  5
450B
  8
241
  6
CONTINUOUS
 10
211.38999999999999
 20
15.3377
 30
0.0
 70
    32
  0
VERTEX
  5
450C
  8
241
  6
CONTINUOUS
 10
212.04499999999999
 20
15.275399999999999
 30
0.0
 70
    32
  0
VERTEX
  5
450D
  8
241
  6
CONTINUOUS
 10
212.708
 20
15.224500000000001
 30
0.0
 70
    32
  0
VERTEX
  5
450E
  8
241
  6
CONTINUOUS
 10
213.37700000000001
 20
15.184900000000001
 30
0.0
 70
    32
  0
VERTEX
  5
450F
  8
241
  6
CONTINUOUS
 10
214.05099999999999
 20
15.1568
 30
0.0
 70
    32
  0
VERTEX
  5
4510
  8
241
  6
CONTINUOUS
 10
214.72800000000001
 20
15.1403
 30
0.0
 70
    32
  0
VERTEX
  5
4511
  8
241
  6
CONTINUOUS
 10
215.40700000000001
 20
15.135400000000001
 30
0.0
 70
    32
  0
VERTEX
  5
4512
  8
241
  6
CONTINUOUS
 10
216.08600000000001
 20
15.142200000000001
 30
0.0
 70
    32
  0
VERTEX
  5
4513
  8
241
  6
CONTINUOUS
 10
216.76300000000001
 20
15.160500000000001
 30
0.0
 70
    32
  0
VERTEX
  5
4514
  8
241
  6
CONTINUOUS
 10
217.43700000000001
 20
15.1904
 30
0.0
 70
    32
  0
VERTEX
  5
4515
  8
241
  6
CONTINUOUS
 10
218.10599999999999
 20
15.2318
 30
0.0
 70
    32
  0
VERTEX
  5
4516
  8
241
  6
CONTINUOUS
 10
218.76900000000001
 20
15.284599999999999
 30
0.0
 70
    32
  0
VERTEX
  5
4517
  8
241
  6
CONTINUOUS
 10
219.423
 20
15.348599999999999
 30
0.0
 70
    32
  0
VERTEX
  5
4518
  8
241
  6
CONTINUOUS
 10
220.06800000000001
 20
15.4238
 30
0.0
 70
    32
  0
VERTEX
  5
4519
  8
241
  6
CONTINUOUS
 10
220.702
 20
15.5099
 30
0.0
 70
    32
  0
VERTEX
  5
451A
  8
241
  6
CONTINUOUS
 10
221.322
 20
15.6067
 30
0.0
 70
    32
  0
VERTEX
  5
451B
  8
241
  6
CONTINUOUS
 10
221.929
 20
15.714
 30
0.0
 70
    32
  0
VERTEX
  5
451C
  8
241
  6
CONTINUOUS
 10
222.52000000000001
 20
15.8315
 30
0.0
 70
    32
  0
VERTEX
  5
451D
  8
241
  6
CONTINUOUS
 10
223.09299999999999
 20
15.9589
 30
0.0
 70
    32
  0
VERTEX
  5
451E
  8
241
  6
CONTINUOUS
 10
223.648
 20
16.096
 30
0.0
 70
    32
  0
VERTEX
  5
451F
  8
241
  6
CONTINUOUS
 10
224.184
 20
16.2425
 30
0.0
 70
    32
  0
VERTEX
  5
4520
  8
241
  6
CONTINUOUS
 10
224.69800000000001
 20
16.3978
 30
0.0
 70
    32
  0
VERTEX
  5
4521
  8
241
  6
CONTINUOUS
 10
225.18899999999999
 20
16.561800000000002
 30
0.0
 70
    32
  0
VERTEX
  5
4522
  8
241
  6
CONTINUOUS
 10
225.65700000000001
 20
16.733899999999998
 30
0.0
 70
    32
  0
VERTEX
  5
4523
  8
241
  6
CONTINUOUS
 10
226.101
 20
16.913799999999998
 30
0.0
 70
    32
  0
VERTEX
  5
4524
  8
241
  6
CONTINUOUS
 10
226.518
 20
17.100999999999999
 30
0.0
 70
    32
  0
VERTEX
  5
4525
  8
241
  6
CONTINUOUS
 10
226.90899999999999
 20
17.295200000000001
 30
0.0
 70
    32
  0
VERTEX
  5
4526
  8
241
  6
CONTINUOUS
 10
227.27199999999999
 20
17.495699999999999
 30
0.0
 70
    32
  0
VERTEX
  5
4527
  8
241
  6
CONTINUOUS
 10
227.60599999999999
 20
17.702200000000001
 30
0.0
 70
    32
  0
VERTEX
  5
4528
  8
241
  6
CONTINUOUS
 10
227.91200000000001
 20
17.914100000000001
 30
0.0
 70
    32
  0
VERTEX
  5
4529
  8
241
  6
CONTINUOUS
 10
228.18600000000001
 20
18.131
 30
0.0
 70
    32
  0
VERTEX
  5
452A
  8
241
  6
CONTINUOUS
 10
228.43100000000001
 20
18.3522
 30
0.0
 70
    32
  0
VERTEX
  5
452B
  8
241
  6
CONTINUOUS
 10
228.643
 20
18.577400000000001
 30
0.0
 70
    32
  0
VERTEX
  5
452C
  8
241
  6
CONTINUOUS
 10
228.82400000000001
 20
18.805800000000001
 30
0.0
 70
    32
  0
VERTEX
  5
452D
  8
241
  6
CONTINUOUS
 10
228.97300000000001
 20
19.037099999999999
 30
0.0
 70
    32
  0
VERTEX
  5
452E
  8
241
  6
CONTINUOUS
 10
229.08799999999999
 20
19.270499999999998
 30
0.0
 70
    32
  0
VERTEX
  5
452F
  8
241
  6
CONTINUOUS
 10
229.17099999999999
 20
19.505600000000001
 30
0.0
 70
    32
  0
VERTEX
  5
4530
  8
241
  6
CONTINUOUS
 10
229.221
 20
19.741900000000001
 30
0.0
 70
    32
  0
VERTEX
  5
4531
  8
241
  6
CONTINUOUS
 10
229.23699999999999
 20
19.9786
 30
0.0
 70
    32
  0
VERTEX
  5
4532
  8
241
  6
CONTINUOUS
 10
229.22
 20
20.215299999999999
 30
0.0
 70
    32
  0
VERTEX
  5
4533
  8
241
  6
CONTINUOUS
 10
229.16999999999999
 20
20.4514
 30
0.0
 70
    32
  0
VERTEX
  5
4534
  8
241
  6
CONTINUOUS
 10
229.08600000000001
 20
20.686299999999999
 30
0.0
 70
    32
  0
VERTEX
  5
4535
  8
241
  6
CONTINUOUS
 10
228.97
 20
20.9194
 30
0.0
 70
    32
  0
VERTEX
  5
4536
  8
241
  6
CONTINUOUS
 10
228.821
 20
21.150300000000001
 30
0.0
 70
    32
  0
VERTEX
  5
4537
  8
241
  6
CONTINUOUS
 10
228.63900000000001
 20
21.3782
 30
0.0
 70
    32
  0
VERTEX
  5
4538
  8
241
  6
CONTINUOUS
 10
228.42599999999999
 20
21.602799999999998
 30
0.0
 70
    32
  0
VERTEX
  5
4539
  8
241
  6
CONTINUOUS
 10
228.18100000000001
 20
21.823399999999999
 30
0.0
 70
    32
  0
VERTEX
  5
453A
  8
241
  6
CONTINUOUS
 10
227.90600000000001
 20
22.0395
 30
0.0
 70
    32
  0
VERTEX
  5
453B
  8
241
  6
CONTINUOUS
 10
227.59999999999999
 20
22.250499999999999
 30
0.0
 70
    32
  0
VERTEX
  5
453C
  8
241
  6
CONTINUOUS
 10
227.26499999999999
 20
22.456099999999999
 30
0.0
 70
    32
  0
VERTEX
  5
453D
  8
241
  6
CONTINUOUS
 10
226.90199999999999
 20
22.6557
 30
0.0
 70
    32
  0
VERTEX
  5
453E
  8
241
  6
CONTINUOUS
 10
226.50999999999999
 20
22.848700000000001
 30
0.0
 70
    32
  0
VERTEX
  5
453F
  8
241
  6
CONTINUOUS
 10
226.09200000000001
 20
23.034800000000001
 30
0.0
 70
    32
  0
VERTEX
  5
4540
  8
241
  6
CONTINUOUS
 10
225.648
 20
23.2135
 30
0.0
 70
    32
  0
VERTEX
  5
4541
  8
241
  6
CONTINUOUS
 10
225.18000000000001
 20
23.384399999999999
 30
0.0
 70
    32
  0
VERTEX
  5
4542
  8
241
  6
CONTINUOUS
 10
224.68799999999999
 20
23.547000000000001
 30
0.0
 70
    32
  0
VERTEX
  5
4543
  8
241
  6
CONTINUOUS
 10
224.173
 20
23.701000000000001
 30
0.0
 70
    32
  0
VERTEX
  5
4544
  8
241
  6
CONTINUOUS
 10
223.63800000000001
 20
23.8459
 30
0.0
 70
    32
  0
VERTEX
  5
4545
  8
241
  6
CONTINUOUS
 10
223.08199999999999
 20
23.9815
 30
0.0
 70
    32
  0
VERTEX
  5
4546
  8
241
  6
CONTINUOUS
 10
222.50800000000001
 20
24.107399999999998
 30
0.0
 70
    32
  0
VERTEX
  5
4547
  8
241
  6
CONTINUOUS
 10
221.917
 20
24.223299999999998
 30
0.0
 70
    32
  0
VERTEX
  5
4548
  8
241
  6
CONTINUOUS
 10
221.31100000000001
 20
24.329000000000001
 30
0.0
 70
    32
  0
VERTEX
  5
4549
  8
241
  6
CONTINUOUS
 10
220.69
 20
24.424099999999999
 30
0.0
 70
    32
  0
VERTEX
  5
454A
  8
241
  6
CONTINUOUS
 10
220.05600000000001
 20
24.508400000000002
 30
0.0
 70
    32
  0
VERTEX
  5
454B
  8
241
  6
CONTINUOUS
 10
219.411
 20
24.581800000000001
 30
0.0
 70
    32
  0
VERTEX
  5
454C
  8
241
  6
CONTINUOUS
 10
218.756
 20
24.644100000000002
 30
0.0
 70
    32
  0
VERTEX
  5
454D
  8
241
  6
CONTINUOUS
 10
218.09299999999999
 20
24.6951
 30
0.0
 70
    32
  0
VERTEX
  5
454E
  8
241
  6
CONTINUOUS
 10
217.42400000000001
 20
24.7346
 30
0.0
 70
    32
  0
VERTEX
  5
454F
  8
241
  6
CONTINUOUS
 10
216.75
 20
24.762699999999999
 30
0.0
 70
    32
  0
VERTEX
  5
4550
  8
241
  6
CONTINUOUS
 10
216.07300000000001
 20
24.779199999999999
 30
0.0
 70
    32
  0
VERTEX
  5
4551
  8
241
  6
CONTINUOUS
 10
215.39400000000001
 20
24.784099999999999
 30
0.0
 70
    32
  0
VERTEX
  5
4552
  8
241
  6
CONTINUOUS
 10
214.715
 20
24.7773
 30
0.0
 70
    32
  0
VERTEX
  5
4553
  8
241
  6
CONTINUOUS
 10
214.03800000000001
 20
24.759
 30
0.0
 70
    32
  0
VERTEX
  5
4554
  8
241
  6
CONTINUOUS
 10
213.364
 20
24.729099999999999
 30
0.0
 70
    32
  0
VERTEX
  5
4555
  8
241
  6
CONTINUOUS
 10
212.69499999999999
 20
24.6877
 30
0.0
 70
    32
  0
VERTEX
  5
4556
  8
241
  6
CONTINUOUS
 10
212.03200000000001
 20
24.634899999999998
 30
0.0
 70
    32
  0
VERTEX
  5
4557
  8
241
  6
CONTINUOUS
 10
211.37799999999999
 20
24.570900000000002
 30
0.0
 70
    32
  0
VERTEX
  5
4558
  8
241
  6
CONTINUOUS
 10
210.733
 20
24.495699999999999
 30
0.0
 70
    32
  0
VERTEX
  5
4559
  8
241
  6
CONTINUOUS
 10
210.09899999999999
 20
24.409600000000001
 30
0.0
 70
    32
  0
VERTEX
  5
455A
  8
241
  6
CONTINUOUS
 10
209.47900000000001
 20
24.312799999999999
 30
0.0
 70
    32
  0
VERTEX
  5
455B
  8
241
  6
CONTINUOUS
 10
208.87200000000001
 20
24.205500000000001
 30
0.0
 70
    32
  0
VERTEX
  5
455C
  8
241
  6
CONTINUOUS
 10
208.28100000000001
 20
24.088000000000001
 30
0.0
 70
    32
  0
VERTEX
  5
455D
  8
241
  6
CONTINUOUS
 10
207.708
 20
23.960599999999999
 30
0.0
 70
    32
  0
VERTEX
  5
455E
  8
241
  6
CONTINUOUS
 10
207.15299999999999
 20
23.823499999999999
 30
0.0
 70
    32
  0
VERTEX
  5
455F
  8
241
  6
CONTINUOUS
 10
206.61799999999999
 20
23.677099999999999
 30
0.0
 70
    32
  0
VERTEX
  5
4560
  8
241
  6
CONTINUOUS
 10
206.10400000000001
 20
23.521699999999999
 30
0.0
 70
    32
  0
VERTEX
  5
4561
  8
241
  6
CONTINUOUS
 10
205.61199999999999
 20
23.357700000000001
 30
0.0
 70
    32
  0
VERTEX
  5
4562
  8
241
  6
CONTINUOUS
 10
205.14400000000001
 20
23.185600000000001
 30
0.0
 70
    32
  0
VERTEX
  5
4563
  8
241
  6
CONTINUOUS
 10
204.69999999999999
 20
23.005700000000001
 30
0.0
 70
    32
  0
VERTEX
  5
4564
  8
241
  6
CONTINUOUS
 10
204.28299999999999
 20
22.8185
 30
0.0
 70
    32
  0
VERTEX
  5
4565
  8
241
  6
CONTINUOUS
 10
203.892
 20
22.624300000000002
 30
0.0
 70
    32
  0
VERTEX
  5
4566
  8
241
  6
CONTINUOUS
 10
203.529
 20
22.4238
 30
0.0
 70
    32
  0
VERTEX
  5
4567
  8
241
  6
CONTINUOUS
 10
203.19499999999999
 20
22.217300000000002
 30
0.0
 70
    32
  0
VERTEX
  5
4568
  8
241
  6
CONTINUOUS
 10
202.88999999999999
 20
22.005400000000002
 30
0.0
 70
    32
  0
VERTEX
  5
4569
  8
241
  6
CONTINUOUS
 10
202.61500000000001
 20
21.788499999999999
 30
0.0
 70
    32
  0
VERTEX
  5
456A
  8
241
  6
CONTINUOUS
 10
202.37
 20
21.567299999999999
 30
0.0
 70
    32
  0
VERTEX
  5
456B
  8
241
  6
CONTINUOUS
 10
202.15799999999999
 20
21.342199999999998
 30
0.0
 70
    32
  0
VERTEX
  5
456C
  8
241
  6
CONTINUOUS
 10
201.977
 20
21.113700000000001
 30
0.0
 70
    32
  0
VERTEX
  5
456D
  8
241
  6
CONTINUOUS
 10
201.828
 20
20.8825
 30
0.0
 70
    32
  0
VERTEX
  5
456E
  8
241
  6
CONTINUOUS
 10
201.71299999999999
 20
20.649000000000001
 30
0.0
 70
    32
  0
VERTEX
  5
456F
  8
241
  6
CONTINUOUS
 10
201.63
 20
20.413900000000002
 30
0.0
 70
    32
  0
VERTEX
  5
4570
  8
241
  6
CONTINUOUS
 10
201.58000000000001
 20
20.177700000000002
 30
0.0
 70
    32
  0
VERTEX
  5
4571
  8
241
  6
CONTINUOUS
 10
201.56399999999999
 20
19.940899999999999
 30
0.0
 70
    32
  0
SEQEND
  5
4572
  8
241
  6
CONTINUOUS
  0
LINE
  5
4573
  8
250
  6
CONTINUOUS
 10
0.000000000000002
 20
32.5
 30
0.0
 11
0.0000000000000035
 21
57.0
 31
0.0
  0
LINE
  5
4574
  8
250
  6
CONTINUOUS
 10
240.0
 20
40.100000000000009
 30
0.0
 11
240.0
 21
57.0
 31
0.0
  0
LINE
  5
4575
  8
250
  6
CONTINUOUS
 10
2.2300000000000031
 20
56.0
 30
0.0
 11
237.77000000000001
 21
56.0
 31
0.0
  0
INSERT
  5
4576
  8
250
  6
CONTINUOUS
  2
*U4
 10
0.0
 20
0.0
 30
0.0
  0
LINE
  5
4577
  8
250
  6
CONTINUOUS
 10
2.2300000000000031
 20
55.62833333333333
 30
0.0
 11
0.0000000000000034
 21
56.0
 31
0.0
  0
LINE
  5
4578
  8
250
  6
CONTINUOUS
 10
2.2300000000000031
 20
56.37166666666667
 30
0.0
 11
0.0000000000000034
 21
56.0
 31
0.0
  0
LINE
  5
4579
  8
250
  6
CONTINUOUS
 10
0.0000000000000034
 20
56.0
 30
0.0
 11
2.2300000000000031
 21
56.0
 31
0.0
  0
LINE
  5
457A
  8
250
  6
CONTINUOUS
 10
237.77000000000001
 20
56.37166666666667
 30
0.0
 11
240.0
 21
56.0
 31
0.0
  0
LINE
  5
457B
  8
250
  6
CONTINUOUS
 10
237.77000000000001
 20
55.62833333333333
 30
0.0
 11
240.0
 21
56.0
 31
0.0
  0
LINE
  5
457C
  8
250
  6
CONTINUOUS
 10
240.0
 20
56.0
 30
0.0
 11
237.77000000000001
 21
56.0
 31
0.0
  0
LINE
  5
4586
  8
241
  6
CONTINUOUS
 10
-1.99427475547746
 20
17.999999999999311
 30
0.0
 11
-16.00572633225477
 21
17.999999999999321
 31
0.0
  0
LINE
  5
458B
  8
241
  6
CONTINUOUS
 10
-1.9942741274754181
 20
-17.999999999999979
 30
0.0
 11
-16.005726960257189
 21
-18.000000000000011
 31
0.0
  0
LINE
  5
45B3
  8
247
  6
CONTINUOUS
 10
7.0
 20
-18.250000000069999
 30
0.0
 11
7.0
 21
-11.557692308029999
 31
0.0
  0
ARC
  5
45B4
  8
247
  6
CONTINUOUS
 10
5.2500000000699742
 20
-18.250000000069999
 30
0.0
 40
1.7499999999299991
 50
180.0
 51
0.0
  0
ARC
  5
45B5
  8
247
  6
CONTINUOUS
 10
5.2500000000699742
 20
-11.557692308029999
 30
0.0
 40
1.7499999999299991
 50
0.0
 51
180.0
  0
LINE
  5
45B6
  8
247
  6
CONTINUOUS
 10
3.5000000001400049
 20
-17.384615384719979
 30
0.0
 11
6.500000000020008
 21
-18.244851541961989
 31
0.0
  0
LINE
  5
45B7
  8
247
  6
CONTINUOUS
 10
4.9230769231600098
 20
-16.484983818335792
 30
0.0
 11
4.9230769231600098
 21
-17.792676125975809
 31
0.0
  0
ARC
  5
45B8
  8
247
  6
CONTINUOUS
 10
4.0495986677029796
 20
-16.14514381608976
 30
0.0
 40
0.5538165441895349
 50
72.997889675291759
 51
172.92416621851359
  0
ARC
  5
45B9
  8
247
  6
CONTINUOUS
 10
3.936033044465773
 20
-16.56687832302876
 30
0.0
 40
0.9904354236226808
 50
4.7429368522022122
 51
73.849226273266311
1001
GENIUS_GENOBJ-N-FIL_13
1002
{
1000
OWNER
1000
GEN
1002
}
1001
GENIUS_GENODEF_13
1002
{
1000
HIER
1070
     0
1002
}
1002
{
1000
MANEDIT
1070
     0
1002
}
1002
{
1000
NOSEL
1070
     0
1002
}
1002
{
1000
BEHIND
1070
     0
1002
}
1002
{
1000
OTHER
1070
     0
1002
}
1002
{
1000
REACTOR
1002
}
  0
LINE
  5
45BA
  8
247
  6
CONTINUOUS
 10
6.500000000020008
 20
-16.937159234322021
 30
0.0
 11
6.500000000020008
 21
-18.244851541961989
 31
0.0
  0
LINE
  5
45BB
  8
247
  6
CONTINUOUS
 10
3.5000000001400049
 20
-17.384615384719979
 30
0.0
 11
3.5000000001400049
 21
-16.07692307707995
 31
0.0
  0
ARC
  5
45BC
  8
247
  6
CONTINUOUS
 10
5.4820242326655366
 20
-16.56091963654697
 30
0.0
 40
0.5640818586791229
 50
65.990941652528875
 51
172.26344345906909
  0
ARC
  5
45BD
  8
247
  6
CONTINUOUS
 10
5.4874290391865648
 20
-17.03826268534706
 30
0.0
 40
1.0176059446230981
 50
5.701985164259785
 51
77.277338436822362
1001
GENIUS_GENOBJ-N-FIL_13
1002
{
1000
OWNER
1000
GEN
1002
}
1001
GENIUS_GENODEF_13
1002
{
1000
HIER
1070
     0
1002
}
1002
{
1000
MANEDIT
1070
     0
1002
}
1002
{
1000
NOSEL
1070
     0
1002
}
1002
{
1000
BEHIND
1070
     0
1002
}
1002
{
1000
OTHER
1070
     0
1002
}
1002
{
1000
REACTOR
1002
}
  0
LINE
  5
45BE
  8
247
  6
CONTINUOUS
 10
6.500000000020008
 20
-15.283313080541999
 30
0.0
 11
3.5000000001400049
 21
-14.423076923299989
 31
0.0
  0
LINE
  5
45BF
  8
247
  6
CONTINUOUS
 10
3.5000000001400049
 20
-12.00000000032
 30
0.0
 11
3.5000000001400049
 21
-12.565736619456599
 31
0.0
  0
LINE
  5
45C0
  8
247
  6
CONTINUOUS
 10
6.500000000020008
 20
-13.461538461799959
 30
0.0
 11
6.500000000020008
 21
-12.846153846439989
 31
0.0
  0
ARC
  5
45C1
  8
247
  6
CONTINUOUS
 10
5.5832851359733686
 20
-11.708791209122831
 30
0.0
 40
2.2526500823422122
 50
202.3594881415292
 51
254.99324854284609
  0
ARC
  5
45C2
  8
247
  6
CONTINUOUS
 10
4.3083126551945261
 20
-12.374069479213199
 30
0.0
 40
0.8906723995727782
 50
94.994589319075317
 51
155.1663289573039
1001
GENIUS_GENOBJ-N-FIL_13
1002
{
1000
OWNER
1000
GEN
1002
}
1001
GENIUS_GENODEF_13
1002
{
1000
HIER
1070
     0
1002
}
1002
{
1000
MANEDIT
1070
     0
1002
}
1002
{
1000
NOSEL
1070
     0
1002
}
1002
{
1000
BEHIND
1070
     0
1002
}
1002
{
1000
OTHER
1070
     0
1002
}
1002
{
1000
REACTOR
1002
}
  0
ARC
  5
45C3
  8
247
  6
CONTINUOUS
 10
5.1601458886677838
 20
-13.22645888621255
 30
0.0
 40
1.392781735586712
 50
15.8460965557808
 51
82.325137004169065
  0
ARC
  5
45C4
  8
247
  6
CONTINUOUS
 10
5.4592434315272831
 20
-12.64221272584038
 30
0.0
 40
1.324563662670287
 50
249.7136016704969
 51
321.78874565640928
1001
GENIUS_GENOBJ-N-FIL_13
1002
{
1000
OWNER
1000
GEN
1002
}
1001
GENIUS_GENODEF_13
1002
{
1000
HIER
1070
     0
1002
}
1002
{
1000
MANEDIT
1070
     0
1002
}
1002
{
1000
NOSEL
1070
     0
1002
}
1002
{
1000
BEHIND
1070
     0
1002
}
1002
{
1000
OTHER
1070
     0
1002
}
1002
{
1000
REACTOR
1002
}
  0
LINE
  5
45C5
  8
247
  6
CONTINUOUS
 10
5.346153846219976
 20
-12.53846153876
 30
0.0
 11
5.346153846219976
 21
-11.84615384648
 31
0.0
  0
LINE
  5
45C6
  8
247
  6
CONTINUOUS
 10
3.500000000139976
 20
-18.250000000069999
 30
0.0
 11
3.500000000139976
 21
-17.576923077020041
 31
0.0
  0
VIEWPORT
  5
22
 67
     1
  8
0
 10
261.51769911504419
 20
148.5
 30
0.0
 40
523.0353982300885
 41
297.0
 68
     1
 69
     1
1001
ACAD
1000
MVIEW
1002
{
1070
    16
1010
0.0
1020
0.0
1030
0.0
1010
0.0
1020
0.0
1030
1.0
1040
0.0
1040
297.0
1040
261.51769911504419
1040
148.5
1040
50.0
1040
0.0
1040
0.0
1070
     0
1070
   100
1070
     1
1070
     1
1070
     0
1070
     0
1070
     0
1070
     0
1040
0.0
1040
0.0
1040
0.0
1040
1.0
1040
1.0
1040
10.0
1040
10.0
1070
     0
1002
{
1002
}
1002
}
1001
GENIUS_GENODEF_13
1002
{
1000
HIER
1070
     0
1002
}
1002
{
1000
MANEDIT
1070
     0
1002
}
1002
{
1000
NOSEL
1070
     0
1002
}
1002
{
1000
BEHIND
1070
     0
1002
}
1002
{
1000
OTHER
1070
     0
1002
}
1002
{
1000
REACTOR
1002
}
1001
GENIUS_GENOBJ-N-SDF_13
1002
{
1000
OWNER
1000
GEN
1002
}
1001
GENIUS_GENSCREG_15
1000
PF
1040
1.0
1000
DF
1040
1.0
1000
MIN
1011
0.0
1021
0.0
1031
0.0
1021
0.0
1031
0.0
1000
MAX
1011
523.0353982300885
1021
0.0
1031
0.0
1021
297.0
1031
0.0
1000
FLAGS
1070
     4
  0
ENDSEC
  0
EOF
