  0
SECTION
  2
HEADER
  9
$ACADVER
  1
AC1009
  9
$INSBASE
 10
0.0
 20
0.0
 30
0.0
  9
$EXTMIN
 10
-52.025218903432091
 20
-49.426868838636182
 30
0.0
  9
$EXTMAX
 10
263.273212088332
 20
82.000000000000014
 30
0.0
  9
$LIMMIN
 10
0.0
 20
0.0
  9
$LIMMAX
 10
297.0
 20
210.0
  9
$ORTHOMODE
 70
     0
  9
$REGENMODE
 70
     1
  9
$FILLMODE
 70
     1
  9
$QTEXTMODE
 70
     0
  9
$MIRRTEXT
 70
     1
  9
$DRAGMODE
 70
     2
  9
$LTSCALE
 40
10.0
  9
$OSMODE
 70
    33
  9
$ATTMODE
 70
     1
  9
$TEXTSIZE
 40
3.0
  9
$TRACEWID
 40
1.0
  9
$TEXTSTYLE
  7
YOKO
  9
$CLAYER
  8
240
  9
$CELTYPE
  6
BYLAYER
  9
$CECOLOR
 62
   256
  9
$DIMSCALE
 40
1.0
  9
$DIMASZ
 40
2.2299999999999991
  9
$DIMEXO
 40
0.5
  9
$DIMDLI
 40
7.0
  9
$DIMRND
 40
0.0
  9
$DIMDLE
 40
0.0
  9
$DIMEXE
 40
1.0
  9
$DIMTP
 40
0.0
  9
$DIMTM
 40
0.01
  9
$DIMTXT
 40
2.7999999999999989
  9
$DIMCEN
 40
0.0
  9
$DIMTSZ
 40
0.0
  9
$DIMTOL
 70
     0
  9
$DIMLIM
 70
     0
  9
$DIMTIH
 70
     0
  9
$DIMTOH
 70
     0
  9
$DIMSE1
 70
     0
  9
$DIMSE2
 70
     0
  9
$DIMTAD
 70
     3
  9
$DIMZIN
 70
     9
  9
$DIMBLK
  1
OPEN
  9
$DIMASO
 70
     1
  9
$DIMSHO
 70
     1
  9
$DIMPOST
  1

  9
$DIMAPOST
  1

  9
$DIMALT
 70
     0
  9
$DIMALTD
 70
     2
  9
$DIMALTF
 40
25.399999999999999
  9
$DIMLFAC
 40
1.0
  9
$DIMTOFL
 70
     1
  9
$DIMTVP
 40
0.0
  9
$DIMTIX
 70
     1
  9
$DIMSOXD
 70
     0
  9
$DIMSAH
 70
     0
  9
$DIMBLK1
  1

  9
$DIMBLK2
  1

  9
$DIMSTYLE
  2
BIGT
  9
$DIMCLRD
 70
   256
  9
$DIMCLRE
 70
   256
  9
$DIMCLRT
 70
    40
  9
$DIMTFAC
 40
1.0
  9
$DIMGAP
 40
1.0
  9
$LUNITS
 70
     2
  9
$LUPREC
 70
     6
  9
$SKETCHINC
 40
1.0
  9
$FILLETRAD
 40
0.0
  9
$AUNITS
 70
     0
  9
$AUPREC
 70
     6
  9
$MENU
  1
.
  9
$ELEVATION
 40
0.0
  9
$PELEVATION
 40
0.0
  9
$THICKNESS
 40
0.0
  9
$LIMCHECK
 70
     0
  9
$BLIPMODE
 70
     0
  9
$CHAMFERA
 40
0.2
  9
$CHAMFERB
 40
0.2
  9
$SKPOLY
 70
     0
  9
$TDCREATE
 40
2458458.4449720718
  9
$TDUPDATE
 40
2458458.4632199649
  9
$TDINDWG
 40
0.018007963
  9
$TDUSRTIMER
 40
0.0180078935
  9
$USRTIMER
 70
     1
  9
$ANGBASE
 50
0.0
  9
$ANGDIR
 70
     0
  9
$PDMODE
 70
     1
  9
$PDSIZE
 40
0.0
  9
$PLINEWID
 40
0.0
  9
$COORDS
 70
     1
  9
$SPLFRAME
 70
     0
  9
$SPLINETYPE
 70
     6
  9
$SPLINESEGS
 70
     4
  9
$ATTDIA
 70
     1
  9
$ATTREQ
 70
     1
  9
$HANDLING
 70
     1
  9
$HANDSEED
  5
46A2
  9
$SURFTAB1
 70
     6
  9
$SURFTAB2
 70
     6
  9
$SURFTYPE
 70
     6
  9
$SURFU
 70
     6
  9
$SURFV
 70
     6
  9
$UCSNAME
  2

  9
$UCSORG
 10
0.0
 20
0.0
 30
0.0
  9
$UCSXDIR
 10
1.0
 20
0.0
 30
0.0
  9
$UCSYDIR
 10
0.0
 20
1.0
 30
0.0
  9
$PUCSNAME
  2

  9
$PUCSORG
 10
0.0
 20
0.0
 30
0.0
  9
$PUCSXDIR
 10
1.0
 20
0.0
 30
0.0
  9
$PUCSYDIR
 10
0.0
 20
1.0
 30
0.0
  9
$USERI1
 70
     1
  9
$USERI2
 70
     0
  9
$USERI3
 70
     0
  9
$USERI4
 70
     0
  9
$USERI5
 70
     0
  9
$USERR1
 40
0.0
  9
$USERR2
 40
0.0
  9
$USERR3
 40
0.0
  9
$USERR4
 40
0.0
  9
$USERR5
 40
0.0
  9
$WORLDVIEW
 70
     1
  9
$SHADEDGE
 70
     3
  9
$SHADEDIF
 70
    70
  9
$TILEMODE
 70
     1
  9
$MAXACTVP
 70
    16
  9
$PLIMCHECK
 70
     0
  9
$PEXTMIN
 10
1.0000000000000000E+020
 20
1.0000000000000000E+020
 30
1.0000000000000000E+020
  9
$PEXTMAX
 10
-1.0000000000000000E+020
 20
-1.0000000000000000E+020
 30
-1.0000000000000000E+020
  9
$PLIMMIN
 10
0.0
 20
0.0
  9
$PLIMMAX
 10
420.0
 20
297.0
  9
$UNITMODE
 70
     0
  9
$VISRETAIN
 70
     1
  9
$PLINEGEN
 70
     0
  9
$PSLTSCALE
 70
     1
  0
ENDSEC
  0
SECTION
  2
TABLES
  0
TABLE
  2
VPORT
 70
     1
  0
VPORT
  2
*ACTIVE
 70
     0
 10
0.0
 20
0.0
 11
1.0
 21
1.0
 12
145.21215514832531
 22
38.145062319548153
 13
0.0
 23
0.0
 14
7.0
 24
7.0
 15
7.0
 25
7.0
 16
0.0
 26
0.0
 36
1.0
 17
0.0
 27
0.0
 37
0.0
 40
320.48266770594978
 41
1.680634201585504
 42
50.0
 43
0.0
 44
0.0
 50
0.0
 51
0.0
 71
     0
 72
  2000
 73
     1
 74
     0
 75
     0
 76
     1
 77
     0
 78
     0
  0
ENDTAB
  0
TABLE
  2
LTYPE
 70
    21
  0
LTYPE
  2
CONTINUOUS
 70
     0
  3
Solid line
 72
    65
 73
     0
 40
0.0
  0
LTYPE
  2
CENTER2
 70
     0
  3
___ _ ___ _ ___ _ ___ _ ___ _ ___ _ ___ _ ___ _
 72
    65
 73
     4
 40
1.125
 49
0.75
 49
-0.125
 49
0.125
 49
-0.125
  0
LTYPE
  2
PHANTOM2
 70
     0
  3
___ _ _ ___ _ _ ___ _ _ ___ _ _ ___ _ _ ___ _ _
 72
    65
 73
     6
 40
1.25
 49
0.625
 49
-0.125
 49
0.125
 49
-0.125
 49
0.125
 49
-0.125
  0
LTYPE
  2
AM_ISO02W050
 70
     0
  3
__ __ __ __ __ __ __ __ __ __ __ __ __ __ __
 72
    65
 73
     2
 40
7.5
 49
6.0
 49
-1.5
  0
LTYPE
  2
AMCONSTR
 70
     0
  3
_______________________
 72
    65
 73
     2
 40
9999.0
 49
9999.0
 49
0.0
  0
LTYPE
  2
ACISOWELD
 70
     0
  3
_ _ _ _ _
 72
    65
 73
     2
 40
2.0
 49
2.0
 49
-1.0
  0
LTYPE
  2
ACISOTGB
 70
     0
  3
__ . . __ . .
 72
    65
 73
     6
 40
9.0
 49
4.0
 49
-1.0
 49
1.0
 49
-1.0
 49
1.0
 49
-1.0
  0
LTYPE
  2
ACISOTGL
 70
     0
  3
_ _ _ _ _
 72
    65
 73
     2
 40
3.0
 49
2.0
 49
-1.0
  0
LTYPE
  2
AM_ISO08W050
 70
     0
  3
____ . ____ . ____ . ____ . ____ . ____ . ____
 72
    65
 73
     4
 40
18.0
 49
12.0
 49
-1.5
 49
3.0
 49
-1.5
  0
LTYPE
  2
AM_ISO09W050
 70
     0
  3
_____ . . _____ . . _____ . . ____ .. ____
 72
    65
 73
     6
 40
22.5
 49
12.0
 49
-1.5
 49
3.0
 49
-1.5
 49
3.0
 49
-1.5
  0
LTYPE
  2
AM_ISO08W050X2
 70
     0
  3
__ . __ . __ . __ . __ . __
 72
    65
 73
     4
 40
9.0
 49
6.0
 49
-0.75
 49
1.5
 49
-0.75
  0
LTYPE
  2
AM_ISO02W050X2
 70
     0
  3
 _ _ _ _ _ _ _ _ _ _ _ _
 72
    65
 73
     2
 40
3.75
 49
3.0
 49
-0.75
  0
LTYPE
  2
AMZIGZAG
 70
     0
  3
/\/-/\/-/\/-/\/-/\/-/\/
 72
    65
 73
     2
 40
11.0001
 49
0.0001
 49
-11.0
  0
ENDTAB
  0
TABLE
  2
LAYER
 70
     9
  0
LAYER
  2
0
 70
     0
 62
     7
  6
CONTINUOUS
  0
LAYER
  2
DEFPOINTS
 70
     0
 62
     7
  6
CONTINUOUS
  0
LAYER
  2
245
 70
     0
 62
     2
  6
CENTER2
  0
LAYER
  2
240
 70
     0
 62
     4
  6
CONTINUOUS
  0
LAYER
  2
241
 70
     0
 62
   211
  6
CONTINUOUS
  0
LAYER
  2
242
 70
     0
 62
     3
  6
CONTINUOUS
  0
LAYER
  2
246
 70
     0
 62
     3
  6
PHANTOM2
  0
LAYER
  2
247
 70
     0
 62
    60
  6
CONTINUOUS
  0
LAYER
  2
250
 70
     0
 62
     3
  6
CONTINUOUS
  0
ENDTAB
  0
TABLE
  2
STYLE
 70
     8
  0
STYLE
  2
STANDARD
 70
     0
 40
0.0
 41
1.0
 50
0.0
 71
     0
 42
3.0
  3
romans.shx
  4
extfont.shx
  0
STYLE
  2
ACISOGDT
 70
     0
 40
0.0
 41
1.0
 50
0.0
 71
     0
 42
3.0
  3
amgdt.shx
  4
extfont.shx
  0
STYLE
  2
YOKO
 70
     0
 40
0.0
 41
1.0
 50
0.0
 71
     0
 42
3.0
  3
romans.shx
  4
extfont.shx
  0
STYLE
  2

 70
     1
 40
0.0
 41
1.0
 50
0.0
 71
     0
 42
3.0
  3
genltshp.shx
  4

  0
ENDTAB
  0
TABLE
  2
VIEW
 70
     0
  0
ENDTAB
  0
TABLE
  2
UCS
 70
     0
  0
ENDTAB
  0
TABLE
  2
APPID
 70
    38
  0
APPID
  2
ACAD
 70
     0
  0
APPID
  2
GLOBAL
 70
     0
  0
APPID
  2
DETAIL
 70
     0
  0
APPID
  2
GRPNAME
 70
     0
  0
APPID
  2
GPARA
 70
     0
  0
APPID
  2
MCAD_NO_VIS
 70
     0
  0
APPID
  2
ACAD_TEMP_GRAPHIC
 70
     0
  0
APPID
  2
ACATTRIBSERVICES
 70
     0
  0
APPID
  2
GENIUS_GENSCREG_15
 70
     0
  0
APPID
  2
GENIUS_GENODEF_13
 70
     0
  0
APPID
  2
GENIUS_GENOBJ-N-SDF_13
 70
     0
  0
APPID
  2
GENIUS_GENREC_14
 70
     0
  0
APPID
  2
GENIUS_GENOBJ-N-REC_13
 70
     0
  0
APPID
  2
GENIUS_GENDIMSH_14
 70
     0
  0
APPID
  2
GENIUS_GENOBJ-N-DIM_13
 70
     0
  0
APPID
  2
GENIUS_GENDIM_13
 70
     0
  0
APPID
  2
GENIUS_GENDTOL_13
 70
     0
  0
APPID
  2
GENIUS_GENOLIS_13
 70
     0
  0
APPID
  2
GENIUS_GENOENT_13
 70
     0
  0
APPID
  2
GENIUS_GENOBJ-F-FEM_13
 70
     0
  0
APPID
  2
GENIUS_GENOREF_13
 70
     0
  0
APPID
  2
GENIUS_GEFFEM_13
 70
     0
  0
APPID
  2
GENIUS_GEFFEMP_13
 70
     0
  0
APPID
  2
AD_DRAW
 70
     0
  0
APPID
  2
DESIGNERASSEMBLIES
 70
     0
  0
APPID
  2
ACADM_DIM_EDIT
 70
     0
  0
APPID
  2
AMDT_DM_ADJ
 70
     0
  0
APPID
  2
ITEMNAME
 70
     0
  0
APPID
  2
GENIUS_GENOBJ-N-FIL_13
 70
     0
  0
APPID
  2
GENIUS_GENFIL_13
 70
     0
  0
APPID
  2
GENIUS_GENOBJ-N-CHA_13
 70
     0
  0
APPID
  2
ACAECLAYERSTANDARD
 70
     0
  0
APPID
  2
ACAD_NAV_VCDISPLAY
 70
     0
  0
APPID
  2
ACAD_EXEMPT_FROM_CAD_STANDARDS
 70
     0
  0
APPID
  2
ACAD_DSTYLE_DIMINSPECT
 70
     0
  0
APPID
  2
ACAD_MLEADERVER
 70
     0
  0
APPID
  2
ACAD_DSTYLE_DIMBREAK
 70
     0
  0
APPID
  2
ACAD_DSTYLE_DIMJAG
 70
     0
  0
ENDTAB
  0
TABLE
  2
DIMSTYLE
 70
    29
  0
DIMSTYLE
  2
BIGT
 70
     0
  3

  4

  5
OPEN
  6

  7

 40
1.0
 41
2.2299999999999991
 42
0.5
 43
7.0
 44
1.0
 45
0.0
 46
0.0
 47
0.0
 48
0.01
140
2.7999999999999989
141
0.0
142
0.0
143
25.399999999999999
144
1.0
145
0.0
146
1.0
147
1.0
 71
     0
 72
     0
 73
     0
 74
     0
 75
     0
 76
     0
 77
     3
 78
     9
170
     0
171
     2
172
     1
173
     0
174
     1
175
     0
176
   256
177
   256
178
    40
  0
DIMSTYLE
  2
AM_ISO
 70
     0
  3

  4
"
  5

  6

  7

 40
1.0
 41
2.5
 42
1.0
 43
10.0
 44
1.0
 45
0.0
 46
0.0
 47
0.1
 48
0.1
140
3.5
141
0.0
142
0.0
143
0.0393701
144
1.0
145
0.0
146
0.71
147
1.5
 71
     0
 72
     0
 73
     0
 74
     0
 75
     0
 76
     0
 77
     1
 78
     8
170
     0
171
     2
172
     1
173
     0
174
     0
175
     0
176
   256
177
   256
178
     2
  0
DIMSTYLE
  2
AM_ISO$3
 70
     0
  3

  4
"
  5

  6

  7

 40
1.0
 41
2.5
 42
1.0
 43
10.0
 44
1.0
 45
0.0
 46
0.0
 47
0.1
 48
0.1
140
3.5
141
0.0
142
0.0
143
0.0393701
144
1.0
145
0.0
146
0.71
147
1.5
 71
     0
 72
     0
 73
     0
 74
     1
 75
     0
 76
     0
 77
     1
 78
     8
170
     0
171
     2
172
     0
173
     0
174
     0
175
     0
176
   256
177
   256
178
     2
  0
DIMSTYLE
  2
AM_ISO$4
 70
     0
  3

  4
"
  5

  6

  7

 40
1.0
 41
2.5
 42
1.0
 43
10.0
 44
1.0
 45
0.0
 46
0.0
 47
0.1
 48
0.1
140
3.5
141
0.0
142
0.0
143
0.0393701
144
1.0
145
0.0
146
0.71
147
1.5
 71
     0
 72
     0
 73
     0
 74
     1
 75
     0
 76
     0
 77
     1
 78
     8
170
     0
171
     2
172
     0
173
     0
174
     0
175
     0
176
   256
177
   256
178
     2
  0
DIMSTYLE
  2
AM_ISO$6
 70
     0
  3

  4
"
  5

  6

  7

 40
1.0
 41
2.5
 42
1.0
 43
10.0
 44
1.0
 45
0.0
 46
0.0
 47
0.1
 48
0.1
140
3.5
141
0.0
142
0.0
143
0.0393701
144
1.0
145
0.0
146
0.71
147
1.5
 71
     0
 72
     0
 73
     0
 74
     0
 75
     0
 76
     0
 77
     0
 78
     8
170
     0
171
     2
172
     1
173
     0
174
     0
175
     0
176
   256
177
   256
178
     2
  0
DIMSTYLE
  2
AM_ISO$7
 70
     0
  3

  4
"
  5

  6

  7

 40
1.0
 41
2.5
 42
1.0
 43
10.0
 44
1.0
 45
0.0
 46
0.0
 47
0.1
 48
0.1
140
5.0
141
0.0
142
0.0
143
0.0393701
144
1.0
145
0.0
146
0.71
147
1.5
 71
     0
 72
     0
 73
     0
 74
     0
 75
     0
 76
     0
 77
     1
 78
     8
170
     0
171
     2
172
     1
173
     0
174
     0
175
     0
176
   256
177
   256
178
     2
  0
DIMSTYLE
  2
AM_ISO$SF
 70
     0
  3

  4
"
  5

  6

  7

 40
1.0
 41
2.5
 42
1.0
 43
10.0
 44
1.0
 45
0.0
 46
0.0
 47
0.1
 48
0.1
140
3.5
141
0.0
142
0.0
143
0.0393701
144
1.0
145
0.0
146
0.71
147
1.5
 71
     0
 72
     0
 73
     0
 74
     0
 75
     1
 76
     1
 77
     1
 78
     8
170
     0
171
     2
172
     1
173
     0
174
     0
175
     0
176
   256
177
   256
178
     2
  0
DIMSTYLE
  2
AM_ISO$SH
 70
     0
  3

  4
"
  5

  6
GENAXEH
  7

 40
1.0
 41
2.5
 42
1.0
 43
10.0
 44
1.0
 45
0.0
 46
0.0
 47
0.1
 48
0.1
140
3.5
141
0.0
142
0.0
143
0.0393701
144
2.0
145
0.0
146
0.71
147
1.5
 71
     0
 72
     0
 73
     0
 74
     0
 75
     1
 76
     1
 77
     1
 78
     8
170
     0
171
     2
172
     1
173
     1
174
     0
175
     0
176
   256
177
   256
178
     2
  0
ENDTAB
  0
ENDSEC
  0
SECTION
  2
BLOCKS
  0
BLOCK
  8
0
  2
$MODEL_SPACE
 70
     0
 10
0.0
 20
0.0
 30
0.0
  3
$MODEL_SPACE
  1

  0
ENDBLK
  5
1C
  8
0
  0
BLOCK
 67
     1
  8
0
  2
$PAPER_SPACE
 70
     0
 10
0.0
 20
0.0
 30
0.0
  3
$PAPER_SPACE
  1

  0
ENDBLK
  5
19
 67
     1
  8
0
  0
BLOCK
  8
0
  2
_OPEN
 70
     0
 10
0.0
 20
0.0
 30
0.0
  3
_OPEN
  1

  0
LINE
  5
3E1A
  8
0
  6
BYBLOCK
 62
     0
 10
-1.0
 20
0.1666666666666666
 30
0.0
 11
0.0
 21
0.0
 31
0.0
  0
LINE
  5
3E1B
  8
0
  6
BYBLOCK
 62
     0
 10
-1.0
 20
-0.1666666666666666
 30
0.0
 11
0.0
 21
0.0
 31
0.0
  0
LINE
  5
3E1C
  8
0
  6
BYBLOCK
 62
     0
 10
0.0
 20
0.0
 30
0.0
 11
-1.0
 21
0.0
 31
0.0
  0
ENDBLK
  5
3E1D
  8
0
  0
BLOCK
  8
0
  2
GENAXEH
 70
     0
 10
0.0
 20
0.0
 30
0.0
  3
GENAXEH
  1

  0
LINE
  5
3E45
  8
0
 10
-1.0
 20
0.0
 30
0.0
 11
1.0
 21
0.0
 31
0.0
  0
ENDBLK
  5
3E46
  8
0
  0
ENDSEC
  0
SECTION
  2
ENTITIES
  0
LINE
  5
42CC
  8
240
  6
CONTINUOUS
 10
198.12461733818051
 20
-41.400001384317889
 30
0.0
 11
209.25000309944161
 21
-44.38103269785644
 31
0.0
  0
LINE
  5
42CD
  8
240
  6
CONTINUOUS
 10
221.7499911785126
 20
-44.38103269785644
 30
0.0
 11
232.87535685882679
 21
-41.400001384317889
 31
0.0
  0
LINE
  5
42D1
  8
240
  6
CONTINUOUS
 10
0.0000000000000898
 20
-32.000000588595881
 30
0.0
 11
192.00000166893
 21
-32.000000588595881
 31
0.0
  0
LINE
  5
42D2
  8
240
  6
CONTINUOUS
 10
192.00000166893011
 20
31.999998725950721
 30
0.0
 11
0.0000000000000568
 21
31.999998725950721
 31
0.0
  0
LINE
  5
42D3
  8
240
  6
CONTINUOUS
 10
192.1268999576568
 20
32.719844020903111
 30
0.0
 11
192.00000166893
 21
31.999998725950721
 31
0.0
  0
LINE
  5
42D4
  8
240
  6
CONTINUOUS
 10
192.00000166893
 20
-32.000000588595881
 30
0.0
 11
194.29221749305719
 21
-45.000000856816783
 31
0.0
  0
LINE
  5
42D5
  8
240
  6
CONTINUOUS
 10
196.71699404716489
 20
40.670064277946942
 30
0.0
 11
192.1268999576568
 21
32.719844020903111
 31
0.0
  0
LINE
  5
42D6
  8
240
  6
CONTINUOUS
 10
194.29221749305719
 20
-45.000000856816783
 30
0.0
 11
195.42154669761661
 21
-45.000000856816783
 31
0.0
  0
LINE
  5
42D7
  8
240
  6
CONTINUOUS
 10
235.6803715229035
 20
-41.400001384317889
 30
0.0
 11
236.2000048160553
 21
-40.500001050531878
 31
0.0
  0
LINE
  5
42E6
  8
240
  6
CONTINUOUS
 10
209.25000309944161
 20
-44.38103269785644
 30
0.0
 11
221.7499911785126
 21
-44.38103269785644
 31
0.0
  0
LINE
  5
42EC
  8
241
  6
CONTINUOUS
 10
192.00000166893
 20
-32.000000588595881
 30
0.0
 11
192.00000166893
 21
31.999998725950721
 31
0.0
  0
LINE
  5
42F4
  8
240
  6
CONTINUOUS
 10
230.20060888886059
 20
37.130555886137159
 30
0.0
 11
236.2000048160553
 21
36.500000394880772
 31
0.0
  0
LINE
  5
42F5
  8
240
  6
CONTINUOUS
 10
236.2000048160553
 20
36.500000394880772
 30
0.0
 11
236.2000048160553
 21
-40.500001050531878
 31
0.0
  0
LINE
  5
42F9
  8
241
  6
CONTINUOUS
 10
232.87535685882679
 20
-41.400001384317889
 30
0.0
 11
198.12461733818051
 21
-41.400001384317889
 31
0.0
  0
LINE
  5
42FA
  8
240
  6
CONTINUOUS
 10
198.12461733818051
 20
-41.400001384317889
 30
0.0
 11
197.49996066093439
 21
-41.400001384317889
 31
0.0
  0
LINE
  5
434A
  8
240
  6
CONTINUOUS
 10
0.0000000000000568
 20
31.999998725950721
 30
0.0
 11
0.0000000000000568
 21
18.000000000000011
 31
0.0
  0
LINE
  5
434B
  8
240
  6
CONTINUOUS
 10
0.0000000000000898
 20
-32.000000588595881
 30
0.0
 11
0.0000000000000255
 21
-17.999999999999972
 31
0.0
  0
LINE
  5
4359
  8
241
  6
CONTINUOUS
 10
0.0000000000000571
 20
18.000000000000011
 30
0.0
 11
0.0000000000000282
 21
-17.999999999999972
 31
0.0
  0
LINE
  5
435C
  8
245
  6
CENTER2
 10
-52.025218903432091
 20
-0.0000009313225746
 30
0.0
 11
243.88367261057019
 21
-0.0000009313225746
 31
0.0
  0
TEXT
  5
43CA
  8
241
  6
CONTINUOUS
 10
-42.0
 20
77.0
 30
0.0
 40
5.0
  1
CKB6-EWN100DP-240
  7
YOKO
 11
-42.0
 21
77.0
 31
0.0
 73
     1
  0
LINE
  5
43CB
  8
240
  6
CONTINUOUS
 10
-40.0
 20
-18.0
 30
0.0
 11
-40.0
 21
18.000000000000011
 31
0.0
  0
LINE
  5
43CC
  8
245
  6
CENTER2
 10
-15.99999999999997
 20
9.4657429999999358
 30
0.0
 11
-15.99999999999997
 21
-9.8178660000000182
 31
0.0
  0
LINE
  5
43CD
  8
241
  6
CONTINUOUS
 10
-16.005726960257299
 20
-18.0
 30
0.0
 11
-2.033863362127815
 21
-17.999999999999979
 31
0.0
  0
CIRCLE
  5
43CE
  8
241
  6
CONTINUOUS
 10
-15.99999999999997
 20
-0.0000000000000377
 30
0.0
 40
5.9835000000000003
  0
CIRCLE
  5
43CF
  8
241
  6
CONTINUOUS
 10
-15.99999999999997
 20
-0.0000000000000377
 30
0.0
 40
4.5
  0
LINE
  5
43D0
  8
240
  6
CONTINUOUS
 10
-40.0
 20
-18.0
 30
0.0
 11
-16.005726960257189
 21
-18.0
 31
0.0
  0
LINE
  5
43D1
  8
240
  6
CONTINUOUS
 10
-16.005726960257189
 20
-18.0
 30
0.0
 11
-13.98499967329049
 21
-21.499999999999989
 31
0.0
  0
LINE
  5
43D2
  8
240
  6
CONTINUOUS
 10
-13.98499967329049
 20
-21.499999999999989
 30
0.0
 11
-4.0150001454207871
 21
-21.499999999999989
 31
0.0
  0
LINE
  5
43D3
  8
240
  6
CONTINUOUS
 10
-1.9942741274754181
 20
-17.999999999999979
 30
0.0
 11
0.0000000000000282
 21
-17.999999999999979
 31
0.0
  0
LINE
  5
43D4
  8
241
  6
CONTINUOUS
 10
-16.005726332254351
 20
17.999999999999979
 30
0.0
 11
-1.9942747554780591
 21
17.999999999999979
 31
0.0
  0
LINE
  5
43D5
  8
240
  6
CONTINUOUS
 10
-40.0
 20
18.000000000000011
 30
0.0
 11
-16.00572633225439
 21
17.999999999999979
 31
0.0
  0
LINE
  5
43D6
  8
240
  6
CONTINUOUS
 10
-16.00572633225439
 20
17.999999999999979
 30
0.0
 11
-13.98499977795762
 21
21.499999999999989
 31
0.0
  0
LINE
  5
43D7
  8
240
  6
CONTINUOUS
 10
-1.99427475547746
 20
17.999999999999321
 30
0.0
 11
-4.0150000407537201
 21
21.499999999999989
 31
0.0
  0
LINE
  5
43D8
  8
240
  6
CONTINUOUS
 10
-13.98499977795762
 20
21.499999999999989
 30
0.0
 11
-4.0150000407537201
 21
21.499999999999989
 31
0.0
  0
LINE
  5
43D9
  8
240
  6
CONTINUOUS
 10
-1.99427475547746
 20
17.999999999999321
 30
0.0
 11
0.0000000000000571
 21
18.000000000000011
 31
0.0
  0
LINE
  5
43DA
  8
250
  6
CONTINUOUS
 10
-39.406958351595229
 20
-31.117814320735992
 30
0.0
 11
-29.14029168492857
 21
-31.117814320735992
 31
0.0
  0
LINE
  5
43DB
  8
250
  6
CONTINUOUS
 10
-29.14029168492857
 20
-31.117814320735992
 30
0.0
 11
-23.201514282673951
 21
-19.968209595057321
 31
0.0
  0
LINE
  5
43DC
  8
250
  6
CONTINUOUS
 10
-23.201514282673941
 20
-19.968209595057321
 30
0.0
 11
-22.153157954928361
 21
-18.0
 31
0.0
  0
LINE
  5
43DD
  8
250
  6
CONTINUOUS
 10
-22.94239457486529
 20
-20.106228323350798
 30
0.0
 11
-22.153157954928361
 21
-18.0
 31
0.0
  0
LINE
  5
43DE
  8
250
  6
CONTINUOUS
 10
-22.153157954928361
 20
-18.0
 30
0.0
 11
-23.460633990482599
 21
-19.830190866763878
 31
0.0
  0
TEXT
  5
43DF
  8
250
  6
CONTINUOUS
 10
-39.806958351595242
 20
-29.717814320735989
 30
0.0
 40
2.799999999999998
  1
CK6
  7
YOKO
  0
LINE
  5
43E0
  8
240
  6
CONTINUOUS
 10
-1.9942747554773741
 20
-17.999999999999329
 30
0.0
 11
-4.015000040753617
 21
-21.500000000000011
 31
0.0
  0
LINE
  5
43E1
  8
247
  6
CONTINUOUS
 10
7.9999999999999529
 20
-24.000000000069878
 30
0.0
 11
7.9999999999999583
 21
-17.307692308029878
 31
0.0
  0
ARC
  5
43E2
  8
247
  6
CONTINUOUS
 10
6.2500000000699583
 20
-24.000000000069878
 30
0.0
 40
1.7499999999299991
 50
180.0
 51
0.0
  0
ARC
  5
43E3
  8
247
  6
CONTINUOUS
 10
6.2500000000699583
 20
-17.307692308029878
 30
0.0
 40
1.7499999999299991
 50
0.0
 51
180.0
  0
LINE
  5
43E4
  8
247
  6
CONTINUOUS
 10
4.5000000001399583
 20
-23.134615384719879
 30
0.0
 11
7.5000000000199529
 21
-23.9948515419619
 31
0.0
  0
LINE
  5
43E5
  8
247
  6
CONTINUOUS
 10
5.9230769231599583
 20
-22.234983818335721
 30
0.0
 11
5.9230769231599583
 21
-23.54267612597571
 31
0.0
  0
ARC
  5
43E6
  8
247
  6
CONTINUOUS
 10
5.0495986677029343
 20
-21.895143816089671
 30
0.0
 40
0.5538165441895349
 50
72.997889675291617
 51
172.92416621851231
  0
ARC
  5
43E7
  8
247
  6
CONTINUOUS
 10
4.9360330444657343
 20
-22.316878323028671
 30
0.0
 40
0.9904354236226808
 50
4.7429368522013924
 51
73.849226273267618
1001
GENIUS_GENOBJ-N-FIL_13
1002
{
1000
OWNER
1000
GEN
1002
}
1001
GENIUS_GENODEF_13
1002
{
1000
HIER
1070
     0
1002
}
1002
{
1000
MANEDIT
1070
     0
1002
}
1002
{
1000
NOSEL
1070
     0
1002
}
1002
{
1000
BEHIND
1070
     0
1002
}
1002
{
1000
OTHER
1070
     0
1002
}
1002
{
1000
REACTOR
1002
}
  0
LINE
  5
43E8
  8
247
  6
CONTINUOUS
 10
7.5000000000199529
 20
-22.6871592343219
 30
0.0
 11
7.5000000000199529
 21
-23.9948515419619
 31
0.0
  0
LINE
  5
43E9
  8
247
  6
CONTINUOUS
 10
4.5000000001399583
 20
-23.134615384719879
 30
0.0
 11
4.5000000001399592
 21
-21.826923077079901
 31
0.0
  0
ARC
  5
43EA
  8
247
  6
CONTINUOUS
 10
6.4820242326655091
 20
-22.310919636546849
 30
0.0
 40
0.5640818586791229
 50
65.99094165253058
 51
172.26344345906949
  0
ARC
  5
43EB
  8
247
  6
CONTINUOUS
 10
6.487429039186547
 20
-22.788262685346961
 30
0.0
 40
1.0176059446230981
 50
5.7019851642581392
 51
77.277338436820884
1001
GENIUS_GENOBJ-N-FIL_13
1002
{
1000
OWNER
1000
GEN
1002
}
1001
GENIUS_GENODEF_13
1002
{
1000
HIER
1070
     0
1002
}
1002
{
1000
MANEDIT
1070
     0
1002
}
1002
{
1000
NOSEL
1070
     0
1002
}
1002
{
1000
BEHIND
1070
     0
1002
}
1002
{
1000
OTHER
1070
     0
1002
}
1002
{
1000
REACTOR
1002
}
  0
LINE
  5
43EC
  8
247
  6
CONTINUOUS
 10
7.5000000000199529
 20
-21.033313080541902
 30
0.0
 11
4.5000000001399592
 21
-20.173076923299892
 31
0.0
  0
LINE
  5
43ED
  8
247
  6
CONTINUOUS
 10
4.5000000001399592
 20
-17.750000000319869
 30
0.0
 11
4.5000000001399592
 21
-18.31573661945648
 31
0.0
  0
LINE
  5
43EE
  8
247
  6
CONTINUOUS
 10
7.5000000000199529
 20
-19.211538461799879
 30
0.0
 11
7.5000000000199529
 21
-18.596153846439879
 31
0.0
  0
ARC
  5
43EF
  8
247
  6
CONTINUOUS
 10
6.5832851359733411
 20
-17.45879120912273
 30
0.0
 40
2.2526500823422122
 50
202.3594881415267
 51
254.9932485428466
  0
ARC
  5
43F0
  8
247
  6
CONTINUOUS
 10
5.308312655194471
 20
-18.124069479213102
 30
0.0
 40
0.8906723995727782
 50
94.994589319075104
 51
155.16632895730359
1001
GENIUS_GENOBJ-N-FIL_13
1002
{
1000
OWNER
1000
GEN
1002
}
1001
GENIUS_GENODEF_13
1002
{
1000
HIER
1070
     0
1002
}
1002
{
1000
MANEDIT
1070
     0
1002
}
1002
{
1000
NOSEL
1070
     0
1002
}
1002
{
1000
BEHIND
1070
     0
1002
}
1002
{
1000
OTHER
1070
     0
1002
}
1002
{
1000
REACTOR
1002
}
  0
ARC
  5
43F1
  8
247
  6
CONTINUOUS
 10
6.1601458886677172
 20
-18.97645888621248
 30
0.0
 40
1.392781735586712
 50
15.846096555779249
 51
82.325137004170557
  0
ARC
  5
43F2
  8
247
  6
CONTINUOUS
 10
6.459243431527244
 20
-18.392212725840231
 30
0.0
 40
1.324563662670287
 50
249.71360167049809
 51
321.78874565640768
1001
GENIUS_GENOBJ-N-FIL_13
1002
{
1000
OWNER
1000
GEN
1002
}
1001
GENIUS_GENODEF_13
1002
{
1000
HIER
1070
     0
1002
}
1002
{
1000
MANEDIT
1070
     0
1002
}
1002
{
1000
NOSEL
1070
     0
1002
}
1002
{
1000
BEHIND
1070
     0
1002
}
1002
{
1000
OTHER
1070
     0
1002
}
1002
{
1000
REACTOR
1002
}
  0
LINE
  5
43F3
  8
247
  6
CONTINUOUS
 10
6.3461538462199591
 20
-18.288461538759879
 30
0.0
 11
6.3461538462199591
 21
-17.596153846479861
 31
0.0
  0
LINE
  5
43F4
  8
247
  6
CONTINUOUS
 10
4.5000000001399592
 20
-24.000000000069878
 30
0.0
 11
4.5000000001399592
 21
-23.326923077019892
 31
0.0
  0
LINE
  5
4476
  8
250
  6
CONTINUOUS
 10
232.45938991752351
 20
53.3981404175099
 30
0.0
 11
233.57438991752349
 21
55.329377067949189
 31
0.0
  0
LINE
  5
4477
  8
250
  6
CONTINUOUS
 10
233.2525171424503
 20
55.51521040128253
 30
0.0
 11
232.45938991752351
 21
53.3981404175099
 31
0.0
  0
LINE
  5
4478
  8
250
  6
CONTINUOUS
 10
233.89626269259679
 20
55.143543734615861
 30
0.0
 11
232.45938991752351
 21
53.3981404175099
 31
0.0
  0
LINE
  5
4479
  8
250
  6
CONTINUOUS
 10
233.57438991752349
 20
55.329377067949189
 30
0.0
 11
240.7017835169035
 21
67.674384907616457
 31
0.0
1001
ACAD
1000
DSTYLE
1002
{
1070
     6
1000
OPEN
1070
    78
1070
     8
1070
   140
1040
3.0
1070
   173
1070
     1
1002
}
  0
LINE
  5
447A
  8
250
  6
CONTINUOUS
 10
259.99944371954348
 20
54.999999068677411
 30
0.0
 11
259.99944371954348
 21
52.769999068677421
 31
0.0
  0
LINE
  5
447B
  8
250
  6
CONTINUOUS
 10
260.3711103862102
 20
52.769999068677421
 30
0.0
 11
259.99944371954348
 21
54.999999068677411
 31
0.0
  0
LINE
  5
447C
  8
250
  6
CONTINUOUS
 10
259.62777705287681
 20
52.769999068677421
 30
0.0
 11
259.99944371954348
 21
54.999999068677411
 31
0.0
  0
TEXT
  5
447D
  8
250
  6
CONTINUOUS
 10
258.99944371954348
 20
3.4285705899352399
 30
0.0
 40
3.0
  1
153üj
 50
90.0
1001
ACAD
1000
MTEXTBEGIN
1070
    73
1070
     1
1070
    44
1040
1.0
1070
    74
1070
     0
1000
MTEXTEND
  0
TEXT
  5
447E
  8
250
  6
CONTINUOUS
 10
258.99944371954348
 20
0.7142848756495326
 30
0.0
 40
3.0
  1
\U+2205
 50
90.0
1001
ACAD
1000
MTEXTBEGIN
1070
    73
1070
     1
1070
    44
1040
1.0
1070
    74
1070
     0
1000
MTEXTEND
  0
TEXT
  5
447F
  8
250
  6
CONTINUOUS
 10
258.99944371954348
 20
-11.45714369577904
 30
0.0
 40
3.0
  1
100ü`
 50
90.0
1001
ACAD
1000
MTEXTBEGIN
1070
    73
1070
     1
1070
    44
1040
1.0
1070
    74
1070
     0
1000
MTEXTEND
  0
TEXT
  5
4480
  8
250
  6
CONTINUOUS
 10
258.99944371954348
 20
-14.171429410064739
 30
0.0
 40
3.0
  1
\U+2205
 50
90.0
1001
ACAD
1000
MTEXTBEGIN
1070
    73
1070
     1
1070
    44
1040
1.0
1070
    74
1070
     0
1000
MTEXTEND
  0
TEXT
  5
4481
  8
250
  6
CONTINUOUS
 10
258.99944371954348
 20
-17.771429410064751
 30
0.0
 40
3.0
  1
üi
 50
90.0
1001
ACAD
1000
MTEXTBEGIN
1070
    73
1070
     1
1070
    44
1040
1.0
1070
    74
1070
     0
1000
MTEXTEND
  0
LINE
  5
4482
  8
250
  6
CONTINUOUS
 10
259.99944371954348
 20
52.769999068677421
 30
0.0
 11
259.99944371954348
 21
-18.771429410064751
 31
0.0
  0
LINE
  5
4483
  8
250
  6
CONTINUOUS
 10
240.09999999999999
 20
54.999999068677418
 30
0.0
 11
260.99944371954348
 21
54.999999068677411
 31
0.0
  0
TEXT
  5
4484
  8
250
  6
CONTINUOUS
 10
243.13035494547489
 20
68.674384907616485
 30
0.0
 40
3.0
  1
ENH6-1
  7
YOKO
1001
ITEMNAME
1000
LNSP3
1001
ACAD
1000
MTEXTBEGIN
1070
    73
1070
     1
1070
    44
1040
1.0
1070
    74
1070
     0
1000
MTEXTEND
  0
LINE
  5
4485
  8
250
  6
CONTINUOUS
 10
240.7017835169035
 20
67.674384907616457
 30
0.0
 11
263.273212088332
 21
67.674384907616457
 31
0.0
1001
ITEMNAME
1000
LNSP2
  0
LINE
  5
4486
  8
241
  6
CONTINUOUS
 10
217.9994520000001
 20
-9.4433768386361834
 30
0.0
 11
217.9994520000001
 21
-6.5566248386361821
 31
0.0
  0
LINE
  5
4487
  8
241
  6
CONTINUOUS
 10
212.9994520000001
 20
-6.5566248386361821
 30
0.0
 11
212.9994520000001
 21
-9.4433768386361834
 31
0.0
  0
CIRCLE
  5
4488
  8
241
  6
CONTINUOUS
 10
215.49945200000019
 20
-8.0000008386361898
 30
0.0
 40
5.25
  0
CIRCLE
  5
4489
  8
242
  6
CONTINUOUS
 10
215.49945200000019
 20
-8.0000008386361898
 30
0.0
 40
5.0
  0
LINE
  5
448A
  8
245
  6
CENTER2
 10
215.49945200000019
 20
52.852491161363787
 30
0.0
 11
215.49945200000019
 21
-49.426868838636182
 31
0.0
  0
LINE
  5
448B
  8
241
  6
CONTINUOUS
 10
212.9994520000001
 20
-9.4433768386361834
 30
0.0
 11
215.49945200000019
 21
-10.886751838636179
 31
0.0
  0
LINE
  5
448C
  8
241
  6
CONTINUOUS
 10
215.49945200000019
 20
-10.886751838636179
 30
0.0
 11
217.9994520000001
 21
-9.4433768386361834
 31
0.0
  0
LINE
  5
448D
  8
245
  6
CENTER2
 10
209.24520000000001
 20
18.99999916136381
 30
0.0
 11
221.99505000000011
 21
18.99999916136381
 31
0.0
  0
LINE
  5
448E
  8
241
  6
CONTINUOUS
 10
212.9994520000001
 20
17.556623161363799
 30
0.0
 11
215.49945200000019
 21
16.113248161363799
 31
0.0
  0
CIRCLE
  5
448F
  8
241
  6
CONTINUOUS
 10
215.49945200000019
 20
18.99999916136381
 30
0.0
 40
5.25
  0
CIRCLE
  5
4490
  8
242
  6
CONTINUOUS
 10
215.49945200000019
 20
18.99999916136381
 30
0.0
 40
5.0
  0
LINE
  5
4491
  8
241
  6
CONTINUOUS
 10
215.49945200000019
 20
21.88675016136381
 30
0.0
 11
212.9994520000001
 21
20.443375161363811
 31
0.0
  0
LINE
  5
4492
  8
245
  6
CENTER2
 10
208.93279600000011
 20
-8.0000008386361898
 30
0.0
 11
221.44346400000009
 21
-8.0000008386361898
 31
0.0
  0
LINE
  5
4493
  8
241
  6
CONTINUOUS
 10
215.49945200000019
 20
-5.1132498386361851
 30
0.0
 11
212.9994520000001
 21
-6.5566248386361821
 31
0.0
  0
LINE
  5
4494
  8
241
  6
CONTINUOUS
 10
212.9994520000001
 20
20.443375161363811
 30
0.0
 11
212.9994520000001
 21
17.556623161363799
 31
0.0
  0
LINE
  5
4495
  8
241
  6
CONTINUOUS
 10
217.9994520000001
 20
-6.5566248386361821
 30
0.0
 11
215.49945200000019
 21
-5.1132498386361851
 31
0.0
  0
LINE
  5
4496
  8
241
  6
CONTINUOUS
 10
215.49945200000019
 20
16.113248161363799
 30
0.0
 11
217.9994520000001
 21
17.556623161363799
 31
0.0
  0
LINE
  5
4497
  8
241
  6
CONTINUOUS
 10
217.9994520000001
 20
20.443375161363811
 30
0.0
 11
215.49945200000019
 21
21.88675016136381
 31
0.0
  0
LINE
  5
4498
  8
241
  6
CONTINUOUS
 10
217.9994520000001
 20
17.556623161363799
 30
0.0
 11
217.9994520000001
 21
20.443375161363811
 31
0.0
  0
LINE
  5
4499
  8
241
  6
CONTINUOUS
 10
215.5006088888608
 20
44.299999068677408
 30
0.0
 11
212.10182588886059
 21
44.299999068677408
 31
0.0
  0
LINE
  5
449A
  8
241
  6
CONTINUOUS
 10
211.86881588886069
 20
44.102742068677379
 30
0.0
 11
211.60060941306409
 21
42.499999068677397
 31
0.0
  0
LINE
  5
449B
  8
241
  6
CONTINUOUS
 10
201.1298120510545
 20
42.499999068677397
 30
0.0
 11
211.60060941306409
 21
42.499999068677397
 31
0.0
  0
LINE
  5
449C
  8
240
  6
CONTINUOUS
 10
201.1298120510541
 20
42.499999068677411
 30
0.0
 11
200.79785735571929
 21
42.168896688522032
 31
0.0
  0
LINE
  5
449D
  8
240
  6
CONTINUOUS
 10
200.79535493508649
 20
40.222143015214598
 30
0.0
 11
200.79785735571929
 21
42.168896688522032
 31
0.0
  0
LINE
  5
449E
  8
241
  6
CONTINUOUS
 10
211.86881588886069
 20
44.102742068677379
 30
0.0
 11
212.10182588886059
 21
44.299999068677408
 31
0.0
  0
LINE
  5
449F
  8
241
  6
CONTINUOUS
 10
219.4006088888606
 20
42.499999068677383
 30
0.0
 11
229.85060888886071
 21
42.499999068677397
 31
0.0
  0
LINE
  5
44A0
  8
241
  6
CONTINUOUS
 10
219.40060888886069
 20
42.499999068677397
 30
0.0
 11
219.13240188886061
 21
44.102742068677379
 31
0.0
  0
LINE
  5
44A1
  8
241
  6
CONTINUOUS
 10
215.5006088888608
 20
44.299999068677408
 30
0.0
 11
218.89939188886069
 21
44.299999068677408
 31
0.0
  0
LINE
  5
44A2
  8
241
  6
CONTINUOUS
 10
218.89939188886069
 20
44.299999068677408
 30
0.0
 11
219.13240188886061
 21
44.102742068677379
 31
0.0
  0
LINE
  5
44A3
  8
240
  6
CONTINUOUS
 10
229.85060888886071
 20
42.499999068677397
 30
0.0
 11
230.2006088888607
 21
42.149999068677417
 31
0.0
  0
LINE
  5
44A4
  8
240
  6
CONTINUOUS
 10
230.2006088888607
 20
42.149999068677417
 30
0.0
 11
230.20060888886059
 21
37.130555886137159
 31
0.0
  0
LINE
  5
44A5
  8
241
  6
CONTINUOUS
 10
211.86774817453039
 20
44.59999906867742
 30
0.0
 11
219.13225182546981
 21
44.59999906867742
 31
0.0
1001
GRPNAME
1000
PASTMD30
  0
LINE
  5
44A6
  8
240
  6
CONTINUOUS
 10
201.00000000000011
 20
42.499999068677411
 30
0.0
 11
201.1298120510541
 21
42.499999068677411
 31
0.0
  0
ARC
  5
44A7
  8
240
  6
CONTINUOUS
 10
204.00000000000011
 20
48.999999068677411
 30
0.0
 40
3.0
 50
90.0
 51
180.0
  0
LINE
  5
44A8
  8
240
  6
CONTINUOUS
 10
201.00000000000011
 20
42.499999068677411
 30
0.0
 11
201.00000000000011
 21
48.999999068677411
 31
0.0
  0
LINE
  5
44A9
  8
241
  6
CONTINUOUS
 10
211.68367130454081
 20
42.999999068677589
 30
0.0
 11
211.86774817453039
 21
44.09999906867742
 31
0.0
1001
GRPNAME
1000
PASTMD30
  0
LINE
  5
44AA
  8
241
  6
CONTINUOUS
 10
211.18367130454061
 20
42.499999068677411
 30
0.0
 11
211.6836713045407
 21
42.999999068677397
 31
0.0
1001
GRPNAME
1000
PASTMD30
  0
LINE
  5
44AB
  8
241
  6
CONTINUOUS
 10
211.86774817453039
 20
44.09999906867742
 30
0.0
 11
211.86774817453039
 21
44.59999906867742
 31
0.0
1001
GRPNAME
1000
PASTMD30
  0
LINE
  5
44AC
  8
240
  6
CONTINUOUS
 10
204.00000000000011
 20
51.999999068677397
 30
0.0
 11
208.50000000000011
 21
51.999999068677397
 31
0.0
  0
LINE
  5
44AD
  8
240
  6
CONTINUOUS
 10
211.50000000000011
 20
52.099999068677427
 30
0.0
 11
209.9846960000001
 21
51.693974068677427
 31
0.0
  0
LINE
  5
44AE
  8
241
  6
CONTINUOUS
 10
239.9994520000001
 20
54.579065068677338
 30
0.0
 11
239.49635200000009
 21
44.979357068677373
 31
0.0
  0
LINE
  5
44AF
  8
240
  6
CONTINUOUS
 10
228.3932770000001
 20
52.681175068677412
 30
0.0
 11
238.4244030000001
 21
54.449933068677367
 31
0.0
  0
CIRCLE
  5
44B0
  8
246
  6
PHANTOM2
 10
236.57725300000001
 20
49.945377068677402
 30
0.0
 40
3.174999999999998
  0
LINE
  5
44B1
  8
241
  6
CONTINUOUS
 10
230.85326300000011
 20
50.592244068677402
 30
0.0
 11
239.41840400000001
 21
54.95640206867737
 31
0.0
  0
LINE
  5
44B2
  8
240
  6
CONTINUOUS
 10
229.85060888886071
 20
42.499999068677397
 30
0.0
 11
237.34738400000001
 21
42.499999068677411
 31
0.0
  0
LINE
  5
44B3
  8
241
  6
CONTINUOUS
 10
230.81700400000011
 20
49.900374068677408
 30
0.0
 11
239.08241200000001
 21
44.532755068677339
 31
0.0
  0
LINE
  5
44B4
  8
240
  6
CONTINUOUS
 10
222.50000000000011
 20
51.999999068677397
 30
0.0
 11
228.00000000000011
 21
51.999999068677397
 31
0.0
  0
LINE
  5
44B5
  8
241
  6
CONTINUOUS
 10
219.81632869545939
 20
42.499999068677411
 30
0.0
 11
219.3163286954595
 21
42.999999068677397
 31
0.0
1001
GRPNAME
1000
PASTMD30
  0
LINE
  5
44B6
  8
241
  6
CONTINUOUS
 10
219.3163286954593
 20
42.999999068677589
 30
0.0
 11
219.13225182546981
 21
44.09999906867742
 31
0.0
1001
GRPNAME
1000
PASTMD30
  0
LINE
  5
44B7
  8
241
  6
CONTINUOUS
 10
219.13225182546981
 20
44.09999906867742
 30
0.0
 11
219.13225182546981
 21
44.59999906867742
 31
0.0
1001
GRPNAME
1000
PASTMD30
  0
LINE
  5
44B8
  8
240
  6
CONTINUOUS
 10
211.50000000000011
 20
52.099999068677427
 30
0.0
 11
219.50000000000011
 21
52.099999068677427
 31
0.0
  0
LINE
  5
44B9
  8
240
  6
CONTINUOUS
 10
219.50000000000011
 20
52.099999068677427
 30
0.0
 11
221.01530399999999
 21
51.693974068677427
 31
0.0
  0
LINE
  5
44BA
  8
241
  6
CONTINUOUS
 10
230.00000000000011
 20
42.499999068677411
 30
0.0
 11
230.00000000000011
 21
48.999999068677411
 31
0.0
  0
ARC
  5
44BB
  8
241
  6
CONTINUOUS
 10
227.00000000000011
 20
48.999999068677411
 30
0.0
 40
3.0
 50
0.0
 51
90.0
  0
LINE
  5
44BC
  8
240
  6
CONTINUOUS
 10
228.00000000000011
 20
51.999999068677397
 30
0.0
 11
228.3932770000001
 21
52.681175068677412
 31
0.0
  0
ARC
  5
44BD
  8
241
  6
CONTINUOUS
 10
231.0348590000001
 20
50.235842068677378
 30
0.0
 40
0.4
 50
116.9999999999999
 51
236.99999999999821
  0
ARC
  5
44BE
  8
241
  6
CONTINUOUS
 10
239.096901
 20
45.000291068677399
 30
0.0
 40
0.4
 50
236.99999999999821
 51
357.00000000000091
  0
LINE
  5
44BF
  8
240
  6
CONTINUOUS
 10
237.70093800000001
 20
42.646446068677371
 30
0.0
 11
238.9187750000001
 21
43.864283068677381
 31
0.0
  0
LINE
  5
44C0
  8
240
  6
CONTINUOUS
 10
239.085959
 20
44.60044106867737
 30
0.0
 11
239.064536
 21
44.191668068677373
 31
0.0
  0
ARC
  5
44C1
  8
240
  6
CONTINUOUS
 10
238.56522100000001
 20
44.217836068677371
 30
0.0
 40
0.5
 50
315.00000000000028
 51
357.00000000000091
  0
ARC
  5
44C2
  8
240
  6
CONTINUOUS
 10
237.34738400000001
 20
42.999999068677397
 30
0.0
 40
0.5
 50
270.0
 51
315.00000000000028
  0
ARC
  5
44C3
  8
241
  6
CONTINUOUS
 10
239.59999999999999
 20
54.599999068677427
 30
0.0
 40
0.4
 50
357.00000000000091
 51
116.9999999999999
  0
LINE
  5
44C4
  8
240
  6
CONTINUOUS
 10
221.01530399999999
 20
51.693974068677427
 30
0.0
 11
221.3864780000001
 21
51.763674068677417
 31
0.0
  0
LINE
  5
44C5
  8
240
  6
CONTINUOUS
 10
221.3864780000001
 20
51.763674068677417
 30
0.0
 11
221.75765200000009
 21
51.83791106867735
 31
0.0
  0
LINE
  5
44C6
  8
240
  6
CONTINUOUS
 10
221.75765200000009
 20
51.83791106867735
 30
0.0
 11
222.128826
 21
51.916686068677379
 31
0.0
  0
LINE
  5
44C7
  8
240
  6
CONTINUOUS
 10
222.128826
 20
51.916686068677379
 30
0.0
 11
222.50000000000011
 21
51.999999068677397
 31
0.0
  0
LINE
  5
44C8
  8
240
  6
CONTINUOUS
 10
208.50000000000011
 20
51.999999068677397
 30
0.0
 11
208.87117400000011
 21
51.916686068677379
 31
0.0
  0
LINE
  5
44C9
  8
240
  6
CONTINUOUS
 10
208.87117400000011
 20
51.916686068677379
 30
0.0
 11
209.24234800000011
 21
51.83791106867735
 31
0.0
  0
LINE
  5
44CA
  8
240
  6
CONTINUOUS
 10
209.24234800000011
 20
51.83791106867735
 30
0.0
 11
209.61352199999999
 21
51.763674068677417
 31
0.0
  0
LINE
  5
44CB
  8
240
  6
CONTINUOUS
 10
209.61352199999999
 20
51.763674068677417
 30
0.0
 11
209.9846960000001
 21
51.693974068677427
 31
0.0
  0
LINE
  5
44CC
  8
241
  6
CONTINUOUS
 10
209.9846960000001
 20
51.693974068677427
 30
0.0
 11
212.74234800000011
 21
51.318243068677397
 31
0.0
  0
LINE
  5
44CD
  8
241
  6
CONTINUOUS
 10
212.74234800000011
 20
51.318243068677397
 30
0.0
 11
215.50000000000011
 21
51.192999068677423
 31
0.0
  0
LINE
  5
44CE
  8
241
  6
CONTINUOUS
 10
215.50000000000011
 20
51.192999068677423
 30
0.0
 11
218.25765200000009
 21
51.318243068677397
 31
0.0
  0
LINE
  5
44CF
  8
241
  6
CONTINUOUS
 10
218.25765200000009
 20
51.318243068677397
 30
0.0
 11
221.01530399999999
 21
51.693974068677427
 31
0.0
  0
LINE
  5
44D7
  8
240
  6
CONTINUOUS
 10
196.71699404716489
 20
40.670064277946942
 30
0.0
 11
200.79535493508649
 21
40.222143015214598
 31
0.0
  0
LINE
  5
44D8
  8
241
  6
CONTINUOUS
 10
200.79535493508649
 20
40.222143015214598
 30
0.0
 11
230.20060888886059
 21
37.130555886137159
 31
0.0
  0
LINE
  5
44D9
  8
240
  6
CONTINUOUS
 10
197.49996066093439
 20
-41.400001384317889
 30
0.0
 11
195.42154669761661
 21
-45.000000856816783
 31
0.0
  0
LINE
  5
44DA
  8
240
  6
CONTINUOUS
 10
232.87535685882679
 20
-41.400001384317889
 30
0.0
 11
235.6803715229035
 21
-41.400001384317889
 31
0.0
  0
LINE
  5
4558
  8
250
  6
CONTINUOUS
 10
0.0000000000000569
 20
32.499998725950718
 30
0.0
 11
0.0000000000000587
 21
62.599999068677441
 31
0.0
  0
LINE
  5
4559
  8
250
  6
CONTINUOUS
 10
240.0
 20
55.099999068677427
 30
0.0
 11
240.0
 21
62.599999068677441
 31
0.0
  0
LINE
  5
455A
  8
250
  6
CONTINUOUS
 10
2.2300000000000582
 20
61.599999068677427
 30
0.0
 11
237.77000000000001
 21
61.599999068677427
 31
0.0
  0
LINE
  5
455E
  8
250
  6
CONTINUOUS
 10
2.2300000000000582
 20
61.228332402010757
 30
0.0
 11
0.0000000000000587
 21
61.599999068677427
 31
0.0
  0
LINE
  5
455F
  8
250
  6
CONTINUOUS
 10
2.2300000000000582
 20
61.971665735344097
 30
0.0
 11
0.0000000000000587
 21
61.599999068677427
 31
0.0
  0
LINE
  5
4560
  8
250
  6
CONTINUOUS
 10
0.0000000000000587
 20
61.599999068677427
 30
0.0
 11
2.2300000000000582
 21
61.599999068677427
 31
0.0
  0
TEXT
  5
4561
  8
250
  6
CONTINUOUS
 10
116.0
 20
62.599999068677441
 30
0.0
 40
2.7999999999999989
  1
240
  0
LINE
  5
4562
  8
250
  6
CONTINUOUS
 10
237.77000000000001
 20
61.971665735344097
 30
0.0
 11
240.0
 21
61.599999068677427
 31
0.0
  0
LINE
  5
4563
  8
250
  6
CONTINUOUS
 10
237.77000000000001
 20
61.228332402010757
 30
0.0
 11
240.0
 21
61.599999068677427
 31
0.0
  0
LINE
  5
4564
  8
250
  6
CONTINUOUS
 10
240.0
 20
61.599999068677427
 30
0.0
 11
237.77000000000001
 21
61.599999068677427
 31
0.0
  0
VIEWPORT
  5
22
 67
     1
  8
0
 10
261.51769911504419
 20
148.5
 30
0.0
 40
523.0353982300885
 41
297.0
 68
     1
 69
     1
1001
ACAD
1000
MVIEW
1002
{
1070
    16
1010
0.0
1020
0.0
1030
0.0
1010
0.0
1020
0.0
1030
1.0
1040
0.0
1040
297.0
1040
261.51769911504419
1040
148.5
1040
50.0
1040
0.0
1040
0.0
1070
     0
1070
   100
1070
     1
1070
     1
1070
     0
1070
     0
1070
     0
1070
     0
1040
0.0
1040
0.0
1040
0.0
1040
1.0
1040
1.0
1040
10.0
1040
10.0
1070
     0
1002
{
1002
}
1002
}
1001
GENIUS_GENODEF_13
1002
{
1000
HIER
1070
     0
1002
}
1002
{
1000
MANEDIT
1070
     0
1002
}
1002
{
1000
NOSEL
1070
     0
1002
}
1002
{
1000
BEHIND
1070
     0
1002
}
1002
{
1000
OTHER
1070
     0
1002
}
1002
{
1000
REACTOR
1002
}
1001
GENIUS_GENOBJ-N-SDF_13
1002
{
1000
OWNER
1000
GEN
1002
}
1001
GENIUS_GENSCREG_15
1000
PF
1040
1.0
1000
DF
1040
1.0
1000
MIN
1011
0.0
1021
0.0
1031
0.0
1021
0.0
1031
0.0
1000
MAX
1011
523.0353982300885
1021
0.0
1031
0.0
1021
297.0
1031
0.0
1000
FLAGS
1070
     4
  0
ENDSEC
  0
EOF
