  0
SECTION
  2
HEADER
  9
$ACADVER
  1
AC1009
  9
$INSBASE
 10
0.0
 20
0.0
 30
0.0
  9
$EXTMIN
 10
-66.799999999999983
 20
-37.795246063493657
 30
0.0
  9
$EXTMAX
 10
50.036038969321091
 20
74.000000000000114
 30
0.0
  9
$LIMMIN
 10
0.0
 20
0.0
  9
$LIMMAX
 10
297.0
 20
210.0
  9
$ORTHOMODE
 70
     1
  9
$REGENMODE
 70
     1
  9
$FILLMODE
 70
     1
  9
$QTEXTMODE
 70
     0
  9
$MIRRTEXT
 70
     1
  9
$DRAGMODE
 70
     2
  9
$LTSCALE
 40
10.0
  9
$OSMODE
 70
    47
  9
$ATTMODE
 70
     1
  9
$TEXTSIZE
 40
3.0
  9
$TRACEWID
 40
1.0
  9
$TEXTSTYLE
  7
YOKO
  9
$CLAYER
  8
240
  9
$CELTYPE
  6
BYLAYER
  9
$CECOLOR
 62
   256
  9
$DIMSCALE
 40
1.0
  9
$DIMASZ
 40
2.2299999999999991
  9
$DIMEXO
 40
0.5
  9
$DIMDLI
 40
7.0
  9
$DIMRND
 40
0.0
  9
$DIMDLE
 40
0.0
  9
$DIMEXE
 40
1.0
  9
$DIMTP
 40
0.0
  9
$DIMTM
 40
0.01
  9
$DIMTXT
 40
2.7999999999999989
  9
$DIMCEN
 40
0.0
  9
$DIMTSZ
 40
0.0
  9
$DIMTOL
 70
     0
  9
$DIMLIM
 70
     0
  9
$DIMTIH
 70
     0
  9
$DIMTOH
 70
     0
  9
$DIMSE1
 70
     0
  9
$DIMSE2
 70
     0
  9
$DIMTAD
 70
     3
  9
$DIMZIN
 70
     9
  9
$DIMBLK
  1
OPEN
  9
$DIMASO
 70
     1
  9
$DIMSHO
 70
     1
  9
$DIMPOST
  1

  9
$DIMAPOST
  1

  9
$DIMALT
 70
     0
  9
$DIMALTD
 70
     2
  9
$DIMALTF
 40
25.399999999999999
  9
$DIMLFAC
 40
1.0
  9
$DIMTOFL
 70
     1
  9
$DIMTVP
 40
0.0
  9
$DIMTIX
 70
     1
  9
$DIMSOXD
 70
     0
  9
$DIMSAH
 70
     0
  9
$DIMBLK1
  1

  9
$DIMBLK2
  1

  9
$DIMSTYLE
  2
BIGT
  9
$DIMCLRD
 70
   256
  9
$DIMCLRE
 70
   256
  9
$DIMCLRT
 70
    40
  9
$DIMTFAC
 40
1.0
  9
$DIMGAP
 40
1.0
  9
$LUNITS
 70
     2
  9
$LUPREC
 70
     6
  9
$SKETCHINC
 40
1.0
  9
$FILLETRAD
 40
1.0
  9
$AUNITS
 70
     0
  9
$AUPREC
 70
     6
  9
$MENU
  1
.
  9
$ELEVATION
 40
0.0
  9
$PELEVATION
 40
0.0
  9
$THICKNESS
 40
0.0
  9
$LIMCHECK
 70
     0
  9
$BLIPMODE
 70
     0
  9
$CHAMFERA
 40
0.2
  9
$CHAMFERB
 40
0.2
  9
$SKPOLY
 70
     0
  9
$TDCREATE
 40
2460243.3624847801
  9
$TDUPDATE
 40
2460243.4631252089
  9
$TDINDWG
 40
0.0817427199
  9
$TDUSRTIMER
 40
0.0817426389
  9
$USRTIMER
 70
     1
  9
$ANGBASE
 50
0.0
  9
$ANGDIR
 70
     0
  9
$PDMODE
 70
     1
  9
$PDSIZE
 40
0.0
  9
$PLINEWID
 40
0.0
  9
$COORDS
 70
     1
  9
$SPLFRAME
 70
     0
  9
$SPLINETYPE
 70
     6
  9
$SPLINESEGS
 70
     4
  9
$ATTDIA
 70
     1
  9
$ATTREQ
 70
     1
  9
$HANDLING
 70
     1
  9
$HANDSEED
  5
5039
  9
$SURFTAB1
 70
     6
  9
$SURFTAB2
 70
     6
  9
$SURFTYPE
 70
     6
  9
$SURFU
 70
     6
  9
$SURFV
 70
     6
  9
$UCSNAME
  2

  9
$UCSORG
 10
0.0
 20
0.0
 30
0.0
  9
$UCSXDIR
 10
1.0
 20
0.0
 30
0.0
  9
$UCSYDIR
 10
0.0
 20
1.0
 30
0.0
  9
$PUCSNAME
  2

  9
$PUCSORG
 10
0.0
 20
0.0
 30
0.0
  9
$PUCSXDIR
 10
1.0
 20
0.0
 30
0.0
  9
$PUCSYDIR
 10
0.0
 20
1.0
 30
0.0
  9
$USERI1
 70
     1
  9
$USERI2
 70
     0
  9
$USERI3
 70
     0
  9
$USERI4
 70
     0
  9
$USERI5
 70
     0
  9
$USERR1
 40
0.0
  9
$USERR2
 40
0.0
  9
$USERR3
 40
0.0
  9
$USERR4
 40
0.0
  9
$USERR5
 40
0.0
  9
$WORLDVIEW
 70
     1
  9
$SHADEDGE
 70
     3
  9
$SHADEDIF
 70
    70
  9
$TILEMODE
 70
     1
  9
$MAXACTVP
 70
    16
  9
$PLIMCHECK
 70
     0
  9
$PEXTMIN
 10
1.0000000000000000E+020
 20
1.0000000000000000E+020
 30
1.0000000000000000E+020
  9
$PEXTMAX
 10
-1.0000000000000000E+020
 20
-1.0000000000000000E+020
 30
-1.0000000000000000E+020
  9
$PLIMMIN
 10
0.0
 20
0.0
  9
$PLIMMAX
 10
420.0
 20
297.0
  9
$UNITMODE
 70
     0
  9
$VISRETAIN
 70
     1
  9
$PLINEGEN
 70
     0
  9
$PSLTSCALE
 70
     1
  0
ENDSEC
  0
SECTION
  2
TABLES
  0
TABLE
  2
VPORT
 70
     1
  0
VPORT
  2
*ACTIVE
 70
     0
 10
0.0
 20
0.0
 11
1.0
 21
1.0
 12
8.8893552923172194
 22
14.6091948376832
 13
0.0
 23
0.0
 14
7.0
 24
7.0
 15
7.0
 25
7.0
 16
0.0
 26
0.0
 36
1.0
 17
0.0
 27
0.0
 37
0.0
 40
201.96268093696821
 41
1.8540145985401451
 42
50.0
 43
0.0
 44
0.0
 50
0.0
 51
0.0
 71
     0
 72
  2000
 73
     1
 74
     0
 75
     0
 76
     1
 77
     0
 78
     0
  0
ENDTAB
  0
TABLE
  2
LTYPE
 70
    16
  0
LTYPE
  2
CONTINUOUS
 70
     0
  3
Solid line
 72
    65
 73
     0
 40
0.0
  0
LTYPE
  2
CENTER2
 70
     0
  3
___ _ ___ _ ___ _ ___ _ ___ _ ___ _ ___ _ ___ _
 72
    65
 73
     4
 40
1.125
 49
0.75
 49
-0.125
 49
0.125
 49
-0.125
  0
LTYPE
  2
HIDDEN2
 70
     0
  3
_ _ _ _ _ _ _ _ _ _ _ _ _ _ _ _ _ _ _ _ _ _ _ _
 72
    65
 73
     2
 40
0.1875
 49
0.125
 49
-0.0625
  0
LTYPE
  2
PHANTOM2
 70
     0
  3
___ _ _ ___ _ _ ___ _ _ ___ _ _ ___ _ _ ___ _ _
 72
    65
 73
     6
 40
1.25
 49
0.625
 49
-0.125
 49
0.125
 49
-0.125
 49
0.125
 49
-0.125
  0
LTYPE
  2
AM_ISO02W050
 70
     0
  3
__ __ __ __ __ __ __ __ __ __ __ __ __ __ __
 72
    65
 73
     2
 40
7.5
 49
6.0
 49
-1.5
  0
LTYPE
  2
AMCONSTR
 70
     0
  3
_______________________
 72
    65
 73
     2
 40
9999.0
 49
9999.0
 49
0.0
  0
LTYPE
  2
ACISOWELD
 70
     0
  3
_ _ _ _ _
 72
    65
 73
     2
 40
2.0
 49
2.0
 49
-1.0
  0
LTYPE
  2
ACISOTGB
 70
     0
  3
__ . . __ . .
 72
    65
 73
     6
 40
9.0
 49
4.0
 49
-1.0
 49
1.0
 49
-1.0
 49
1.0
 49
-1.0
  0
LTYPE
  2
ACISOTGL
 70
     0
  3
_ _ _ _ _
 72
    65
 73
     2
 40
3.0
 49
2.0
 49
-1.0
  0
LTYPE
  2
ACJISTGB
 70
     0
  3
__ . . __ . .
 72
    65
 73
     6
 40
9.0
 49
4.0
 49
-1.0
 49
1.0
 49
-1.0
 49
1.0
 49
-1.0
  0
LTYPE
  2
ACJISTGL
 70
     0
  3
_ _ _ _ _
 72
    65
 73
     2
 40
3.0
 49
2.0
 49
-1.0
  0
ENDTAB
  0
TABLE
  2
LAYER
 70
     7
  0
LAYER
  2
0
 70
     0
 62
     7
  6
CONTINUOUS
  0
LAYER
  2
DEFPOINTS
 70
     0
 62
     7
  6
CONTINUOUS
  0
LAYER
  2
245
 70
     0
 62
     2
  6
CENTER2
  0
LAYER
  2
240
 70
     0
 62
     4
  6
CONTINUOUS
  0
LAYER
  2
241
 70
     0
 62
   211
  6
CONTINUOUS
  0
LAYER
  2
247
 70
     0
 62
    60
  6
CONTINUOUS
  0
LAYER
  2
250
 70
     0
 62
     3
  6
CONTINUOUS
  0
ENDTAB
  0
TABLE
  2
STYLE
 70
     7
  0
STYLE
  2
STANDARD
 70
     0
 40
0.0
 41
1.0
 50
0.0
 71
     0
 42
3.0
  3
romans.shx
  4
extfont.shx
  0
STYLE
  2
ACISOTS
 70
     0
 40
1.0
 41
1.0
 50
0.0
 71
     0
 42
3.0
  3
amgdt.shx
  4
extfont.shx
  0
STYLE
  2
ACISOGDT
 70
     0
 40
0.0
 41
1.0
 50
0.0
 71
     0
 42
3.0
  3
amgdt.shx
  4
extfont.shx
  0
STYLE
  2
ACJISTS
 70
     0
 40
1.0
 41
1.0
 50
0.0
 71
     0
 42
3.0
  3
amgdt.shx
  4
extfont.shx
  0
STYLE
  2
ACJISGDT
 70
     0
 40
0.0
 41
1.0
 50
0.0
 71
     0
 42
3.0
  3
amgdt.shx
  4
extfont.shx
  0
STYLE
  2
YOKO
 70
     0
 40
0.0
 41
1.0
 50
0.0
 71
     0
 42
3.0
  3
romans.shx
  4
extfont.shx
  0
ENDTAB
  0
TABLE
  2
VIEW
 70
     0
  0
ENDTAB
  0
TABLE
  2
UCS
 70
     0
  0
ENDTAB
  0
TABLE
  2
APPID
 70
    42
  0
APPID
  2
ACAD
 70
     0
  0
APPID
  2
GLOBAL
 70
     0
  0
APPID
  2
DETAIL
 70
     0
  0
APPID
  2
GRPNAME
 70
     0
  0
APPID
  2
GPARA
 70
     0
  0
APPID
  2
MCAD_NO_VIS
 70
     0
  0
APPID
  2
ACAD_TEMP_GRAPHIC
 70
     0
  0
APPID
  2
ACATTRIBSERVICES
 70
     0
  0
APPID
  2
GENIUS_GENSCREG_15
 70
     0
  0
APPID
  2
GENIUS_GENODEF_13
 70
     0
  0
APPID
  2
GENIUS_GENOBJ-N-SDF_13
 70
     0
  0
APPID
  2
GENIUS_GENREC_14
 70
     0
  0
APPID
  2
GENIUS_GENOBJ-N-REC_13
 70
     0
  0
APPID
  2
GENIUS_GENDIMSH_14
 70
     0
  0
APPID
  2
GENIUS_GENOBJ-N-DIM_13
 70
     0
  0
APPID
  2
GENIUS_GENDIM_13
 70
     0
  0
APPID
  2
GENIUS_GENDTOL_13
 70
     0
  0
APPID
  2
GENIUS_GENOLIS_13
 70
     0
  0
APPID
  2
GENIUS_GENOENT_13
 70
     0
  0
APPID
  2
GENIUS_GENOBJ-F-FEM_13
 70
     0
  0
APPID
  2
GENIUS_GENOREF_13
 70
     0
  0
APPID
  2
GENIUS_GEFFEM_13
 70
     0
  0
APPID
  2
GENIUS_GEFFEMP_13
 70
     0
  0
APPID
  2
AD_DRAW
 70
     0
  0
APPID
  2
DESIGNERASSEMBLIES
 70
     0
  0
APPID
  2
ACADM_DIM_EDIT
 70
     0
  0
APPID
  2
AMDT_DM_ADJ
 70
     0
  0
APPID
  2
ITEMNAME
 70
     0
  0
APPID
  2
GENIUS_GENOBJ-N-FIL_13
 70
     0
  0
APPID
  2
GENIUS_GENFIL_13
 70
     0
  0
APPID
  2
GENIUS_GENOBJ-N-CHA_13
 70
     0
  0
APPID
  2
ACAD_NAV_VCDISPLAY
 70
     0
  0
APPID
  2
ACAD_DSTYLE_DIMJAG
 70
     0
  0
APPID
  2
ACAD_DSTYLE_DIMBREAK
 70
     0
  0
APPID
  2
ACAD_PSEXT
 70
     0
  0
APPID
  2
PLOTTRANSPARENCY
 70
     0
  0
APPID
  2
ACADANNOTATIVE
 70
     0
  0
APPID
  2
ACAD_DSTYLE_DIMINSPECT
 70
     0
  0
APPID
  2
ACAD_DSTYLE_DIMTALN
 70
     0
  0
APPID
  2
ACAECLAYERSTANDARD
 70
     0
  0
APPID
  2
ACAD_EXEMPT_FROM_CAD_STANDARDS
 70
     0
  0
APPID
  2
ACAD_MLEADERVER
 70
     0
  0
ENDTAB
  0
TABLE
  2
DIMSTYLE
 70
    29
  0
DIMSTYLE
  2
BIGT
 70
     0
  3

  4

  5
OPEN
  6

  7

 40
1.0
 41
2.2299999999999991
 42
0.5
 43
7.0
 44
1.0
 45
0.0
 46
0.0
 47
0.0
 48
0.01
140
2.7999999999999989
141
0.0
142
0.0
143
25.399999999999999
144
1.0
145
0.0
146
1.0
147
1.0
 71
     0
 72
     0
 73
     0
 74
     0
 75
     0
 76
     0
 77
     3
 78
     9
170
     0
171
     2
172
     1
173
     0
174
     1
175
     0
176
   256
177
   256
178
    40
  0
DIMSTYLE
  2
AM_ISO
 70
     0
  3

  4
"
  5

  6

  7

 40
1.0
 41
2.5
 42
1.0
 43
10.0
 44
1.0
 45
0.0
 46
0.0
 47
0.1
 48
0.1
140
3.5
141
0.0
142
0.0
143
0.0393701
144
1.0
145
0.0
146
0.71
147
1.5
 71
     0
 72
     0
 73
     0
 74
     0
 75
     0
 76
     0
 77
     1
 78
     8
170
     0
171
     2
172
     1
173
     0
174
     0
175
     0
176
   256
177
   256
178
     2
  0
DIMSTYLE
  2
AM_ISO$3
 70
     0
  3

  4
"
  5

  6

  7

 40
1.0
 41
2.5
 42
1.0
 43
10.0
 44
1.0
 45
0.0
 46
0.0
 47
0.1
 48
0.1
140
3.5
141
0.0
142
0.0
143
0.0393701
144
1.0
145
0.0
146
0.71
147
1.5
 71
     0
 72
     0
 73
     0
 74
     1
 75
     0
 76
     0
 77
     1
 78
     8
170
     0
171
     2
172
     0
173
     0
174
     0
175
     0
176
   256
177
   256
178
     2
  0
DIMSTYLE
  2
AM_ISO$4
 70
     0
  3

  4
"
  5

  6

  7

 40
1.0
 41
2.5
 42
1.0
 43
10.0
 44
1.0
 45
0.0
 46
0.0
 47
0.1
 48
0.1
140
3.5
141
0.0
142
0.0
143
0.0393701
144
1.0
145
0.0
146
0.71
147
1.5
 71
     0
 72
     0
 73
     0
 74
     1
 75
     0
 76
     0
 77
     1
 78
     8
170
     0
171
     2
172
     0
173
     0
174
     0
175
     0
176
   256
177
   256
178
     2
  0
DIMSTYLE
  2
AM_ISO$6
 70
     0
  3

  4
"
  5

  6

  7

 40
1.0
 41
2.5
 42
1.0
 43
10.0
 44
1.0
 45
0.0
 46
0.0
 47
0.1
 48
0.1
140
3.5
141
0.0
142
0.0
143
0.0393701
144
1.0
145
0.0
146
0.71
147
1.5
 71
     0
 72
     0
 73
     0
 74
     0
 75
     0
 76
     0
 77
     0
 78
     8
170
     0
171
     2
172
     1
173
     0
174
     0
175
     0
176
   256
177
   256
178
     2
  0
DIMSTYLE
  2
AM_ISO$7
 70
     0
  3

  4
"
  5

  6

  7

 40
1.0
 41
2.5
 42
1.0
 43
10.0
 44
1.0
 45
0.0
 46
0.0
 47
0.1
 48
0.1
140
5.0
141
0.0
142
0.0
143
0.0393701
144
1.0
145
0.0
146
0.71
147
1.5
 71
     0
 72
     0
 73
     0
 74
     0
 75
     0
 76
     0
 77
     1
 78
     8
170
     0
171
     2
172
     1
173
     0
174
     0
175
     0
176
   256
177
   256
178
     2
  0
DIMSTYLE
  2
AM_ISO$SF
 70
     0
  3

  4
"
  5

  6

  7

 40
1.0
 41
2.5
 42
1.0
 43
10.0
 44
1.0
 45
0.0
 46
0.0
 47
0.1
 48
0.1
140
3.5
141
0.0
142
0.0
143
0.0393701
144
1.0
145
0.0
146
0.71
147
1.5
 71
     0
 72
     0
 73
     0
 74
     0
 75
     1
 76
     1
 77
     1
 78
     8
170
     0
171
     2
172
     1
173
     0
174
     0
175
     0
176
   256
177
   256
178
     2
  0
DIMSTYLE
  2
AM_ISO$SH
 70
     0
  3

  4
"
  5

  6
GENAXEH
  7

 40
1.0
 41
2.5
 42
1.0
 43
10.0
 44
1.0
 45
0.0
 46
0.0
 47
0.1
 48
0.1
140
3.5
141
0.0
142
0.0
143
0.0393701
144
2.0
145
0.0
146
0.71
147
1.5
 71
     0
 72
     0
 73
     0
 74
     0
 75
     1
 76
     1
 77
     1
 78
     8
170
     0
171
     2
172
     1
173
     1
174
     0
175
     0
176
   256
177
   256
178
     2
  0
DIMSTYLE
  2
BIGT$2
 70
     0
  3

  4

  5
OPEN
  6

  7

 40
1.0
 41
2.2299999999999991
 42
0.5
 43
7.0
 44
1.0
 45
0.0
 46
0.0
 47
0.0
 48
0.01
140
2.7999999999999989
141
0.0
142
0.0
143
25.399999999999999
144
1.0
145
0.0
146
1.0
147
1.0
 71
     0
 72
     0
 73
     0
 74
     0
 75
     0
 76
     0
 77
     3
 78
     9
170
     0
171
     2
172
     1
173
     0
174
     0
175
     0
176
   256
177
   256
178
    40
  0
DIMSTYLE
  2
BIGT$3
 70
     0
  3

  4

  5
OPEN
  6

  7

 40
1.0
 41
2.2299999999999991
 42
0.5
 43
2.5
 44
1.0
 45
0.0
 46
0.0
 47
0.0
 48
0.01
140
2.7999999999999989
141
0.0
142
0.0
143
25.399999999999999
144
1.0
145
0.0
146
1.0
147
1.0
 71
     0
 72
     0
 73
     0
 74
     0
 75
     0
 76
     0
 77
     3
 78
     9
170
     0
171
     2
172
     1
173
     0
174
     0
175
     0
176
   256
177
   256
178
    40
  0
DIMSTYLE
  2
BIGT$7
 70
     0
  3

  4

  5
OPEN
  6

  7

 40
0.0
 41
2.2299999999999991
 42
0.5
 43
7.0
 44
1.0
 45
0.0
 46
0.0
 47
0.0
 48
0.01
140
2.7999999999999989
141
0.0
142
0.0
143
25.399999999999999
144
1.0
145
0.0
146
1.0
147
1.0
 71
     0
 72
     0
 73
     0
 74
     0
 75
     0
 76
     0
 77
     3
 78
     9
170
     0
171
     2
172
     0
173
     0
174
     0
175
     0
176
   256
177
   256
178
    40
  0
DIMSTYLE
  2
BIGT$6
 70
     0
  3

  4

  5
OPEN
  6

  7

 40
1.0
 41
2.2299999999999991
 42
0.5
 43
2.5
 44
1.0
 45
0.0
 46
0.0
 47
0.0
 48
0.01
140
2.7999999999999989
141
0.0
142
0.0
143
25.399999999999999
144
1.0
145
0.0
146
1.0
147
1.0
 71
     0
 72
     0
 73
     0
 74
     0
 75
     0
 76
     0
 77
     3
 78
     9
170
     0
171
     2
172
     1
173
     0
174
     0
175
     0
176
   256
177
   256
178
    40
  0
DIMSTYLE
  2
BIGT$0
 70
     0
  3

  4

  5
OPEN
  6

  7

 40
1.0
 41
2.2299999999999991
 42
0.5
 43
7.0
 44
1.0
 45
0.0
 46
0.0
 47
0.0
 48
0.01
140
2.7999999999999989
141
0.0
142
0.0
143
25.399999999999999
144
1.0
145
0.0
146
1.0
147
1.0
 71
     0
 72
     0
 73
     0
 74
     0
 75
     0
 76
     0
 77
     3
 78
     9
170
     0
171
     2
172
     1
173
     0
174
     1
175
     0
176
   256
177
   256
178
    40
  0
DIMSTYLE
  2
BIGT$4
 70
     0
  3

  4

  5
OPEN
  6

  7

 40
1.0
 41
2.2299999999999991
 42
0.5
 43
2.5
 44
1.0
 45
0.0
 46
0.0
 47
0.0
 48
0.01
140
2.7999999999999989
141
0.0
142
0.0
143
25.399999999999999
144
1.0
145
0.0
146
1.0
147
1.0
 71
     0
 72
     0
 73
     0
 74
     0
 75
     0
 76
     0
 77
     3
 78
     9
170
     0
171
     2
172
     1
173
     0
174
     0
175
     0
176
   256
177
   256
178
    40
  0
DIMSTYLE
  2
BIGT$SH
 70
     0
  3

  4

  5
OPEN
  6

  7

 40
1.0
 41
2.2299999999999991
 42
0.5
 43
7.0
 44
1.0
 45
0.0
 46
0.0
 47
0.0
 48
0.0
140
2.7999999999999989
141
0.0
142
0.0
143
25.399999999999999
144
1.0
145
0.0
146
1.0
147
1.0
 71
     0
 72
     0
 73
     0
 74
     0
 75
     0
 76
     0
 77
     3
 78
     9
170
     0
171
     2
172
     1
173
     0
174
     0
175
     0
176
   256
177
   256
178
    40
  0
DIMSTYLE
  2
BIGT$SF
 70
     0
  3

  4

  5
OPEN
  6

  7

 40
1.0
 41
2.2299999999999991
 42
0.5
 43
7.0
 44
1.0
 45
0.0
 46
0.0
 47
0.0
 48
0.0
140
2.7999999999999989
141
0.0
142
0.0
143
25.399999999999999
144
1.0
145
0.0
146
1.0
147
1.0
 71
     0
 72
     0
 73
     0
 74
     0
 75
     0
 76
     0
 77
     3
 78
     9
170
     0
171
     2
172
     1
173
     0
174
     0
175
     0
176
   256
177
   256
178
    40
  0
DIMSTYLE
  2
TECHNICAL_OSAKA
 70
     0
  3

  4
"
  5
OPEN30
  6

  7

 40
1.0
 41
2.5
 42
1.0
 43
10.0
 44
1.0
 45
0.0
 46
0.0
 47
0.1
 48
0.1
140
2.7999999999999989
141
0.0
142
0.0
143
0.0393701
144
1.0
145
0.0
146
0.71
147
1.5
 71
     0
 72
     0
 73
     0
 74
     0
 75
     0
 76
     0
 77
     3
 78
     8
170
     0
171
     2
172
     1
173
     0
174
     0
175
     0
176
   256
177
   256
178
    40
  0
DIMSTYLE
  2
TECHNICAL_OSAKA$3
 70
     0
  3

  4
"
  5
OPEN30
  6

  7

 40
1.0
 41
2.5
 42
1.0
 43
10.0
 44
1.0
 45
0.0
 46
0.0
 47
0.1
 48
0.1
140
2.7999999999999989
141
0.0
142
0.0
143
0.0393701
144
1.0
145
0.0
146
0.71
147
1.5
 71
     0
 72
     0
 73
     0
 74
     1
 75
     0
 76
     0
 77
     3
 78
     8
170
     0
171
     2
172
     0
173
     0
174
     0
175
     0
176
   256
177
   256
178
    40
  0
DIMSTYLE
  2
TECHNICAL_OSAKA$4
 70
     0
  3

  4
"
  5
OPEN30
  6

  7

 40
1.0
 41
2.5
 42
1.0
 43
10.0
 44
1.0
 45
0.0
 46
0.0
 47
0.1
 48
0.1
140
2.7999999999999989
141
0.0
142
0.0
143
0.0393701
144
1.0
145
0.0
146
0.71
147
1.5
 71
     0
 72
     0
 73
     0
 74
     1
 75
     0
 76
     0
 77
     3
 78
     8
170
     0
171
     2
172
     0
173
     0
174
     0
175
     0
176
   256
177
   256
178
    40
  0
DIMSTYLE
  2
TECHNICAL_OSAKA$6
 70
     0
  3

  4
"
  5
OPEN30
  6

  7

 40
1.0
 41
2.5
 42
1.0
 43
10.0
 44
1.0
 45
0.0
 46
0.0
 47
0.1
 48
0.1
140
2.7999999999999989
141
0.0
142
0.0
143
0.0393701
144
1.0
145
0.0
146
0.71
147
1.5
 71
     0
 72
     0
 73
     0
 74
     0
 75
     0
 76
     0
 77
     0
 78
     8
170
     0
171
     2
172
     1
173
     0
174
     0
175
     0
176
   256
177
   256
178
    40
  0
DIMSTYLE
  2
TECHNICAL_OSAKA$7
 70
     0
  3

  4
"
  5
OPEN30
  6

  7

 40
1.0
 41
2.5
 42
1.0
 43
10.0
 44
1.0
 45
0.0
 46
0.0
 47
0.1
 48
0.1
140
2.7999999999999989
141
0.0
142
0.0
143
0.0393701
144
1.0
145
0.0
146
0.71
147
1.5
 71
     0
 72
     0
 73
     0
 74
     0
 75
     0
 76
     0
 77
     3
 78
     8
170
     0
171
     2
172
     1
173
     0
174
     0
175
     0
176
   256
177
   256
178
    40
  0
DIMSTYLE
  2
TECHNICAL_OSAKA$SF
 70
     0
  3

  4
"
  5
OPEN30
  6
OPEN30
  7
OPEN30
 40
1.0
 41
2.5
 42
1.0
 43
10.0
 44
1.0
 45
0.0
 46
0.0
 47
0.1
 48
0.1
140
3.5
141
0.0
142
0.0
143
0.0393701
144
1.0
145
0.0
146
0.71
147
1.5
 71
     0
 72
     0
 73
     0
 74
     0
 75
     1
 76
     1
 77
     3
 78
     8
170
     0
171
     2
172
     1
173
     0
174
     0
175
     0
176
   256
177
   256
178
    40
  0
DIMSTYLE
  2
TECHNICAL_OSAKA$SH
 70
     0
  3

  4
"
  5
OPEN30
  6
GENAXEH
  7
OPEN30
 40
1.0
 41
2.5
 42
1.0
 43
10.0
 44
1.0
 45
0.0
 46
0.0
 47
0.1
 48
0.1
140
3.5
141
0.0
142
0.0
143
0.0393701
144
2.0
145
0.0
146
0.71
147
1.5
 71
     0
 72
     0
 73
     0
 74
     0
 75
     1
 76
     1
 77
     3
 78
     8
170
     0
171
     2
172
     1
173
     1
174
     0
175
     0
176
   256
177
   256
178
    40
  0
ENDTAB
  0
ENDSEC
  0
SECTION
  2
BLOCKS
  0
BLOCK
  8
0
  2
$MODEL_SPACE
 70
     0
 10
0.0
 20
0.0
 30
0.0
  3
$MODEL_SPACE
  1

  0
ENDBLK
  5
1C
  8
0
  0
BLOCK
 67
     1
  8
0
  2
$PAPER_SPACE
 70
     0
 10
0.0
 20
0.0
 30
0.0
  3
$PAPER_SPACE
  1

  0
ENDBLK
  5
19
 67
     1
  8
0
  0
BLOCK
  8
0
  2
_OPEN
 70
     0
 10
0.0
 20
0.0
 30
0.0
  3
_OPEN
  1

  0
LINE
  5
4CB4
  8
0
  6
BYBLOCK
 62
     0
 10
-1.0
 20
0.1666666666666666
 30
0.0
 11
0.0
 21
0.0
 31
0.0
  0
LINE
  5
4CB5
  8
0
  6
BYBLOCK
 62
     0
 10
-1.0
 20
-0.1666666666666666
 30
0.0
 11
0.0
 21
0.0
 31
0.0
  0
LINE
  5
4CB6
  8
0
  6
BYBLOCK
 62
     0
 10
0.0
 20
0.0
 30
0.0
 11
-1.0
 21
0.0
 31
0.0
  0
ENDBLK
  5
4CB7
  8
0
  0
BLOCK
  8
0
  2
GENAXEH
 70
     0
 10
0.0
 20
0.0
 30
0.0
  3
GENAXEH
  1

  0
LINE
  5
4CEF
  8
0
 10
-1.0
 20
0.0
 30
0.0
 11
1.0
 21
0.0
 31
0.0
  0
ENDBLK
  5
4CF0
  8
0
  0
BLOCK
  8
0
  2
_OPEN30
 70
     0
 10
0.0
 20
0.0
 30
0.0
  3
_OPEN30
  1

  0
LINE
  5
4D2B
  8
0
  6
BYBLOCK
 62
     0
 10
-1.0
 20
0.26794919
 30
0.0
 11
0.0
 21
0.0
 31
0.0
  0
LINE
  5
4D2C
  8
0
  6
BYBLOCK
 62
     0
 10
0.0
 20
0.0
 30
0.0
 11
-1.0
 21
-0.26794919
 31
0.0
  0
LINE
  5
4D2D
  8
0
  6
BYBLOCK
 62
     0
 10
0.0
 20
0.0
 30
0.0
 11
-1.0
 21
0.0
 31
0.0
  0
ENDBLK
  5
4D2E
  8
0
  0
BLOCK
  8
0
  2
*U6
 70
     1
 10
0.0
 20
0.0
 30
0.0
  3
*U6
  1

  0
TEXT
  5
4DAE
  8
250
 10
-49.999999999999943
 20
-3.9999999999999991
 30
0.0
 40
2.7999999999999989
  1
\U+220564
 50
90.0
  0
ENDBLK
  5
4DB0
  8
0
  0
ENDSEC
  0
SECTION
  2
ENTITIES
  0
LINE
  5
445C
  8
240
  6
CONTINUOUS
 10
1.0
 20
-32.0
 30
0.0
 11
6.1818476720382698
 21
-32.0
 31
0.0
  0
LINE
  5
445D
  8
240
  6
CONTINUOUS
 10
6.1818476720383053
 20
31.999999999999989
 30
0.0
 11
1.0
 21
31.999999999999989
 31
0.0
  0
LINE
  5
445E
  8
240
  6
CONTINUOUS
 10
1.0
 20
31.999999999999989
 30
0.0
 11
0.0
 21
30.999999999999989
 31
0.0
  0
LINE
  5
445F
  8
240
  6
CONTINUOUS
 10
0.0
 20
-31.0
 30
0.0
 11
1.0
 21
-32.0
 31
0.0
  0
LINE
  5
4462
  8
241
  6
CONTINUOUS
 10
13.036038969321099
 20
1.6799999999998221
 30
0.0
 11
13.03603896932278
 21
4.1229907859430588
 31
0.0
  0
LINE
  5
4463
  8
241
  6
CONTINUOUS
 10
7.6360389693210946
 20
1.6799999999998221
 30
0.0
 11
13.036038969321099
 21
1.6799999999998221
 31
0.0
  0
LINE
  5
4464
  8
241
  6
CONTINUOUS
 10
7.6360389693210946
 20
1.6799999999998221
 30
0.0
 11
7.6360389693207971
 21
13.55300019655337
 31
0.0
  0
LINE
  5
4465
  8
241
  6
CONTINUOUS
 10
13.03603896932278
 20
4.1229907859430588
 30
0.0
 11
14.23603896932079
 21
4.1229907859430588
 31
0.0
  0
LINE
  5
4466
  8
241
  6
CONTINUOUS
 10
14.2360389693211
 20
1.6799999999998221
 30
0.0
 11
14.23603896932079
 21
4.1229907859430588
 31
0.0
  0
LINE
  5
4467
  8
241
  6
CONTINUOUS
 10
13.036038969321099
 20
1.6799999999998221
 30
0.0
 11
14.2360389693211
 21
1.6799999999998221
 31
0.0
  0
LINE
  5
446B
  8
241
  6
CONTINUOUS
 10
14.2360389693211
 20
1.6799999999998221
 30
0.0
 11
19.167379804551789
 21
1.6799999999998221
 31
0.0
  0
LINE
  5
4470
  8
240
  6
CONTINUOUS
 10
6.2477884222523867
 20
31.95586957039346
 30
0.0
 11
7.2720779386421022
 21
31.95586957039346
 31
0.0
  0
LINE
  5
4476
  8
241
  6
CONTINUOUS
 10
7.6360389693210946
 20
23.784151464331469
 30
0.0
 11
7.6360389693225299
 21
30.14589696264477
 31
0.0
  0
LINE
  5
4480
  8
241
  6
CONTINUOUS
 10
7.6360389693210946
 20
-21.412953140544509
 30
0.0
 11
7.6360389693210946
 21
-10.91433989487849
 31
0.0
  0
LINE
  5
4487
  8
241
  6
CONTINUOUS
 10
7.6360389478279949
 20
-32.04588685184595
 30
0.0
 11
7.6360389693207971
 21
-28.988207700239531
 31
0.0
  0
LINE
  5
4488
  8
240
  6
CONTINUOUS
 10
6.2477884222523308
 20
-31.955869570393489
 30
0.0
 11
7.2213927710159727
 21
-31.955869570393489
 31
0.0
  0
LINE
  5
448C
  8
240
  6
CONTINUOUS
 10
0.0
 20
-31.0
 30
0.0
 11
0.0
 21
-18.0
 31
0.0
  0
LINE
  5
4491
  8
241
  6
CONTINUOUS
 10
13.036038969321099
 20
-25.218388387282669
 30
0.0
 11
13.036038969322581
 21
-23.369210512980221
 31
0.0
  0
LINE
  5
4496
  8
241
  6
CONTINUOUS
 10
14.2360389693211
 20
-25.21838859016988
 30
0.0
 11
14.23603896932079
 21
-23.369210512980221
 31
0.0
  0
LINE
  5
4498
  8
241
  6
CONTINUOUS
 10
13.036038969322581
 20
-23.369210512980221
 30
0.0
 11
14.23603896932079
 21
-23.369210512980221
 31
0.0
  0
LINE
  5
4499
  8
241
  6
CONTINUOUS
 10
13.106354055317411
 20
-25.231159759546149
 30
0.0
 11
14.319122097260941
 21
-25.231159759546149
 31
0.0
  0
LINE
  5
449E
  8
241
  6
CONTINUOUS
 10
14.2360389693211
 20
27.59426737495637
 30
0.0
 11
14.2360389693211
 21
29.199999999999871
 31
0.0
  0
LINE
  5
44A3
  8
241
  6
CONTINUOUS
 10
11.036038969321091
 20
29.199999999999871
 30
0.0
 11
16.336038969321098
 21
29.199999999999871
 31
0.0
  0
LINE
  5
44A4
  8
241
  6
CONTINUOUS
 10
13.036038969321099
 20
27.399017488300618
 30
0.0
 11
13.036038969321099
 21
29.199999999999871
 31
0.0
  0
LINE
  5
44AD
  8
241
  6
CONTINUOUS
 10
6.0457000425602017
 20
-23.542062774657339
 30
0.0
 11
7.3039270735059061
 21
-22.652361908803439
 31
0.0
  0
LINE
  5
44B7
  8
241
  6
CONTINUOUS
 10
13.036038969321099
 20
-37.344266487424008
 30
0.0
 11
13.03603896932279
 21
-37.151708578935811
 31
0.0
  0
LINE
  5
44BA
  8
241
  6
CONTINUOUS
 10
14.2360389693211
 20
-37.344265994085767
 30
0.0
 11
14.23603896932079
 21
-37.151708577315397
 31
0.0
  0
LINE
  5
44BB
  8
241
  6
CONTINUOUS
 10
19.536038969321101
 20
-31.214874769634079
 30
0.0
 11
19.536038969321101
 21
-30.26021722094924
 31
0.0
  0
LINE
  5
44BC
  8
240
  6
CONTINUOUS
 10
19.536038969321101
 20
-30.26021722094924
 30
0.0
 11
19.536038969321101
 21
-24.114004950889921
 31
0.0
  0
LINE
  5
44BD
  8
241
  6
CONTINUOUS
 10
19.536038969321101
 20
-20.766965158891441
 30
0.0
 11
19.536038969321101
 21
-20.336544625331051
 31
0.0
  0
LINE
  5
44BE
  8
240
  6
CONTINUOUS
 10
19.536038969321101
 20
-20.336544625331051
 30
0.0
 11
19.536038969321101
 21
-1.5000000000002409
 31
0.0
  0
LINE
  5
44BF
  8
240
  6
CONTINUOUS
 10
19.536038969321101
 20
1.679999999999694
 30
0.0
 11
19.536038969321101
 21
20.336544625331172
 31
0.0
  0
LINE
  5
44C0
  8
240
  6
CONTINUOUS
 10
19.536038969321101
 20
23.174586027978531
 30
0.0
 11
19.536038969321101
 21
30.260217220949261
 31
0.0
  0
LINE
  5
44C1
  8
241
  6
CONTINUOUS
 10
13.12640194075502
 20
-37.172045235351632
 30
0.0
 11
14.14566494252594
 21
-37.172045235351632
 31
0.0
  0
LINE
  5
44C2
  8
241
  6
CONTINUOUS
 10
13.118940942936391
 20
-37.362248326352102
 30
0.0
 11
14.15312782582088
 21
-37.362248326352102
 31
0.0
  0
LINE
  5
44C6
  8
245
  6
CENTER2
 10
-43.45953556809814
 20
0.0
 30
0.0
 11
21.567918162663599
 21
0.0
 31
0.0
  0
POLYLINE
  8
241
  5
4DB1
  66
     1
 10
0.000000
 20
0.000000
 30
0.000000
  70
     8
  0
VERTEX
  8
241
  5
4DB2
 10
11.3095
 20
14.7289
 30
0.000000
  70
    32
  0
VERTEX
  8
241
  5
4DB3
 10
11.3079
 20
14.7301
 30
0.000000
  70
    32
  0
VERTEX
  8
241
  5
4DB4
 10
11.3062
 20
14.7312
 30
0.000000
  70
    32
  0
VERTEX
  8
241
  5
4DB5
 10
11.3046
 20
14.7324
 30
0.000000
  70
    32
  0
VERTEX
  8
241
  5
4DB6
 10
11.3029
 20
14.7336
 30
0.000000
  70
    32
  0
VERTEX
  8
241
  5
4DB7
 10
11.3013
 20
14.7347
 30
0.000000
  70
    32
  0
VERTEX
  8
241
  5
4DB8
 10
11.2996
 20
14.7359
 30
0.000000
  70
    32
  0
VERTEX
  8
241
  5
4DB9
 10
11.2980
 20
14.7371
 30
0.000000
  70
    32
  0
VERTEX
  8
241
  5
4DBA
 10
11.2963
 20
14.7383
 30
0.000000
  70
    32
  0
VERTEX
  8
241
  5
4DBB
 10
11.2947
 20
14.7394
 30
0.000000
  70
    32
  0
VERTEX
  8
241
  5
4DBC
 10
11.2931
 20
14.7406
 30
0.000000
  70
    32
  0
VERTEX
  8
241
  5
4DBD
 10
11.2914
 20
14.7418
 30
0.000000
  70
    32
  0
VERTEX
  8
241
  5
4DBE
 10
11.2898
 20
14.7429
 30
0.000000
  70
    32
  0
VERTEX
  8
241
  5
4DBF
 10
11.2881
 20
14.7441
 30
0.000000
  70
    32
  0
VERTEX
  8
241
  5
4DC0
 10
11.2865
 20
14.7453
 30
0.000000
  70
    32
  0
VERTEX
  8
241
  5
4DC1
 10
11.2848
 20
14.7465
 30
0.000000
  70
    32
  0
VERTEX
  8
241
  5
4DC2
 10
11.2832
 20
14.7476
 30
0.000000
  70
    32
  0
VERTEX
  8
241
  5
4DC3
 10
11.2815
 20
14.7488
 30
0.000000
  70
    32
  0
VERTEX
  8
241
  5
4DC4
 10
11.2799
 20
14.7500
 30
0.000000
  70
    32
  0
VERTEX
  8
241
  5
4DC5
 10
11.2783
 20
14.7511
 30
0.000000
  70
    32
  0
VERTEX
  8
241
  5
4DC6
 10
11.2766
 20
14.7523
 30
0.000000
  70
    32
  0
VERTEX
  8
241
  5
4DC7
 10
11.2750
 20
14.7535
 30
0.000000
  70
    32
  0
VERTEX
  8
241
  5
4DC8
 10
11.2733
 20
14.7547
 30
0.000000
  70
    32
  0
VERTEX
  8
241
  5
4DC9
 10
11.2717
 20
14.7558
 30
0.000000
  70
    32
  0
VERTEX
  8
241
  5
4DCA
 10
11.2701
 20
14.7570
 30
0.000000
  70
    32
  0
VERTEX
  8
241
  5
4DCB
 10
11.2684
 20
14.7582
 30
0.000000
  70
    32
  0
VERTEX
  8
241
  5
4DCC
 10
11.2668
 20
14.7593
 30
0.000000
  70
    32
  0
VERTEX
  8
241
  5
4DCD
 10
11.2651
 20
14.7605
 30
0.000000
  70
    32
  0
VERTEX
  8
241
  5
4DCE
 10
11.2635
 20
14.7617
 30
0.000000
  70
    32
  0
VERTEX
  8
241
  5
4DCF
 10
11.2619
 20
14.7628
 30
0.000000
  70
    32
  0
VERTEX
  8
241
  5
4DD0
 10
11.2602
 20
14.7640
 30
0.000000
  70
    32
  0
VERTEX
  8
241
  5
4DD1
 10
11.2586
 20
14.7652
 30
0.000000
  70
    32
  0
VERTEX
  8
241
  5
4DD2
 10
11.2569
 20
14.7663
 30
0.000000
  70
    32
  0
VERTEX
  8
241
  5
4DD3
 10
11.2553
 20
14.7675
 30
0.000000
  70
    32
  0
VERTEX
  8
241
  5
4DD4
 10
11.2537
 20
14.7687
 30
0.000000
  70
    32
  0
VERTEX
  8
241
  5
4DD5
 10
11.2520
 20
14.7698
 30
0.000000
  70
    32
  0
VERTEX
  8
241
  5
4DD6
 10
11.2504
 20
14.7710
 30
0.000000
  70
    32
  0
VERTEX
  8
241
  5
4DD7
 10
11.2488
 20
14.7722
 30
0.000000
  70
    32
  0
VERTEX
  8
241
  5
4DD8
 10
11.2471
 20
14.7733
 30
0.000000
  70
    32
  0
VERTEX
  8
241
  5
4DD9
 10
11.2455
 20
14.7745
 30
0.000000
  70
    32
  0
VERTEX
  8
241
  5
4DDA
 10
11.2438
 20
14.7757
 30
0.000000
  70
    32
  0
VERTEX
  8
241
  5
4DDB
 10
11.2422
 20
14.7768
 30
0.000000
  70
    32
  0
VERTEX
  8
241
  5
4DDC
 10
11.2406
 20
14.7780
 30
0.000000
  70
    32
  0
VERTEX
  8
241
  5
4DDD
 10
11.2389
 20
14.7792
 30
0.000000
  70
    32
  0
VERTEX
  8
241
  5
4DDE
 10
11.2373
 20
14.7803
 30
0.000000
  70
    32
  0
VERTEX
  8
241
  5
4DDF
 10
11.2357
 20
14.7815
 30
0.000000
  70
    32
  0
VERTEX
  8
241
  5
4DE0
 10
11.2341
 20
14.7827
 30
0.000000
  70
    32
  0
VERTEX
  8
241
  5
4DE1
 10
11.2324
 20
14.7838
 30
0.000000
  70
    32
  0
VERTEX
  8
241
  5
4DE2
 10
11.2308
 20
14.7850
 30
0.000000
  70
    32
  0
VERTEX
  8
241
  5
4DE3
 10
11.2292
 20
14.7861
 30
0.000000
  70
    32
  0
VERTEX
  8
241
  5
4DE4
 10
11.2275
 20
14.7873
 30
0.000000
  70
    32
  0
VERTEX
  8
241
  5
4DE5
 10
11.2259
 20
14.7885
 30
0.000000
  70
    32
  0
VERTEX
  8
241
  5
4DE6
 10
11.2243
 20
14.7896
 30
0.000000
  70
    32
  0
VERTEX
  8
241
  5
4DE7
 10
11.2227
 20
14.7908
 30
0.000000
  70
    32
  0
VERTEX
  8
241
  5
4DE8
 10
11.2210
 20
14.7919
 30
0.000000
  70
    32
  0
VERTEX
  8
241
  5
4DE9
 10
11.2194
 20
14.7931
 30
0.000000
  70
    32
  0
VERTEX
  8
241
  5
4DEA
 10
11.2178
 20
14.7943
 30
0.000000
  70
    32
  0
VERTEX
  8
241
  5
4DEB
 10
11.2162
 20
14.7954
 30
0.000000
  70
    32
  0
VERTEX
  8
241
  5
4DEC
 10
11.2145
 20
14.7966
 30
0.000000
  70
    32
  0
VERTEX
  8
241
  5
4DED
 10
11.2129
 20
14.7977
 30
0.000000
  70
    32
  0
VERTEX
  8
241
  5
4DEE
 10
11.2113
 20
14.7989
 30
0.000000
  70
    32
  0
VERTEX
  8
241
  5
4DEF
 10
11.2097
 20
14.8000
 30
0.000000
  70
    32
  0
VERTEX
  8
241
  5
4DF0
 10
11.2081
 20
14.8012
 30
0.000000
  70
    32
  0
VERTEX
  8
241
  5
4DF1
 10
11.2064
 20
14.8024
 30
0.000000
  70
    32
  0
VERTEX
  8
241
  5
4DF2
 10
11.2048
 20
14.8035
 30
0.000000
  70
    32
  0
VERTEX
  8
241
  5
4DF3
 10
11.2032
 20
14.8047
 30
0.000000
  70
    32
  0
VERTEX
  8
241
  5
4DF4
 10
11.2016
 20
14.8058
 30
0.000000
  70
    32
  0
VERTEX
  8
241
  5
4DF5
 10
11.2000
 20
14.8070
 30
0.000000
  70
    32
  0
VERTEX
  8
241
  5
4DF6
 10
11.1984
 20
14.8081
 30
0.000000
  70
    32
  0
VERTEX
  8
241
  5
4DF7
 10
11.1967
 20
14.8093
 30
0.000000
  70
    32
  0
VERTEX
  8
241
  5
4DF8
 10
11.1951
 20
14.8104
 30
0.000000
  70
    32
  0
VERTEX
  8
241
  5
4DF9
 10
11.1935
 20
14.8116
 30
0.000000
  70
    32
  0
VERTEX
  8
241
  5
4DFA
 10
11.1919
 20
14.8127
 30
0.000000
  70
    32
  0
VERTEX
  8
241
  5
4DFB
 10
11.1903
 20
14.8139
 30
0.000000
  70
    32
  0
VERTEX
  8
241
  5
4DFC
 10
11.1887
 20
14.8150
 30
0.000000
  70
    32
  0
VERTEX
  8
241
  5
4DFD
 10
11.1871
 20
14.8162
 30
0.000000
  70
    32
  0
VERTEX
  8
241
  5
4DFE
 10
11.1855
 20
14.8173
 30
0.000000
  70
    32
  0
VERTEX
  8
241
  5
4DFF
 10
11.1839
 20
14.8185
 30
0.000000
  70
    32
  0
VERTEX
  8
241
  5
4E00
 10
11.1823
 20
14.8196
 30
0.000000
  70
    32
  0
VERTEX
  8
241
  5
4E01
 10
11.1807
 20
14.8207
 30
0.000000
  70
    32
  0
VERTEX
  8
241
  5
4E02
 10
11.1791
 20
14.8219
 30
0.000000
  70
    32
  0
VERTEX
  8
241
  5
4E03
 10
11.1775
 20
14.8230
 30
0.000000
  70
    32
  0
VERTEX
  8
241
  5
4E04
 10
11.1759
 20
14.8242
 30
0.000000
  70
    32
  0
VERTEX
  8
241
  5
4E05
 10
11.1743
 20
14.8253
 30
0.000000
  70
    32
  0
VERTEX
  8
241
  5
4E06
 10
11.1727
 20
14.8265
 30
0.000000
  70
    32
  0
VERTEX
  8
241
  5
4E07
 10
11.1711
 20
14.8276
 30
0.000000
  70
    32
  0
VERTEX
  8
241
  5
4E08
 10
11.1695
 20
14.8287
 30
0.000000
  70
    32
  0
VERTEX
  8
241
  5
4E09
 10
11.1679
 20
14.8299
 30
0.000000
  70
    32
  0
VERTEX
  8
241
  5
4E0A
 10
11.1663
 20
14.8310
 30
0.000000
  70
    32
  0
VERTEX
  8
241
  5
4E0B
 10
11.1647
 20
14.8321
 30
0.000000
  70
    32
  0
VERTEX
  8
241
  5
4E0C
 10
11.1631
 20
14.8333
 30
0.000000
  70
    32
  0
VERTEX
  8
241
  5
4E0D
 10
11.1615
 20
14.8344
 30
0.000000
  70
    32
  0
VERTEX
  8
241
  5
4E0E
 10
11.1599
 20
14.8355
 30
0.000000
  70
    32
  0
VERTEX
  8
241
  5
4E0F
 10
11.1583
 20
14.8367
 30
0.000000
  70
    32
  0
VERTEX
  8
241
  5
4E10
 10
11.1567
 20
14.8378
 30
0.000000
  70
    32
  0
VERTEX
  8
241
  5
4E11
 10
11.1551
 20
14.8389
 30
0.000000
  70
    32
  0
VERTEX
  8
241
  5
4E12
 10
11.1536
 20
14.8401
 30
0.000000
  70
    32
  0
VERTEX
  8
241
  5
4E13
 10
11.1520
 20
14.8412
 30
0.000000
  70
    32
  0
VERTEX
  8
241
  5
4E14
 10
11.1504
 20
14.8423
 30
0.000000
  70
    32
  0
VERTEX
  8
241
  5
4E15
 10
11.1488
 20
14.8435
 30
0.000000
  70
    32
  0
VERTEX
  8
241
  5
4E16
 10
11.1472
 20
14.8446
 30
0.000000
  70
    32
  0
VERTEX
  8
241
  5
4E17
 10
11.1457
 20
14.8457
 30
0.000000
  70
    32
  0
VERTEX
  8
241
  5
4E18
 10
11.1441
 20
14.8468
 30
0.000000
  70
    32
  0
VERTEX
  8
241
  5
4E19
 10
11.1425
 20
14.8480
 30
0.000000
  70
    32
  0
VERTEX
  8
241
  5
4E1A
 10
11.1409
 20
14.8491
 30
0.000000
  70
    32
  0
VERTEX
  8
241
  5
4E1B
 10
11.1394
 20
14.8502
 30
0.000000
  70
    32
  0
VERTEX
  8
241
  5
4E1C
 10
11.1378
 20
14.8513
 30
0.000000
  70
    32
  0
VERTEX
  8
241
  5
4E1D
 10
11.1362
 20
14.8524
 30
0.000000
  70
    32
  0
VERTEX
  8
241
  5
4E1E
 10
11.1346
 20
14.8536
 30
0.000000
  70
    32
  0
VERTEX
  8
241
  5
4E1F
 10
11.1331
 20
14.8547
 30
0.000000
  70
    32
  0
VERTEX
  8
241
  5
4E20
 10
11.1315
 20
14.8558
 30
0.000000
  70
    32
  0
VERTEX
  8
241
  5
4E21
 10
11.1299
 20
14.8569
 30
0.000000
  70
    32
  0
VERTEX
  8
241
  5
4E22
 10
11.1284
 20
14.8580
 30
0.000000
  70
    32
  0
VERTEX
  8
241
  5
4E23
 10
11.1268
 20
14.8591
 30
0.000000
  70
    32
  0
VERTEX
  8
241
  5
4E24
 10
11.1252
 20
14.8603
 30
0.000000
  70
    32
  0
VERTEX
  8
241
  5
4E25
 10
11.1237
 20
14.8614
 30
0.000000
  70
    32
  0
VERTEX
  8
241
  5
4E26
 10
11.1221
 20
14.8625
 30
0.000000
  70
    32
  0
VERTEX
  8
241
  5
4E27
 10
11.1205
 20
14.8636
 30
0.000000
  70
    32
  0
VERTEX
  8
241
  5
4E28
 10
11.1190
 20
14.8647
 30
0.000000
  70
    32
  0
VERTEX
  8
241
  5
4E29
 10
11.1174
 20
14.8658
 30
0.000000
  70
    32
  0
VERTEX
  8
241
  5
4E2A
 10
11.1159
 20
14.8669
 30
0.000000
  70
    32
  0
VERTEX
  8
241
  5
4E2B
 10
11.1143
 20
14.8680
 30
0.000000
  70
    32
  0
VERTEX
  8
241
  5
4E2C
 10
11.1127
 20
14.8691
 30
0.000000
  70
    32
  0
VERTEX
  8
241
  5
4E2D
 10
11.1112
 20
14.8703
 30
0.000000
  70
    32
  0
VERTEX
  8
241
  5
4E2E
 10
11.1096
 20
14.8714
 30
0.000000
  70
    32
  0
VERTEX
  8
241
  5
4E2F
 10
11.1081
 20
14.8725
 30
0.000000
  70
    32
  0
VERTEX
  8
241
  5
4E30
 10
11.1065
 20
14.8736
 30
0.000000
  70
    32
  0
VERTEX
  8
241
  5
4E31
 10
11.1050
 20
14.8747
 30
0.000000
  70
    32
  0
VERTEX
  8
241
  5
4E32
 10
11.1034
 20
14.8758
 30
0.000000
  70
    32
  0
VERTEX
  8
241
  5
4E33
 10
11.1019
 20
14.8769
 30
0.000000
  70
    32
  0
VERTEX
  8
241
  5
4E34
 10
11.1003
 20
14.8780
 30
0.000000
  70
    32
  0
VERTEX
  8
241
  5
4E35
 10
11.0988
 20
14.8791
 30
0.000000
  70
    32
  0
VERTEX
  8
241
  5
4E36
 10
11.0973
 20
14.8802
 30
0.000000
  70
    32
  0
VERTEX
  8
241
  5
4E37
 10
11.0957
 20
14.8813
 30
0.000000
  70
    32
  0
VERTEX
  8
241
  5
4E38
 10
11.0942
 20
14.8824
 30
0.000000
  70
    32
  0
VERTEX
  8
241
  5
4E39
 10
11.0926
 20
14.8835
 30
0.000000
  70
    32
  0
VERTEX
  8
241
  5
4E3A
 10
11.0911
 20
14.8846
 30
0.000000
  70
    32
  0
VERTEX
  8
241
  5
4E3B
 10
11.0895
 20
14.8857
 30
0.000000
  70
    32
  0
VERTEX
  8
241
  5
4E3C
 10
11.0880
 20
14.8868
 30
0.000000
  70
    32
  0
VERTEX
  8
241
  5
4E3D
 10
11.0865
 20
14.8879
 30
0.000000
  70
    32
  0
VERTEX
  8
241
  5
4E3E
 10
11.0849
 20
14.8889
 30
0.000000
  70
    32
  0
VERTEX
  8
241
  5
4E3F
 10
11.0834
 20
14.8900
 30
0.000000
  70
    32
  0
VERTEX
  8
241
  5
4E40
 10
11.0819
 20
14.8911
 30
0.000000
  70
    32
  0
VERTEX
  8
241
  5
4E41
 10
11.0803
 20
14.8922
 30
0.000000
  70
    32
  0
VERTEX
  8
241
  5
4E42
 10
11.0788
 20
14.8933
 30
0.000000
  70
    32
  0
VERTEX
  8
241
  5
4E43
 10
11.0773
 20
14.8944
 30
0.000000
  70
    32
  0
VERTEX
  8
241
  5
4E44
 10
11.0757
 20
14.8955
 30
0.000000
  70
    32
  0
VERTEX
  8
241
  5
4E45
 10
11.0742
 20
14.8966
 30
0.000000
  70
    32
  0
VERTEX
  8
241
  5
4E46
 10
11.0727
 20
14.8977
 30
0.000000
  70
    32
  0
VERTEX
  8
241
  5
4E47
 10
11.0712
 20
14.8987
 30
0.000000
  70
    32
  0
VERTEX
  8
241
  5
4E48
 10
11.0696
 20
14.8998
 30
0.000000
  70
    32
  0
VERTEX
  8
241
  5
4E49
 10
11.0681
 20
14.9009
 30
0.000000
  70
    32
  0
VERTEX
  8
241
  5
4E4A
 10
11.0666
 20
14.9020
 30
0.000000
  70
    32
  0
VERTEX
  8
241
  5
4E4B
 10
11.0651
 20
14.9031
 30
0.000000
  70
    32
  0
VERTEX
  8
241
  5
4E4C
 10
11.0635
 20
14.9042
 30
0.000000
  70
    32
  0
VERTEX
  8
241
  5
4E4D
 10
11.0620
 20
14.9052
 30
0.000000
  70
    32
  0
VERTEX
  8
241
  5
4E4E
 10
11.0605
 20
14.9063
 30
0.000000
  70
    32
  0
VERTEX
  8
241
  5
4E4F
 10
11.0590
 20
14.9074
 30
0.000000
  70
    32
  0
VERTEX
  8
241
  5
4E50
 10
11.0575
 20
14.9085
 30
0.000000
  70
    32
  0
VERTEX
  8
241
  5
4E51
 10
11.0560
 20
14.9095
 30
0.000000
  70
    32
  0
VERTEX
  8
241
  5
4E52
 10
11.0544
 20
14.9106
 30
0.000000
  70
    32
  0
VERTEX
  8
241
  5
4E53
 10
11.0529
 20
14.9117
 30
0.000000
  70
    32
  0
VERTEX
  8
241
  5
4E54
 10
11.0514
 20
14.9128
 30
0.000000
  70
    32
  0
VERTEX
  8
241
  5
4E55
 10
11.0499
 20
14.9138
 30
0.000000
  70
    32
  0
VERTEX
  8
241
  5
4E56
 10
11.0484
 20
14.9149
 30
0.000000
  70
    32
  0
VERTEX
  8
241
  5
4E57
 10
11.0469
 20
14.9160
 30
0.000000
  70
    32
  0
VERTEX
  8
241
  5
4E58
 10
11.0454
 20
14.9171
 30
0.000000
  70
    32
  0
VERTEX
  8
241
  5
4E59
 10
11.0439
 20
14.9181
 30
0.000000
  70
    32
  0
VERTEX
  8
241
  5
4E5A
 10
11.0424
 20
14.9192
 30
0.000000
  70
    32
  0
VERTEX
  8
241
  5
4E5B
 10
11.0409
 20
14.9203
 30
0.000000
  70
    32
  0
VERTEX
  8
241
  5
4E5C
 10
11.0394
 20
14.9213
 30
0.000000
  70
    32
  0
VERTEX
  8
241
  5
4E5D
 10
11.0379
 20
14.9224
 30
0.000000
  70
    32
  0
VERTEX
  8
241
  5
4E5E
 10
11.0364
 20
14.9235
 30
0.000000
  70
    32
  0
VERTEX
  8
241
  5
4E5F
 10
11.0349
 20
14.9245
 30
0.000000
  70
    32
  0
VERTEX
  8
241
  5
4E60
 10
11.0334
 20
14.9256
 30
0.000000
  70
    32
  0
VERTEX
  8
241
  5
4E61
 10
11.0319
 20
14.9267
 30
0.000000
  70
    32
  0
VERTEX
  8
241
  5
4E62
 10
11.0304
 20
14.9277
 30
0.000000
  70
    32
  0
VERTEX
  8
241
  5
4E63
 10
11.0289
 20
14.9288
 30
0.000000
  70
    32
  0
VERTEX
  8
241
  5
4E64
 10
11.0274
 20
14.9298
 30
0.000000
  70
    32
  0
VERTEX
  8
241
  5
4E65
 10
11.0259
 20
14.9309
 30
0.000000
  70
    32
  0
VERTEX
  8
241
  5
4E66
 10
11.0244
 20
14.9320
 30
0.000000
  70
    32
  0
VERTEX
  8
241
  5
4E67
 10
11.0229
 20
14.9330
 30
0.000000
  70
    32
  0
VERTEX
  8
241
  5
4E68
 10
11.0214
 20
14.9341
 30
0.000000
  70
    32
  0
VERTEX
  8
241
  5
4E69
 10
11.0199
 20
14.9351
 30
0.000000
  70
    32
  0
VERTEX
  8
241
  5
4E6A
 10
11.0184
 20
14.9362
 30
0.000000
  70
    32
  0
VERTEX
  8
241
  5
4E6B
 10
11.0169
 20
14.9372
 30
0.000000
  70
    32
  0
VERTEX
  8
241
  5
4E6C
 10
11.0155
 20
14.9383
 30
0.000000
  70
    32
  0
VERTEX
  8
241
  5
4E6D
 10
11.0140
 20
14.9393
 30
0.000000
  70
    32
  0
VERTEX
  8
241
  5
4E6E
 10
11.0125
 20
14.9404
 30
0.000000
  70
    32
  0
VERTEX
  8
241
  5
4E6F
 10
11.0110
 20
14.9414
 30
0.000000
  70
    32
  0
VERTEX
  8
241
  5
4E70
 10
11.0095
 20
14.9425
 30
0.000000
  70
    32
  0
VERTEX
  8
241
  5
4E71
 10
11.0080
 20
14.9435
 30
0.000000
  70
    32
  0
SEQEND
  8
241
  5
4E72
  0
POLYLINE
  8
241
  5
4E73
  66
     1
 10
0.000000
 20
0.000000
 30
0.000000
  70
     8
  0
VERTEX
  8
241
  5
4E74
 10
16.4640
 20
15.1288
 30
0.000000
  70
    32
  0
VERTEX
  8
241
  5
4E75
 10
16.4623
 20
15.1275
 30
0.000000
  70
    32
  0
VERTEX
  8
241
  5
4E76
 10
16.4605
 20
15.1262
 30
0.000000
  70
    32
  0
VERTEX
  8
241
  5
4E77
 10
16.4587
 20
15.1250
 30
0.000000
  70
    32
  0
VERTEX
  8
241
  5
4E78
 10
16.4570
 20
15.1237
 30
0.000000
  70
    32
  0
VERTEX
  8
241
  5
4E79
 10
16.4552
 20
15.1224
 30
0.000000
  70
    32
  0
VERTEX
  8
241
  5
4E7A
 10
16.4534
 20
15.1211
 30
0.000000
  70
    32
  0
VERTEX
  8
241
  5
4E7B
 10
16.4517
 20
15.1198
 30
0.000000
  70
    32
  0
VERTEX
  8
241
  5
4E7C
 10
16.4499
 20
15.1186
 30
0.000000
  70
    32
  0
VERTEX
  8
241
  5
4E7D
 10
16.4481
 20
15.1173
 30
0.000000
  70
    32
  0
VERTEX
  8
241
  5
4E7E
 10
16.4463
 20
15.1160
 30
0.000000
  70
    32
  0
VERTEX
  8
241
  5
4E7F
 10
16.4445
 20
15.1147
 30
0.000000
  70
    32
  0
VERTEX
  8
241
  5
4E80
 10
16.4428
 20
15.1134
 30
0.000000
  70
    32
  0
VERTEX
  8
241
  5
4E81
 10
16.4410
 20
15.1121
 30
0.000000
  70
    32
  0
VERTEX
  8
241
  5
4E82
 10
16.4392
 20
15.1108
 30
0.000000
  70
    32
  0
VERTEX
  8
241
  5
4E83
 10
16.4374
 20
15.1095
 30
0.000000
  70
    32
  0
VERTEX
  8
241
  5
4E84
 10
16.4356
 20
15.1082
 30
0.000000
  70
    32
  0
VERTEX
  8
241
  5
4E85
 10
16.4338
 20
15.1069
 30
0.000000
  70
    32
  0
VERTEX
  8
241
  5
4E86
 10
16.4320
 20
15.1056
 30
0.000000
  70
    32
  0
VERTEX
  8
241
  5
4E87
 10
16.4302
 20
15.1043
 30
0.000000
  70
    32
  0
VERTEX
  8
241
  5
4E88
 10
16.4284
 20
15.1030
 30
0.000000
  70
    32
  0
VERTEX
  8
241
  5
4E89
 10
16.4266
 20
15.1017
 30
0.000000
  70
    32
  0
VERTEX
  8
241
  5
4E8A
 10
16.4248
 20
15.1004
 30
0.000000
  70
    32
  0
VERTEX
  8
241
  5
4E8B
 10
16.4230
 20
15.0990
 30
0.000000
  70
    32
  0
VERTEX
  8
241
  5
4E8C
 10
16.4212
 20
15.0977
 30
0.000000
  70
    32
  0
VERTEX
  8
241
  5
4E8D
 10
16.4194
 20
15.0964
 30
0.000000
  70
    32
  0
VERTEX
  8
241
  5
4E8E
 10
16.4176
 20
15.0951
 30
0.000000
  70
    32
  0
VERTEX
  8
241
  5
4E8F
 10
16.4158
 20
15.0937
 30
0.000000
  70
    32
  0
VERTEX
  8
241
  5
4E90
 10
16.4139
 20
15.0924
 30
0.000000
  70
    32
  0
VERTEX
  8
241
  5
4E91
 10
16.4121
 20
15.0911
 30
0.000000
  70
    32
  0
VERTEX
  8
241
  5
4E92
 10
16.4103
 20
15.0898
 30
0.000000
  70
    32
  0
VERTEX
  8
241
  5
4E93
 10
16.4085
 20
15.0884
 30
0.000000
  70
    32
  0
VERTEX
  8
241
  5
4E94
 10
16.4067
 20
15.0871
 30
0.000000
  70
    32
  0
VERTEX
  8
241
  5
4E95
 10
16.4048
 20
15.0857
 30
0.000000
  70
    32
  0
VERTEX
  8
241
  5
4E96
 10
16.4030
 20
15.0844
 30
0.000000
  70
    32
  0
VERTEX
  8
241
  5
4E97
 10
16.4012
 20
15.0831
 30
0.000000
  70
    32
  0
VERTEX
  8
241
  5
4E98
 10
16.3994
 20
15.0817
 30
0.000000
  70
    32
  0
VERTEX
  8
241
  5
4E99
 10
16.3975
 20
15.0804
 30
0.000000
  70
    32
  0
VERTEX
  8
241
  5
4E9A
 10
16.3957
 20
15.0790
 30
0.000000
  70
    32
  0
VERTEX
  8
241
  5
4E9B
 10
16.3939
 20
15.0777
 30
0.000000
  70
    32
  0
VERTEX
  8
241
  5
4E9C
 10
16.3920
 20
15.0763
 30
0.000000
  70
    32
  0
VERTEX
  8
241
  5
4E9D
 10
16.3902
 20
15.0750
 30
0.000000
  70
    32
  0
VERTEX
  8
241
  5
4E9E
 10
16.3884
 20
15.0736
 30
0.000000
  70
    32
  0
VERTEX
  8
241
  5
4E9F
 10
16.3865
 20
15.0723
 30
0.000000
  70
    32
  0
VERTEX
  8
241
  5
4EA0
 10
16.3847
 20
15.0709
 30
0.000000
  70
    32
  0
VERTEX
  8
241
  5
4EA1
 10
16.3828
 20
15.0695
 30
0.000000
  70
    32
  0
VERTEX
  8
241
  5
4EA2
 10
16.3810
 20
15.0682
 30
0.000000
  70
    32
  0
VERTEX
  8
241
  5
4EA3
 10
16.3792
 20
15.0668
 30
0.000000
  70
    32
  0
VERTEX
  8
241
  5
4EA4
 10
16.3773
 20
15.0654
 30
0.000000
  70
    32
  0
VERTEX
  8
241
  5
4EA5
 10
16.3755
 20
15.0641
 30
0.000000
  70
    32
  0
VERTEX
  8
241
  5
4EA6
 10
16.3736
 20
15.0627
 30
0.000000
  70
    32
  0
VERTEX
  8
241
  5
4EA7
 10
16.3718
 20
15.0613
 30
0.000000
  70
    32
  0
VERTEX
  8
241
  5
4EA8
 10
16.3699
 20
15.0599
 30
0.000000
  70
    32
  0
VERTEX
  8
241
  5
4EA9
 10
16.3681
 20
15.0586
 30
0.000000
  70
    32
  0
VERTEX
  8
241
  5
4EAA
 10
16.3662
 20
15.0572
 30
0.000000
  70
    32
  0
VERTEX
  8
241
  5
4EAB
 10
16.3644
 20
15.0558
 30
0.000000
  70
    32
  0
VERTEX
  8
241
  5
4EAC
 10
16.3625
 20
15.0544
 30
0.000000
  70
    32
  0
VERTEX
  8
241
  5
4EAD
 10
16.3607
 20
15.0531
 30
0.000000
  70
    32
  0
VERTEX
  8
241
  5
4EAE
 10
16.3588
 20
15.0517
 30
0.000000
  70
    32
  0
VERTEX
  8
241
  5
4EAF
 10
16.3569
 20
15.0503
 30
0.000000
  70
    32
  0
VERTEX
  8
241
  5
4EB0
 10
16.3551
 20
15.0489
 30
0.000000
  70
    32
  0
VERTEX
  8
241
  5
4EB1
 10
16.3532
 20
15.0475
 30
0.000000
  70
    32
  0
VERTEX
  8
241
  5
4EB2
 10
16.3514
 20
15.0461
 30
0.000000
  70
    32
  0
VERTEX
  8
241
  5
4EB3
 10
16.3495
 20
15.0447
 30
0.000000
  70
    32
  0
VERTEX
  8
241
  5
4EB4
 10
16.3476
 20
15.0433
 30
0.000000
  70
    32
  0
VERTEX
  8
241
  5
4EB5
 10
16.3458
 20
15.0419
 30
0.000000
  70
    32
  0
VERTEX
  8
241
  5
4EB6
 10
16.3439
 20
15.0405
 30
0.000000
  70
    32
  0
VERTEX
  8
241
  5
4EB7
 10
16.3420
 20
15.0392
 30
0.000000
  70
    32
  0
VERTEX
  8
241
  5
4EB8
 10
16.3402
 20
15.0378
 30
0.000000
  70
    32
  0
VERTEX
  8
241
  5
4EB9
 10
16.3383
 20
15.0364
 30
0.000000
  70
    32
  0
VERTEX
  8
241
  5
4EBA
 10
16.3364
 20
15.0350
 30
0.000000
  70
    32
  0
VERTEX
  8
241
  5
4EBB
 10
16.3346
 20
15.0336
 30
0.000000
  70
    32
  0
VERTEX
  8
241
  5
4EBC
 10
16.3327
 20
15.0321
 30
0.000000
  70
    32
  0
VERTEX
  8
241
  5
4EBD
 10
16.3308
 20
15.0307
 30
0.000000
  70
    32
  0
VERTEX
  8
241
  5
4EBE
 10
16.3290
 20
15.0293
 30
0.000000
  70
    32
  0
VERTEX
  8
241
  5
4EBF
 10
16.3271
 20
15.0279
 30
0.000000
  70
    32
  0
VERTEX
  8
241
  5
4EC0
 10
16.3252
 20
15.0265
 30
0.000000
  70
    32
  0
VERTEX
  8
241
  5
4EC1
 10
16.3233
 20
15.0251
 30
0.000000
  70
    32
  0
VERTEX
  8
241
  5
4EC2
 10
16.3215
 20
15.0237
 30
0.000000
  70
    32
  0
VERTEX
  8
241
  5
4EC3
 10
16.3196
 20
15.0223
 30
0.000000
  70
    32
  0
VERTEX
  8
241
  5
4EC4
 10
16.3177
 20
15.0209
 30
0.000000
  70
    32
  0
VERTEX
  8
241
  5
4EC5
 10
16.3158
 20
15.0195
 30
0.000000
  70
    32
  0
VERTEX
  8
241
  5
4EC6
 10
16.3140
 20
15.0180
 30
0.000000
  70
    32
  0
VERTEX
  8
241
  5
4EC7
 10
16.3121
 20
15.0166
 30
0.000000
  70
    32
  0
VERTEX
  8
241
  5
4EC8
 10
16.3102
 20
15.0152
 30
0.000000
  70
    32
  0
VERTEX
  8
241
  5
4EC9
 10
16.3083
 20
15.0138
 30
0.000000
  70
    32
  0
VERTEX
  8
241
  5
4ECA
 10
16.3065
 20
15.0124
 30
0.000000
  70
    32
  0
VERTEX
  8
241
  5
4ECB
 10
16.3046
 20
15.0109
 30
0.000000
  70
    32
  0
VERTEX
  8
241
  5
4ECC
 10
16.3027
 20
15.0095
 30
0.000000
  70
    32
  0
VERTEX
  8
241
  5
4ECD
 10
16.3008
 20
15.0081
 30
0.000000
  70
    32
  0
VERTEX
  8
241
  5
4ECE
 10
16.2989
 20
15.0067
 30
0.000000
  70
    32
  0
VERTEX
  8
241
  5
4ECF
 10
16.2971
 20
15.0052
 30
0.000000
  70
    32
  0
VERTEX
  8
241
  5
4ED0
 10
16.2952
 20
15.0038
 30
0.000000
  70
    32
  0
VERTEX
  8
241
  5
4ED1
 10
16.2933
 20
15.0024
 30
0.000000
  70
    32
  0
VERTEX
  8
241
  5
4ED2
 10
16.2914
 20
15.0010
 30
0.000000
  70
    32
  0
VERTEX
  8
241
  5
4ED3
 10
16.2895
 20
14.9995
 30
0.000000
  70
    32
  0
VERTEX
  8
241
  5
4ED4
 10
16.2876
 20
14.9981
 30
0.000000
  70
    32
  0
VERTEX
  8
241
  5
4ED5
 10
16.2858
 20
14.9967
 30
0.000000
  70
    32
  0
VERTEX
  8
241
  5
4ED6
 10
16.2839
 20
14.9952
 30
0.000000
  70
    32
  0
VERTEX
  8
241
  5
4ED7
 10
16.2820
 20
14.9938
 30
0.000000
  70
    32
  0
VERTEX
  8
241
  5
4ED8
 10
16.2801
 20
14.9924
 30
0.000000
  70
    32
  0
VERTEX
  8
241
  5
4ED9
 10
16.2782
 20
14.9909
 30
0.000000
  70
    32
  0
VERTEX
  8
241
  5
4EDA
 10
16.2763
 20
14.9895
 30
0.000000
  70
    32
  0
VERTEX
  8
241
  5
4EDB
 10
16.2745
 20
14.9881
 30
0.000000
  70
    32
  0
VERTEX
  8
241
  5
4EDC
 10
16.2726
 20
14.9866
 30
0.000000
  70
    32
  0
VERTEX
  8
241
  5
4EDD
 10
16.2707
 20
14.9852
 30
0.000000
  70
    32
  0
VERTEX
  8
241
  5
4EDE
 10
16.2688
 20
14.9837
 30
0.000000
  70
    32
  0
VERTEX
  8
241
  5
4EDF
 10
16.2669
 20
14.9823
 30
0.000000
  70
    32
  0
VERTEX
  8
241
  5
4EE0
 10
16.2650
 20
14.9809
 30
0.000000
  70
    32
  0
VERTEX
  8
241
  5
4EE1
 10
16.2631
 20
14.9794
 30
0.000000
  70
    32
  0
VERTEX
  8
241
  5
4EE2
 10
16.2612
 20
14.9780
 30
0.000000
  70
    32
  0
VERTEX
  8
241
  5
4EE3
 10
16.2594
 20
14.9765
 30
0.000000
  70
    32
  0
VERTEX
  8
241
  5
4EE4
 10
16.2575
 20
14.9751
 30
0.000000
  70
    32
  0
VERTEX
  8
241
  5
4EE5
 10
16.2556
 20
14.9736
 30
0.000000
  70
    32
  0
VERTEX
  8
241
  5
4EE6
 10
16.2537
 20
14.9722
 30
0.000000
  70
    32
  0
VERTEX
  8
241
  5
4EE7
 10
16.2518
 20
14.9707
 30
0.000000
  70
    32
  0
VERTEX
  8
241
  5
4EE8
 10
16.2499
 20
14.9693
 30
0.000000
  70
    32
  0
VERTEX
  8
241
  5
4EE9
 10
16.2480
 20
14.9678
 30
0.000000
  70
    32
  0
VERTEX
  8
241
  5
4EEA
 10
16.2461
 20
14.9664
 30
0.000000
  70
    32
  0
VERTEX
  8
241
  5
4EEB
 10
16.2442
 20
14.9649
 30
0.000000
  70
    32
  0
VERTEX
  8
241
  5
4EEC
 10
16.2423
 20
14.9635
 30
0.000000
  70
    32
  0
VERTEX
  8
241
  5
4EED
 10
16.2404
 20
14.9620
 30
0.000000
  70
    32
  0
VERTEX
  8
241
  5
4EEE
 10
16.2385
 20
14.9606
 30
0.000000
  70
    32
  0
VERTEX
  8
241
  5
4EEF
 10
16.2366
 20
14.9591
 30
0.000000
  70
    32
  0
VERTEX
  8
241
  5
4EF0
 10
16.2347
 20
14.9577
 30
0.000000
  70
    32
  0
VERTEX
  8
241
  5
4EF1
 10
16.2328
 20
14.9562
 30
0.000000
  70
    32
  0
VERTEX
  8
241
  5
4EF2
 10
16.2309
 20
14.9547
 30
0.000000
  70
    32
  0
VERTEX
  8
241
  5
4EF3
 10
16.2290
 20
14.9533
 30
0.000000
  70
    32
  0
VERTEX
  8
241
  5
4EF4
 10
16.2271
 20
14.9518
 30
0.000000
  70
    32
  0
VERTEX
  8
241
  5
4EF5
 10
16.2252
 20
14.9504
 30
0.000000
  70
    32
  0
VERTEX
  8
241
  5
4EF6
 10
16.2233
 20
14.9489
 30
0.000000
  70
    32
  0
VERTEX
  8
241
  5
4EF7
 10
16.2214
 20
14.9474
 30
0.000000
  70
    32
  0
VERTEX
  8
241
  5
4EF8
 10
16.2195
 20
14.9460
 30
0.000000
  70
    32
  0
VERTEX
  8
241
  5
4EF9
 10
16.2176
 20
14.9445
 30
0.000000
  70
    32
  0
VERTEX
  8
241
  5
4EFA
 10
16.2157
 20
14.9430
 30
0.000000
  70
    32
  0
VERTEX
  8
241
  5
4EFB
 10
16.2138
 20
14.9416
 30
0.000000
  70
    32
  0
VERTEX
  8
241
  5
4EFC
 10
16.2119
 20
14.9401
 30
0.000000
  70
    32
  0
VERTEX
  8
241
  5
4EFD
 10
16.2100
 20
14.9386
 30
0.000000
  70
    32
  0
VERTEX
  8
241
  5
4EFE
 10
16.2081
 20
14.9372
 30
0.000000
  70
    32
  0
VERTEX
  8
241
  5
4EFF
 10
16.2062
 20
14.9357
 30
0.000000
  70
    32
  0
VERTEX
  8
241
  5
4F00
 10
16.2043
 20
14.9342
 30
0.000000
  70
    32
  0
VERTEX
  8
241
  5
4F01
 10
16.2024
 20
14.9328
 30
0.000000
  70
    32
  0
VERTEX
  8
241
  5
4F02
 10
16.2005
 20
14.9313
 30
0.000000
  70
    32
  0
VERTEX
  8
241
  5
4F03
 10
16.1986
 20
14.9298
 30
0.000000
  70
    32
  0
VERTEX
  8
241
  5
4F04
 10
16.1967
 20
14.9284
 30
0.000000
  70
    32
  0
VERTEX
  8
241
  5
4F05
 10
16.1948
 20
14.9269
 30
0.000000
  70
    32
  0
VERTEX
  8
241
  5
4F06
 10
16.1929
 20
14.9254
 30
0.000000
  70
    32
  0
VERTEX
  8
241
  5
4F07
 10
16.1910
 20
14.9239
 30
0.000000
  70
    32
  0
VERTEX
  8
241
  5
4F08
 10
16.1891
 20
14.9225
 30
0.000000
  70
    32
  0
VERTEX
  8
241
  5
4F09
 10
16.1872
 20
14.9210
 30
0.000000
  70
    32
  0
VERTEX
  8
241
  5
4F0A
 10
16.1852
 20
14.9195
 30
0.000000
  70
    32
  0
VERTEX
  8
241
  5
4F0B
 10
16.1833
 20
14.9180
 30
0.000000
  70
    32
  0
VERTEX
  8
241
  5
4F0C
 10
16.1814
 20
14.9165
 30
0.000000
  70
    32
  0
VERTEX
  8
241
  5
4F0D
 10
16.1795
 20
14.9151
 30
0.000000
  70
    32
  0
VERTEX
  8
241
  5
4F0E
 10
16.1776
 20
14.9136
 30
0.000000
  70
    32
  0
VERTEX
  8
241
  5
4F0F
 10
16.1757
 20
14.9121
 30
0.000000
  70
    32
  0
VERTEX
  8
241
  5
4F10
 10
16.1738
 20
14.9106
 30
0.000000
  70
    32
  0
VERTEX
  8
241
  5
4F11
 10
16.1719
 20
14.9091
 30
0.000000
  70
    32
  0
VERTEX
  8
241
  5
4F12
 10
16.1699
 20
14.9077
 30
0.000000
  70
    32
  0
VERTEX
  8
241
  5
4F13
 10
16.1680
 20
14.9062
 30
0.000000
  70
    32
  0
VERTEX
  8
241
  5
4F14
 10
16.1661
 20
14.9047
 30
0.000000
  70
    32
  0
VERTEX
  8
241
  5
4F15
 10
16.1642
 20
14.9032
 30
0.000000
  70
    32
  0
VERTEX
  8
241
  5
4F16
 10
16.1623
 20
14.9017
 30
0.000000
  70
    32
  0
VERTEX
  8
241
  5
4F17
 10
16.1604
 20
14.9002
 30
0.000000
  70
    32
  0
VERTEX
  8
241
  5
4F18
 10
16.1585
 20
14.8987
 30
0.000000
  70
    32
  0
VERTEX
  8
241
  5
4F19
 10
16.1565
 20
14.8973
 30
0.000000
  70
    32
  0
VERTEX
  8
241
  5
4F1A
 10
16.1546
 20
14.8958
 30
0.000000
  70
    32
  0
VERTEX
  8
241
  5
4F1B
 10
16.1527
 20
14.8943
 30
0.000000
  70
    32
  0
VERTEX
  8
241
  5
4F1C
 10
16.1508
 20
14.8928
 30
0.000000
  70
    32
  0
VERTEX
  8
241
  5
4F1D
 10
16.1489
 20
14.8913
 30
0.000000
  70
    32
  0
VERTEX
  8
241
  5
4F1E
 10
16.1469
 20
14.8898
 30
0.000000
  70
    32
  0
VERTEX
  8
241
  5
4F1F
 10
16.1450
 20
14.8883
 30
0.000000
  70
    32
  0
VERTEX
  8
241
  5
4F20
 10
16.1431
 20
14.8868
 30
0.000000
  70
    32
  0
VERTEX
  8
241
  5
4F21
 10
16.1412
 20
14.8853
 30
0.000000
  70
    32
  0
VERTEX
  8
241
  5
4F22
 10
16.1393
 20
14.8838
 30
0.000000
  70
    32
  0
VERTEX
  8
241
  5
4F23
 10
16.1373
 20
14.8823
 30
0.000000
  70
    32
  0
VERTEX
  8
241
  5
4F24
 10
16.1354
 20
14.8808
 30
0.000000
  70
    32
  0
VERTEX
  8
241
  5
4F25
 10
16.1335
 20
14.8793
 30
0.000000
  70
    32
  0
VERTEX
  8
241
  5
4F26
 10
16.1316
 20
14.8778
 30
0.000000
  70
    32
  0
VERTEX
  8
241
  5
4F27
 10
16.1296
 20
14.8763
 30
0.000000
  70
    32
  0
VERTEX
  8
241
  5
4F28
 10
16.1277
 20
14.8749
 30
0.000000
  70
    32
  0
VERTEX
  8
241
  5
4F29
 10
16.1258
 20
14.8734
 30
0.000000
  70
    32
  0
VERTEX
  8
241
  5
4F2A
 10
16.1239
 20
14.8719
 30
0.000000
  70
    32
  0
VERTEX
  8
241
  5
4F2B
 10
16.1219
 20
14.8704
 30
0.000000
  70
    32
  0
VERTEX
  8
241
  5
4F2C
 10
16.1200
 20
14.8689
 30
0.000000
  70
    32
  0
VERTEX
  8
241
  5
4F2D
 10
16.1181
 20
14.8674
 30
0.000000
  70
    32
  0
VERTEX
  8
241
  5
4F2E
 10
16.1161
 20
14.8659
 30
0.000000
  70
    32
  0
VERTEX
  8
241
  5
4F2F
 10
16.1142
 20
14.8644
 30
0.000000
  70
    32
  0
VERTEX
  8
241
  5
4F30
 10
16.1123
 20
14.8628
 30
0.000000
  70
    32
  0
VERTEX
  8
241
  5
4F31
 10
16.1103
 20
14.8613
 30
0.000000
  70
    32
  0
VERTEX
  8
241
  5
4F32
 10
16.1084
 20
14.8598
 30
0.000000
  70
    32
  0
VERTEX
  8
241
  5
4F33
 10
16.1065
 20
14.8583
 30
0.000000
  70
    32
  0
SEQEND
  8
241
  5
4F34
  0
LINE
  5
4527
  8
241
  6
CONTINUOUS
 10
0.0
 20
-17.7266337837473
 30
0.0
 11
0.0
 21
18.0
 31
0.0
  0
LINE
  5
4528
  8
240
  6
CONTINUOUS
 10
0.0
 20
30.999999999999989
 30
0.0
 11
0.0
 21
18.0
 31
0.0
  0
TEXT
  5
455B
  8
241
  6
CONTINUOUS
 10
-42.0
 20
70.0
 30
0.0
 40
4.0
  1
CKB6-C6575-45B-20
  7
YOKO
  0
LINE
  5
4574
  8
240
  6
CONTINUOUS
 10
20.0
 20
-1.5000000000002409
 30
0.0
 11
19.536038969321101
 21
-1.5000000000002409
 31
0.0
  0
LINE
  5
4575
  8
241
  6
CONTINUOUS
 10
19.536038969321101
 20
-1.5000000000002409
 30
0.0
 11
7.2720779386421022
 21
-1.5000000000002129
 31
0.0
  0
LINE
  5
4576
  8
240
  6
CONTINUOUS
 10
19.60954509632889
 20
1.679999999999694
 30
0.0
 11
19.536038969321101
 21
1.679999999999694
 31
0.0
  0
LINE
  5
4577
  8
241
  6
CONTINUOUS
 10
19.536038969321101
 20
1.679999999999694
 30
0.0
 11
7.6625328423134
 21
1.679999999999765
 31
0.0
  0
LINE
  5
4578
  8
241
  6
CONTINUOUS
 10
7.2720779386421022
 20
-1.5000000000002129
 30
0.0
 11
7.6625328423134
 21
1.6799999999998221
 31
0.0
  0
LINE
  5
4579
  8
240
  6
CONTINUOUS
 10
19.60954509632889
 20
1.679999999999694
 30
0.0
 11
20.0
 21
-1.5000000000002409
 31
0.0
  0
LINE
  5
4582
  8
240
  6
CONTINUOUS
 10
14.26030303803299
 20
37.795246063493572
 30
0.0
 11
13.011330361889589
 21
37.795246063493572
 31
0.0
  0
LINE
  5
4583
  8
240
  6
CONTINUOUS
 10
19.94142135623731
 20
32.196970457763953
 30
0.0
 11
14.4017243942703
 21
37.736667419730871
 31
0.0
  0
LINE
  5
4584
  8
240
  6
CONTINUOUS
 10
20.0
 20
30.80702096410279
 30
0.0
 11
20.0
 21
32.055549101526637
 31
0.0
  0
LINE
  5
4585
  8
241
  6
CONTINUOUS
 10
19.054034812851391
 20
29.778213064479559
 30
0.0
 11
19.536038969321101
 21
30.260217220949169
 31
0.0
  0
LINE
  5
4586
  8
240
  6
CONTINUOUS
 10
19.536038969321101
 20
30.260217220949169
 30
0.0
 11
19.941421356237331
 21
30.665599607865509
 31
0.0
  0
LINE
  5
4587
  8
240
  6
CONTINUOUS
 10
12.870353544371801
 20
37.736667419730871
 30
0.0
 11
7.330656582404794
 21
32.196970457763861
 31
0.0
  0
LINE
  5
4588
  8
240
  6
CONTINUOUS
 10
7.2720779386421022
 20
32.055549101526552
 30
0.0
 11
7.2720779386421022
 21
31.983963901275889
 31
0.0
  0
LINE
  5
4589
  8
241
  6
CONTINUOUS
 10
7.2720779386421022
 20
31.983963901275889
 30
0.0
 11
7.2720779386421022
 21
30.80702096410268
 31
0.0
  0
LINE
  5
458A
  8
241
  6
CONTINUOUS
 10
7.3306565824048118
 20
30.665599607865349
 30
0.0
 11
8.1303258164800134
 21
29.865930373790381
 31
0.0
  0
LINE
  5
458C
  8
240
  6
CONTINUOUS
 10
19.536038969321101
 20
-30.26021722094924
 30
0.0
 11
19.941421356237321
 21
-30.665599607865509
 31
0.0
  0
LINE
  5
458E
  8
240
  6
CONTINUOUS
 10
12.870353544371831
 20
-37.736667419730928
 30
0.0
 11
7.3305564225325979
 21
-32.196870297891692
 31
0.0
  0
LINE
  5
4590
  8
240
  6
CONTINUOUS
 10
19.94142135623731
 20
-32.19697045776396
 30
0.0
 11
14.401724394270319
 21
-37.736667419730928
 31
0.0
  0
LINE
  5
4593
  8
240
  6
CONTINUOUS
 10
14.26030303803301
 20
-37.795246063493622
 30
0.0
 11
13.011774900609129
 21
-37.795246063493622
 31
0.0
  0
LINE
  5
4594
  8
240
  6
CONTINUOUS
 10
20.0
 20
-30.807020964102811
 30
0.0
 11
20.0
 21
-32.055549101526651
 31
0.0
  0
LINE
  5
459D
  8
240
  6
CONTINUOUS
 10
20.000077189284681
 20
-22.836049739728981
 30
0.0
 11
19.612813839666281
 21
-20.609218392424872
 31
0.0
  0
LINE
  5
459F
  8
241
  6
CONTINUOUS
 10
7.6360389693210937
 20
-20.890810140656981
 30
0.0
 11
7.2720008416749984
 21
-22.836049208580921
 31
0.0
  0
LINE
  5
45A0
  8
241
  6
CONTINUOUS
 10
14.27957830146844
 20
-27.78593495989054
 30
0.0
 11
12.99249963717366
 21
-27.78593495989054
 31
0.0
  0
LINE
  5
45A1
  8
241
  6
CONTINUOUS
 10
13.012236601318611
 20
-27.02303149731371
 30
0.0
 11
13.011330361889589
 21
-27.78593495989055
 31
0.0
  0
LINE
  5
45A2
  8
241
  6
CONTINUOUS
 10
14.25780561652501
 20
-25.309291842610481
 30
0.0
 11
12.99487040851168
 21
-27.046925101683371
 31
0.0
  0
LINE
  5
45A3
  8
241
  6
CONTINUOUS
 10
14.26074757675261
 20
-27.78593495989055
 30
0.0
 11
14.25780561652501
 21
-25.309291842610481
 31
0.0
  0
POLYLINE
  5
45A6
  8
241
  6
CONTINUOUS
 10
14.257805616524923
 20
-25.309291842610374
 30
0.0
 66
     1
 70
     8
  0
VERTEX
  8
241
  5
4F35
 10
14.2578
 20
-25.3093
 30
0.000000
  70
    32
  0
VERTEX
  8
241
  5
4F36
 10
14.2580
 20
-25.3090
 30
0.000000
  70
    32
  0
VERTEX
  8
241
  5
4F37
 10
14.2582
 20
-25.3087
 30
0.000000
  70
    32
  0
VERTEX
  8
241
  5
4F38
 10
14.2585
 20
-25.3084
 30
0.000000
  70
    32
  0
VERTEX
  8
241
  5
4F39
 10
14.2587
 20
-25.3081
 30
0.000000
  70
    32
  0
VERTEX
  8
241
  5
4F3A
 10
14.2589
 20
-25.3078
 30
0.000000
  70
    32
  0
VERTEX
  8
241
  5
4F3B
 10
14.2591
 20
-25.3075
 30
0.000000
  70
    32
  0
VERTEX
  8
241
  5
4F3C
 10
14.2593
 20
-25.3072
 30
0.000000
  70
    32
  0
VERTEX
  8
241
  5
4F3D
 10
14.2595
 20
-25.3069
 30
0.000000
  70
    32
  0
VERTEX
  8
241
  5
4F3E
 10
14.2598
 20
-25.3065
 30
0.000000
  70
    32
  0
VERTEX
  8
241
  5
4F3F
 10
14.2600
 20
-25.3062
 30
0.000000
  70
    32
  0
VERTEX
  8
241
  5
4F40
 10
14.2602
 20
-25.3059
 30
0.000000
  70
    32
  0
VERTEX
  8
241
  5
4F41
 10
14.2604
 20
-25.3056
 30
0.000000
  70
    32
  0
VERTEX
  8
241
  5
4F42
 10
14.2606
 20
-25.3053
 30
0.000000
  70
    32
  0
VERTEX
  8
241
  5
4F43
 10
14.2608
 20
-25.3050
 30
0.000000
  70
    32
  0
VERTEX
  8
241
  5
4F44
 10
14.2611
 20
-25.3047
 30
0.000000
  70
    32
  0
VERTEX
  8
241
  5
4F45
 10
14.2613
 20
-25.3043
 30
0.000000
  70
    32
  0
VERTEX
  8
241
  5
4F46
 10
14.2615
 20
-25.3040
 30
0.000000
  70
    32
  0
VERTEX
  8
241
  5
4F47
 10
14.2617
 20
-25.3037
 30
0.000000
  70
    32
  0
VERTEX
  8
241
  5
4F48
 10
14.2619
 20
-25.3034
 30
0.000000
  70
    32
  0
VERTEX
  8
241
  5
4F49
 10
14.2621
 20
-25.3030
 30
0.000000
  70
    32
  0
VERTEX
  8
241
  5
4F4A
 10
14.2624
 20
-25.3027
 30
0.000000
  70
    32
  0
VERTEX
  8
241
  5
4F4B
 10
14.2626
 20
-25.3024
 30
0.000000
  70
    32
  0
VERTEX
  8
241
  5
4F4C
 10
14.2628
 20
-25.3021
 30
0.000000
  70
    32
  0
VERTEX
  8
241
  5
4F4D
 10
14.2630
 20
-25.3017
 30
0.000000
  70
    32
  0
VERTEX
  8
241
  5
4F4E
 10
14.2632
 20
-25.3014
 30
0.000000
  70
    32
  0
VERTEX
  8
241
  5
4F4F
 10
14.2634
 20
-25.3011
 30
0.000000
  70
    32
  0
VERTEX
  8
241
  5
4F50
 10
14.2637
 20
-25.3007
 30
0.000000
  70
    32
  0
VERTEX
  8
241
  5
4F51
 10
14.2639
 20
-25.3004
 30
0.000000
  70
    32
  0
VERTEX
  8
241
  5
4F52
 10
14.2641
 20
-25.3001
 30
0.000000
  70
    32
  0
VERTEX
  8
241
  5
4F53
 10
14.2643
 20
-25.2997
 30
0.000000
  70
    32
  0
VERTEX
  8
241
  5
4F54
 10
14.2645
 20
-25.2994
 30
0.000000
  70
    32
  0
VERTEX
  8
241
  5
4F55
 10
14.2647
 20
-25.2990
 30
0.000000
  70
    32
  0
VERTEX
  8
241
  5
4F56
 10
14.2650
 20
-25.2987
 30
0.000000
  70
    32
  0
VERTEX
  8
241
  5
4F57
 10
14.2652
 20
-25.2983
 30
0.000000
  70
    32
  0
VERTEX
  8
241
  5
4F58
 10
14.2654
 20
-25.2980
 30
0.000000
  70
    32
  0
VERTEX
  8
241
  5
4F59
 10
14.2656
 20
-25.2977
 30
0.000000
  70
    32
  0
VERTEX
  8
241
  5
4F5A
 10
14.2658
 20
-25.2973
 30
0.000000
  70
    32
  0
VERTEX
  8
241
  5
4F5B
 10
14.2660
 20
-25.2970
 30
0.000000
  70
    32
  0
VERTEX
  8
241
  5
4F5C
 10
14.2663
 20
-25.2966
 30
0.000000
  70
    32
  0
VERTEX
  8
241
  5
4F5D
 10
14.2665
 20
-25.2962
 30
0.000000
  70
    32
  0
VERTEX
  8
241
  5
4F5E
 10
14.2667
 20
-25.2959
 30
0.000000
  70
    32
  0
VERTEX
  8
241
  5
4F5F
 10
14.2669
 20
-25.2955
 30
0.000000
  70
    32
  0
VERTEX
  8
241
  5
4F60
 10
14.2671
 20
-25.2952
 30
0.000000
  70
    32
  0
VERTEX
  8
241
  5
4F61
 10
14.2673
 20
-25.2948
 30
0.000000
  70
    32
  0
VERTEX
  8
241
  5
4F62
 10
14.2676
 20
-25.2945
 30
0.000000
  70
    32
  0
VERTEX
  8
241
  5
4F63
 10
14.2678
 20
-25.2941
 30
0.000000
  70
    32
  0
VERTEX
  8
241
  5
4F64
 10
14.2680
 20
-25.2937
 30
0.000000
  70
    32
  0
VERTEX
  8
241
  5
4F65
 10
14.2682
 20
-25.2934
 30
0.000000
  70
    32
  0
VERTEX
  8
241
  5
4F66
 10
14.2684
 20
-25.2930
 30
0.000000
  70
    32
  0
VERTEX
  8
241
  5
4F67
 10
14.2686
 20
-25.2926
 30
0.000000
  70
    32
  0
VERTEX
  8
241
  5
4F68
 10
14.2689
 20
-25.2923
 30
0.000000
  70
    32
  0
VERTEX
  8
241
  5
4F69
 10
14.2691
 20
-25.2919
 30
0.000000
  70
    32
  0
VERTEX
  8
241
  5
4F6A
 10
14.2693
 20
-25.2915
 30
0.000000
  70
    32
  0
VERTEX
  8
241
  5
4F6B
 10
14.2695
 20
-25.2912
 30
0.000000
  70
    32
  0
VERTEX
  8
241
  5
4F6C
 10
14.2697
 20
-25.2908
 30
0.000000
  70
    32
  0
VERTEX
  8
241
  5
4F6D
 10
14.2699
 20
-25.2904
 30
0.000000
  70
    32
  0
VERTEX
  8
241
  5
4F6E
 10
14.2702
 20
-25.2900
 30
0.000000
  70
    32
  0
VERTEX
  8
241
  5
4F6F
 10
14.2704
 20
-25.2897
 30
0.000000
  70
    32
  0
VERTEX
  8
241
  5
4F70
 10
14.2706
 20
-25.2893
 30
0.000000
  70
    32
  0
VERTEX
  8
241
  5
4F71
 10
14.2708
 20
-25.2889
 30
0.000000
  70
    32
  0
VERTEX
  8
241
  5
4F72
 10
14.2710
 20
-25.2885
 30
0.000000
  70
    32
  0
VERTEX
  8
241
  5
4F73
 10
14.2712
 20
-25.2881
 30
0.000000
  70
    32
  0
VERTEX
  8
241
  5
4F74
 10
14.2715
 20
-25.2878
 30
0.000000
  70
    32
  0
VERTEX
  8
241
  5
4F75
 10
14.2717
 20
-25.2874
 30
0.000000
  70
    32
  0
VERTEX
  8
241
  5
4F76
 10
14.2719
 20
-25.2870
 30
0.000000
  70
    32
  0
VERTEX
  8
241
  5
4F77
 10
14.2721
 20
-25.2866
 30
0.000000
  70
    32
  0
VERTEX
  8
241
  5
4F78
 10
14.2723
 20
-25.2862
 30
0.000000
  70
    32
  0
VERTEX
  8
241
  5
4F79
 10
14.2725
 20
-25.2858
 30
0.000000
  70
    32
  0
VERTEX
  8
241
  5
4F7A
 10
14.2728
 20
-25.2854
 30
0.000000
  70
    32
  0
VERTEX
  8
241
  5
4F7B
 10
14.2730
 20
-25.2850
 30
0.000000
  70
    32
  0
VERTEX
  8
241
  5
4F7C
 10
14.2732
 20
-25.2846
 30
0.000000
  70
    32
  0
VERTEX
  8
241
  5
4F7D
 10
14.2734
 20
-25.2842
 30
0.000000
  70
    32
  0
VERTEX
  8
241
  5
4F7E
 10
14.2736
 20
-25.2838
 30
0.000000
  70
    32
  0
VERTEX
  8
241
  5
4F7F
 10
14.2738
 20
-25.2834
 30
0.000000
  70
    32
  0
VERTEX
  8
241
  5
4F80
 10
14.2741
 20
-25.2830
 30
0.000000
  70
    32
  0
VERTEX
  8
241
  5
4F81
 10
14.2743
 20
-25.2826
 30
0.000000
  70
    32
  0
VERTEX
  8
241
  5
4F82
 10
14.2745
 20
-25.2822
 30
0.000000
  70
    32
  0
VERTEX
  8
241
  5
4F83
 10
14.2747
 20
-25.2818
 30
0.000000
  70
    32
  0
VERTEX
  8
241
  5
4F84
 10
14.2749
 20
-25.2814
 30
0.000000
  70
    32
  0
VERTEX
  8
241
  5
4F85
 10
14.2751
 20
-25.2810
 30
0.000000
  70
    32
  0
VERTEX
  8
241
  5
4F86
 10
14.2753
 20
-25.2806
 30
0.000000
  70
    32
  0
VERTEX
  8
241
  5
4F87
 10
14.2756
 20
-25.2802
 30
0.000000
  70
    32
  0
VERTEX
  8
241
  5
4F88
 10
14.2758
 20
-25.2798
 30
0.000000
  70
    32
  0
VERTEX
  8
241
  5
4F89
 10
14.2760
 20
-25.2794
 30
0.000000
  70
    32
  0
VERTEX
  8
241
  5
4F8A
 10
14.2762
 20
-25.2790
 30
0.000000
  70
    32
  0
VERTEX
  8
241
  5
4F8B
 10
14.2764
 20
-25.2785
 30
0.000000
  70
    32
  0
VERTEX
  8
241
  5
4F8C
 10
14.2766
 20
-25.2781
 30
0.000000
  70
    32
  0
VERTEX
  8
241
  5
4F8D
 10
14.2769
 20
-25.2777
 30
0.000000
  70
    32
  0
VERTEX
  8
241
  5
4F8E
 10
14.2771
 20
-25.2773
 30
0.000000
  70
    32
  0
VERTEX
  8
241
  5
4F8F
 10
14.2773
 20
-25.2769
 30
0.000000
  70
    32
  0
VERTEX
  8
241
  5
4F90
 10
14.2775
 20
-25.2764
 30
0.000000
  70
    32
  0
VERTEX
  8
241
  5
4F91
 10
14.2777
 20
-25.2760
 30
0.000000
  70
    32
  0
VERTEX
  8
241
  5
4F92
 10
14.2779
 20
-25.2756
 30
0.000000
  70
    32
  0
VERTEX
  8
241
  5
4F93
 10
14.2782
 20
-25.2752
 30
0.000000
  70
    32
  0
VERTEX
  8
241
  5
4F94
 10
14.2784
 20
-25.2747
 30
0.000000
  70
    32
  0
VERTEX
  8
241
  5
4F95
 10
14.2786
 20
-25.2743
 30
0.000000
  70
    32
  0
VERTEX
  8
241
  5
4F96
 10
14.2788
 20
-25.2739
 30
0.000000
  70
    32
  0
VERTEX
  8
241
  5
4F97
 10
14.2790
 20
-25.2734
 30
0.000000
  70
    32
  0
VERTEX
  8
241
  5
4F98
 10
14.2792
 20
-25.2730
 30
0.000000
  70
    32
  0
VERTEX
  8
241
  5
4F99
 10
14.2794
 20
-25.2726
 30
0.000000
  70
    32
  0
VERTEX
  8
241
  5
4F9A
 10
14.2797
 20
-25.2721
 30
0.000000
  70
    32
  0
VERTEX
  8
241
  5
4F9B
 10
14.2799
 20
-25.2717
 30
0.000000
  70
    32
  0
VERTEX
  8
241
  5
4F9C
 10
14.2801
 20
-25.2713
 30
0.000000
  70
    32
  0
VERTEX
  8
241
  5
4F9D
 10
14.2803
 20
-25.2708
 30
0.000000
  70
    32
  0
VERTEX
  8
241
  5
4F9E
 10
14.2805
 20
-25.2704
 30
0.000000
  70
    32
  0
VERTEX
  8
241
  5
4F9F
 10
14.2807
 20
-25.2699
 30
0.000000
  70
    32
  0
VERTEX
  8
241
  5
4FA0
 10
14.2810
 20
-25.2695
 30
0.000000
  70
    32
  0
VERTEX
  8
241
  5
4FA1
 10
14.2812
 20
-25.2691
 30
0.000000
  70
    32
  0
VERTEX
  8
241
  5
4FA2
 10
14.2814
 20
-25.2686
 30
0.000000
  70
    32
  0
VERTEX
  8
241
  5
4FA3
 10
14.2816
 20
-25.2682
 30
0.000000
  70
    32
  0
VERTEX
  8
241
  5
4FA4
 10
14.2818
 20
-25.2677
 30
0.000000
  70
    32
  0
VERTEX
  8
241
  5
4FA5
 10
14.2820
 20
-25.2673
 30
0.000000
  70
    32
  0
VERTEX
  8
241
  5
4FA6
 10
14.2822
 20
-25.2668
 30
0.000000
  70
    32
  0
VERTEX
  8
241
  5
4FA7
 10
14.2825
 20
-25.2664
 30
0.000000
  70
    32
  0
VERTEX
  8
241
  5
4FA8
 10
14.2827
 20
-25.2659
 30
0.000000
  70
    32
  0
VERTEX
  8
241
  5
4FA9
 10
14.2829
 20
-25.2654
 30
0.000000
  70
    32
  0
VERTEX
  8
241
  5
4FAA
 10
14.2831
 20
-25.2650
 30
0.000000
  70
    32
  0
VERTEX
  8
241
  5
4FAB
 10
14.2833
 20
-25.2645
 30
0.000000
  70
    32
  0
VERTEX
  8
241
  5
4FAC
 10
14.2835
 20
-25.2641
 30
0.000000
  70
    32
  0
VERTEX
  8
241
  5
4FAD
 10
14.2838
 20
-25.2636
 30
0.000000
  70
    32
  0
VERTEX
  8
241
  5
4FAE
 10
14.2840
 20
-25.2631
 30
0.000000
  70
    32
  0
VERTEX
  8
241
  5
4FAF
 10
14.2842
 20
-25.2627
 30
0.000000
  70
    32
  0
VERTEX
  8
241
  5
4FB0
 10
14.2844
 20
-25.2622
 30
0.000000
  70
    32
  0
VERTEX
  8
241
  5
4FB1
 10
14.2846
 20
-25.2617
 30
0.000000
  70
    32
  0
VERTEX
  8
241
  5
4FB2
 10
14.2848
 20
-25.2613
 30
0.000000
  70
    32
  0
VERTEX
  8
241
  5
4FB3
 10
14.2850
 20
-25.2608
 30
0.000000
  70
    32
  0
VERTEX
  8
241
  5
4FB4
 10
14.2853
 20
-25.2603
 30
0.000000
  70
    32
  0
VERTEX
  8
241
  5
4FB5
 10
14.2855
 20
-25.2599
 30
0.000000
  70
    32
  0
SEQEND
  8
241
  5
4FB6
  0
LINE
  5
45A8
  8
241
  6
CONTINUOUS
 10
12.43384473482161
 20
-24.909041750186901
 30
0.0
 11
12.90561935895383
 21
-27.02839291486255
 31
0.0
  0
LINE
  5
45A9
  8
241
  6
CONTINUOUS
 10
12.43384473482161
 20
-24.909041750186901
 30
0.0
 11
7.7205689154831676
 21
-21.57625245673005
 31
0.0
  0
LINE
  5
45AC
  8
241
  6
CONTINUOUS
 10
19.111458605338001
 20
-21.887415091235312
 30
0.0
 11
19.60760006927779
 21
-20.57811839063131
 31
0.0
  0
LINE
  5
45AD
  8
241
  6
CONTINUOUS
 10
19.111458605338001
 20
-21.887415091235312
 30
0.0
 11
14.43459215109886
 21
-25.19445907573169
 31
0.0
  0
LINE
  5
45AF
  8
241
  6
CONTINUOUS
 10
14.398625196720291
 20
-25.21989155307141
 30
0.0
 11
14.401624234398099
 21
-27.744584427378062
 31
0.0
  0
LINE
  5
45B1
  8
241
  6
CONTINUOUS
 10
19.941521516109511
 20
-23.827285492403021
 30
0.0
 11
19.803086579669952
 21
-23.029297541779862
 31
0.0
  0
LINE
  5
45B2
  8
240
  6
CONTINUOUS
 10
19.915470053837929
 20
-23.84570665803508
 30
0.0
 11
19.536038969321101
 21
-24.114004950889921
 31
0.0
  0
LINE
  5
45B3
  8
241
  6
CONTINUOUS
 10
19.536038969321101
 20
-24.114004950889921
 30
0.0
 11
14.39504835530636
 21
-27.749234276076091
 31
0.0
  0
LINE
  5
45B4
  8
241
  6
CONTINUOUS
 10
19.111458605338001
 20
-21.887415091235312
 30
0.0
 11
19.78181155824775
 21
-23.00986593804156
 31
0.0
  0
LINE
  5
45B5
  8
241
  6
CONTINUOUS
 10
12.870453704243999
 20
-27.744584427378062
 30
0.0
 11
12.87148659864781
 21
-26.875058458942579
 31
0.0
  0
LINE
  5
45B6
  8
241
  6
CONTINUOUS
 10
12.87702958333573
 20
-27.749234276076091
 30
0.0
 11
7.3566078848041743
 21
-23.845706658034992
 31
0.0
  0
LINE
  5
45B7
  8
241
  6
CONTINUOUS
 10
7.7210113262038957
 20
-21.57656528835075
 30
0.0
 11
7.3305564225325979
 21
-23.82728549240294
 31
0.0
  0
POLYLINE
  5
45B9
  8
241
  6
CONTINUOUS
 10
19.616976203471538
 20
-20.640475153938297
 30
0.0
 66
     1
 70
     8
  0
VERTEX
  8
241
  5
4FB7
 10
19.6170
 20
-20.6405
 30
0.000000
  70
    32
  0
VERTEX
  8
241
  5
4FB8
 10
19.6169
 20
-20.6401
 30
0.000000
  70
    32
  0
VERTEX
  8
241
  5
4FB9
 10
19.6169
 20
-20.6396
 30
0.000000
  70
    32
  0
VERTEX
  8
241
  5
4FBA
 10
19.6168
 20
-20.6392
 30
0.000000
  70
    32
  0
VERTEX
  8
241
  5
4FBB
 10
19.6168
 20
-20.6388
 30
0.000000
  70
    32
  0
VERTEX
  8
241
  5
4FBC
 10
19.6167
 20
-20.6384
 30
0.000000
  70
    32
  0
VERTEX
  8
241
  5
4FBD
 10
19.6167
 20
-20.6379
 30
0.000000
  70
    32
  0
VERTEX
  8
241
  5
4FBE
 10
19.6166
 20
-20.6375
 30
0.000000
  70
    32
  0
VERTEX
  8
241
  5
4FBF
 10
19.6166
 20
-20.6371
 30
0.000000
  70
    32
  0
VERTEX
  8
241
  5
4FC0
 10
19.6165
 20
-20.6367
 30
0.000000
  70
    32
  0
VERTEX
  8
241
  5
4FC1
 10
19.6165
 20
-20.6362
 30
0.000000
  70
    32
  0
VERTEX
  8
241
  5
4FC2
 10
19.6164
 20
-20.6358
 30
0.000000
  70
    32
  0
VERTEX
  8
241
  5
4FC3
 10
19.6164
 20
-20.6354
 30
0.000000
  70
    32
  0
VERTEX
  8
241
  5
4FC4
 10
19.6163
 20
-20.6349
 30
0.000000
  70
    32
  0
VERTEX
  8
241
  5
4FC5
 10
19.6163
 20
-20.6345
 30
0.000000
  70
    32
  0
VERTEX
  8
241
  5
4FC6
 10
19.6162
 20
-20.6341
 30
0.000000
  70
    32
  0
VERTEX
  8
241
  5
4FC7
 10
19.6162
 20
-20.6336
 30
0.000000
  70
    32
  0
VERTEX
  8
241
  5
4FC8
 10
19.6161
 20
-20.6332
 30
0.000000
  70
    32
  0
VERTEX
  8
241
  5
4FC9
 10
19.6161
 20
-20.6328
 30
0.000000
  70
    32
  0
VERTEX
  8
241
  5
4FCA
 10
19.6160
 20
-20.6323
 30
0.000000
  70
    32
  0
VERTEX
  8
241
  5
4FCB
 10
19.6160
 20
-20.6319
 30
0.000000
  70
    32
  0
VERTEX
  8
241
  5
4FCC
 10
19.6159
 20
-20.6314
 30
0.000000
  70
    32
  0
VERTEX
  8
241
  5
4FCD
 10
19.6159
 20
-20.6310
 30
0.000000
  70
    32
  0
VERTEX
  8
241
  5
4FCE
 10
19.6158
 20
-20.6305
 30
0.000000
  70
    32
  0
VERTEX
  8
241
  5
4FCF
 10
19.6157
 20
-20.6301
 30
0.000000
  70
    32
  0
VERTEX
  8
241
  5
4FD0
 10
19.6157
 20
-20.6297
 30
0.000000
  70
    32
  0
VERTEX
  8
241
  5
4FD1
 10
19.6156
 20
-20.6292
 30
0.000000
  70
    32
  0
VERTEX
  8
241
  5
4FD2
 10
19.6156
 20
-20.6288
 30
0.000000
  70
    32
  0
VERTEX
  8
241
  5
4FD3
 10
19.6155
 20
-20.6283
 30
0.000000
  70
    32
  0
VERTEX
  8
241
  5
4FD4
 10
19.6155
 20
-20.6279
 30
0.000000
  70
    32
  0
VERTEX
  8
241
  5
4FD5
 10
19.6154
 20
-20.6274
 30
0.000000
  70
    32
  0
VERTEX
  8
241
  5
4FD6
 10
19.6153
 20
-20.6270
 30
0.000000
  70
    32
  0
VERTEX
  8
241
  5
4FD7
 10
19.6153
 20
-20.6265
 30
0.000000
  70
    32
  0
VERTEX
  8
241
  5
4FD8
 10
19.6152
 20
-20.6261
 30
0.000000
  70
    32
  0
VERTEX
  8
241
  5
4FD9
 10
19.6152
 20
-20.6256
 30
0.000000
  70
    32
  0
VERTEX
  8
241
  5
4FDA
 10
19.6151
 20
-20.6251
 30
0.000000
  70
    32
  0
VERTEX
  8
241
  5
4FDB
 10
19.6150
 20
-20.6247
 30
0.000000
  70
    32
  0
VERTEX
  8
241
  5
4FDC
 10
19.6150
 20
-20.6242
 30
0.000000
  70
    32
  0
VERTEX
  8
241
  5
4FDD
 10
19.6149
 20
-20.6238
 30
0.000000
  70
    32
  0
VERTEX
  8
241
  5
4FDE
 10
19.6149
 20
-20.6233
 30
0.000000
  70
    32
  0
VERTEX
  8
241
  5
4FDF
 10
19.6148
 20
-20.6228
 30
0.000000
  70
    32
  0
VERTEX
  8
241
  5
4FE0
 10
19.6147
 20
-20.6224
 30
0.000000
  70
    32
  0
VERTEX
  8
241
  5
4FE1
 10
19.6147
 20
-20.6219
 30
0.000000
  70
    32
  0
VERTEX
  8
241
  5
4FE2
 10
19.6146
 20
-20.6215
 30
0.000000
  70
    32
  0
VERTEX
  8
241
  5
4FE3
 10
19.6145
 20
-20.6210
 30
0.000000
  70
    32
  0
VERTEX
  8
241
  5
4FE4
 10
19.6145
 20
-20.6205
 30
0.000000
  70
    32
  0
VERTEX
  8
241
  5
4FE5
 10
19.6144
 20
-20.6201
 30
0.000000
  70
    32
  0
VERTEX
  8
241
  5
4FE6
 10
19.6143
 20
-20.6196
 30
0.000000
  70
    32
  0
VERTEX
  8
241
  5
4FE7
 10
19.6143
 20
-20.6191
 30
0.000000
  70
    32
  0
VERTEX
  8
241
  5
4FE8
 10
19.6142
 20
-20.6186
 30
0.000000
  70
    32
  0
VERTEX
  8
241
  5
4FE9
 10
19.6141
 20
-20.6182
 30
0.000000
  70
    32
  0
VERTEX
  8
241
  5
4FEA
 10
19.6141
 20
-20.6177
 30
0.000000
  70
    32
  0
VERTEX
  8
241
  5
4FEB
 10
19.6140
 20
-20.6172
 30
0.000000
  70
    32
  0
VERTEX
  8
241
  5
4FEC
 10
19.6139
 20
-20.6167
 30
0.000000
  70
    32
  0
VERTEX
  8
241
  5
4FED
 10
19.6139
 20
-20.6163
 30
0.000000
  70
    32
  0
VERTEX
  8
241
  5
4FEE
 10
19.6138
 20
-20.6158
 30
0.000000
  70
    32
  0
VERTEX
  8
241
  5
4FEF
 10
19.6137
 20
-20.6153
 30
0.000000
  70
    32
  0
VERTEX
  8
241
  5
4FF0
 10
19.6137
 20
-20.6148
 30
0.000000
  70
    32
  0
VERTEX
  8
241
  5
4FF1
 10
19.6136
 20
-20.6144
 30
0.000000
  70
    32
  0
VERTEX
  8
241
  5
4FF2
 10
19.6135
 20
-20.6139
 30
0.000000
  70
    32
  0
VERTEX
  8
241
  5
4FF3
 10
19.6134
 20
-20.6134
 30
0.000000
  70
    32
  0
VERTEX
  8
241
  5
4FF4
 10
19.6134
 20
-20.6129
 30
0.000000
  70
    32
  0
VERTEX
  8
241
  5
4FF5
 10
19.6133
 20
-20.6124
 30
0.000000
  70
    32
  0
VERTEX
  8
241
  5
4FF6
 10
19.6132
 20
-20.6119
 30
0.000000
  70
    32
  0
VERTEX
  8
241
  5
4FF7
 10
19.6132
 20
-20.6114
 30
0.000000
  70
    32
  0
VERTEX
  8
241
  5
4FF8
 10
19.6131
 20
-20.6110
 30
0.000000
  70
    32
  0
VERTEX
  8
241
  5
4FF9
 10
19.6130
 20
-20.6105
 30
0.000000
  70
    32
  0
VERTEX
  8
241
  5
4FFA
 10
19.6129
 20
-20.6100
 30
0.000000
  70
    32
  0
VERTEX
  8
241
  5
4FFB
 10
19.6129
 20
-20.6095
 30
0.000000
  70
    32
  0
VERTEX
  8
241
  5
4FFC
 10
19.6128
 20
-20.6090
 30
0.000000
  70
    32
  0
VERTEX
  8
241
  5
4FFD
 10
19.6127
 20
-20.6085
 30
0.000000
  70
    32
  0
VERTEX
  8
241
  5
4FFE
 10
19.6126
 20
-20.6080
 30
0.000000
  70
    32
  0
VERTEX
  8
241
  5
4FFF
 10
19.6126
 20
-20.6075
 30
0.000000
  70
    32
  0
VERTEX
  8
241
  5
5000
 10
19.6125
 20
-20.6070
 30
0.000000
  70
    32
  0
VERTEX
  8
241
  5
5001
 10
19.6124
 20
-20.6065
 30
0.000000
  70
    32
  0
VERTEX
  8
241
  5
5002
 10
19.6123
 20
-20.6060
 30
0.000000
  70
    32
  0
VERTEX
  8
241
  5
5003
 10
19.6122
 20
-20.6055
 30
0.000000
  70
    32
  0
VERTEX
  8
241
  5
5004
 10
19.6122
 20
-20.6050
 30
0.000000
  70
    32
  0
VERTEX
  8
241
  5
5005
 10
19.6121
 20
-20.6045
 30
0.000000
  70
    32
  0
VERTEX
  8
241
  5
5006
 10
19.6120
 20
-20.6040
 30
0.000000
  70
    32
  0
VERTEX
  8
241
  5
5007
 10
19.6119
 20
-20.6035
 30
0.000000
  70
    32
  0
VERTEX
  8
241
  5
5008
 10
19.6118
 20
-20.6030
 30
0.000000
  70
    32
  0
VERTEX
  8
241
  5
5009
 10
19.6118
 20
-20.6025
 30
0.000000
  70
    32
  0
VERTEX
  8
241
  5
500A
 10
19.6117
 20
-20.6020
 30
0.000000
  70
    32
  0
VERTEX
  8
241
  5
500B
 10
19.6116
 20
-20.6015
 30
0.000000
  70
    32
  0
VERTEX
  8
241
  5
500C
 10
19.6115
 20
-20.6010
 30
0.000000
  70
    32
  0
VERTEX
  8
241
  5
500D
 10
19.6114
 20
-20.6005
 30
0.000000
  70
    32
  0
VERTEX
  8
241
  5
500E
 10
19.6114
 20
-20.6000
 30
0.000000
  70
    32
  0
VERTEX
  8
241
  5
500F
 10
19.6113
 20
-20.5994
 30
0.000000
  70
    32
  0
VERTEX
  8
241
  5
5010
 10
19.6112
 20
-20.5989
 30
0.000000
  70
    32
  0
VERTEX
  8
241
  5
5011
 10
19.6111
 20
-20.5984
 30
0.000000
  70
    32
  0
VERTEX
  8
241
  5
5012
 10
19.6110
 20
-20.5979
 30
0.000000
  70
    32
  0
VERTEX
  8
241
  5
5013
 10
19.6109
 20
-20.5974
 30
0.000000
  70
    32
  0
VERTEX
  8
241
  5
5014
 10
19.6108
 20
-20.5969
 30
0.000000
  70
    32
  0
VERTEX
  8
241
  5
5015
 10
19.6108
 20
-20.5964
 30
0.000000
  70
    32
  0
VERTEX
  8
241
  5
5016
 10
19.6107
 20
-20.5958
 30
0.000000
  70
    32
  0
VERTEX
  8
241
  5
5017
 10
19.6106
 20
-20.5953
 30
0.000000
  70
    32
  0
VERTEX
  8
241
  5
5018
 10
19.6105
 20
-20.5948
 30
0.000000
  70
    32
  0
VERTEX
  8
241
  5
5019
 10
19.6104
 20
-20.5943
 30
0.000000
  70
    32
  0
VERTEX
  8
241
  5
501A
 10
19.6103
 20
-20.5937
 30
0.000000
  70
    32
  0
VERTEX
  8
241
  5
501B
 10
19.6102
 20
-20.5932
 30
0.000000
  70
    32
  0
VERTEX
  8
241
  5
501C
 10
19.6102
 20
-20.5927
 30
0.000000
  70
    32
  0
VERTEX
  8
241
  5
501D
 10
19.6101
 20
-20.5922
 30
0.000000
  70
    32
  0
VERTEX
  8
241
  5
501E
 10
19.6100
 20
-20.5916
 30
0.000000
  70
    32
  0
VERTEX
  8
241
  5
501F
 10
19.6099
 20
-20.5911
 30
0.000000
  70
    32
  0
VERTEX
  8
241
  5
5020
 10
19.6098
 20
-20.5906
 30
0.000000
  70
    32
  0
VERTEX
  8
241
  5
5021
 10
19.6097
 20
-20.5901
 30
0.000000
  70
    32
  0
VERTEX
  8
241
  5
5022
 10
19.6096
 20
-20.5895
 30
0.000000
  70
    32
  0
VERTEX
  8
241
  5
5023
 10
19.6095
 20
-20.5890
 30
0.000000
  70
    32
  0
VERTEX
  8
241
  5
5024
 10
19.6094
 20
-20.5885
 30
0.000000
  70
    32
  0
VERTEX
  8
241
  5
5025
 10
19.6093
 20
-20.5879
 30
0.000000
  70
    32
  0
VERTEX
  8
241
  5
5026
 10
19.6092
 20
-20.5874
 30
0.000000
  70
    32
  0
VERTEX
  8
241
  5
5027
 10
19.6091
 20
-20.5868
 30
0.000000
  70
    32
  0
VERTEX
  8
241
  5
5028
 10
19.6091
 20
-20.5863
 30
0.000000
  70
    32
  0
VERTEX
  8
241
  5
5029
 10
19.6090
 20
-20.5858
 30
0.000000
  70
    32
  0
VERTEX
  8
241
  5
502A
 10
19.6089
 20
-20.5852
 30
0.000000
  70
    32
  0
VERTEX
  8
241
  5
502B
 10
19.6088
 20
-20.5847
 30
0.000000
  70
    32
  0
VERTEX
  8
241
  5
502C
 10
19.6087
 20
-20.5841
 30
0.000000
  70
    32
  0
VERTEX
  8
241
  5
502D
 10
19.6086
 20
-20.5836
 30
0.000000
  70
    32
  0
VERTEX
  8
241
  5
502E
 10
19.6085
 20
-20.5831
 30
0.000000
  70
    32
  0
VERTEX
  8
241
  5
502F
 10
19.6084
 20
-20.5825
 30
0.000000
  70
    32
  0
VERTEX
  8
241
  5
5030
 10
19.6083
 20
-20.5820
 30
0.000000
  70
    32
  0
VERTEX
  8
241
  5
5031
 10
19.6082
 20
-20.5814
 30
0.000000
  70
    32
  0
VERTEX
  8
241
  5
5032
 10
19.6081
 20
-20.5809
 30
0.000000
  70
    32
  0
VERTEX
  8
241
  5
5033
 10
19.6080
 20
-20.5803
 30
0.000000
  70
    32
  0
VERTEX
  8
241
  5
5034
 10
19.6079
 20
-20.5798
 30
0.000000
  70
    32
  0
VERTEX
  8
241
  5
5035
 10
19.6078
 20
-20.5792
 30
0.000000
  70
    32
  0
VERTEX
  8
241
  5
5036
 10
19.6077
 20
-20.5787
 30
0.000000
  70
    32
  0
VERTEX
  8
241
  5
5037
 10
19.6076
 20
-20.5781
 30
0.000000
  70
    32
  0
SEQEND
  8
241
  5
5038
  0
LINE
  5
45BA
  8
241
  6
CONTINUOUS
 10
19.616976203471509
 20
-20.64047515393818
 30
0.0
 11
19.874438352817592
 21
-22.978756572681139
 31
0.0
  0
LINE
  5
45BD
  8
241
  6
CONTINUOUS
 10
7.2720779386421022
 20
-23.727670652470849
 30
0.0
 11
7.6551017351706916
 21
-21.519785979045011
 31
0.0
  0
LINE
  5
45BE
  8
241
  6
CONTINUOUS
 10
7.2720779386421022
 20
-23.682407341849451
 30
0.0
 11
7.2720779386421022
 21
-22.84419926731006
 31
0.0
  0
LINE
  5
45C0
  8
240
  6
CONTINUOUS
 10
20.0
 20
-22.84419926731012
 30
0.0
 11
20.0
 21
-23.68240734184954
 31
0.0
  0
LINE
  5
45C1
  8
241
  6
CONTINUOUS
 10
19.873178008651109
 20
-22.99662382590148
 30
0.0
 11
20.0
 21
-23.727670652470941
 31
0.0
  0
LINE
  5
45CB
  8
241
  6
CONTINUOUS
 10
13.012236601318611
 20
-0.5390779664001572
 30
0.0
 11
13.011330361889589
 21
-1.5000000000002409
 31
0.0
  0
LINE
  5
45CC
  8
241
  6
CONTINUOUS
 10
14.29272882576281
 20
1.6799999999997219
 30
0.0
 11
12.99507344232272
 21
-0.5688215191016504
 31
0.0
  0
LINE
  5
45CD
  8
241
  6
CONTINUOUS
 10
14.26074757675261
 20
-1.5000000000002409
 30
0.0
 11
14.257805616524889
 21
1.6194784890867311
 31
0.0
  0
LINE
  5
45CF
  8
241
  6
CONTINUOUS
 10
12.43384473482161
 20
1.679999999999765
 30
0.0
 11
12.90283287696254
 21
-0.5541038820772024
 31
0.0
  0
LINE
  5
45D0
  8
241
  6
CONTINUOUS
 10
14.398625196720291
 20
1.6799999999997219
 30
0.0
 11
14.401624234398099
 21
-1.5000000000002409
 31
0.0
  0
LINE
  5
45D1
  8
241
  6
CONTINUOUS
 10
12.870453704243999
 20
-1.5000000000002409
 30
0.0
 11
12.87148659864781
 21
-0.4047806140049631
 31
0.0
  0
LINE
  5
45D3
  8
241
  6
CONTINUOUS
 10
19.111458605338001
 20
1.679999999999765
 30
0.0
 11
19.847092111092259
 21
-0.2546651811649662
 31
0.0
  0
LINE
  5
45F1
  8
241
  6
CONTINUOUS
 10
7.672375665613453
 20
23.918053467726271
 30
0.0
 11
7.2720007482163034
 21
21.614499829926771
 31
0.0
  0
LINE
  5
45F2
  8
240
  6
CONTINUOUS
 10
20.000077095826089
 20
21.614500374205459
 30
0.0
 11
19.893919916977381
 21
22.225274788110561
 31
0.0
  0
LINE
  5
45F6
  8
241
  6
CONTINUOUS
 10
19.111458605338001
 20
24.26329387602188
 30
0.0
 11
14.39943076328036
 21
27.595200716280551
 31
0.0
  0
LINE
  5
45F7
  8
241
  6
CONTINUOUS
 10
19.111458605338001
 20
24.26329387602188
 30
0.0
 11
19.536038969321101
 21
23.174586027978531
 31
0.0
  0
LINE
  5
45F8
  8
241
  6
CONTINUOUS
 10
12.433844734821511
 20
27.28492053497337
 30
0.0
 11
7.672375665613453
 21
23.918053467726271
 31
0.0
  0
LINE
  5
45F9
  8
241
  6
CONTINUOUS
 10
12.433844734821511
 20
27.28492053497337
 30
0.0
 11
14.24672935186296
 21
27.62840541026474
 31
0.0
  0
LINE
  5
45FC
  8
241
  6
CONTINUOUS
 10
7.2720779386421022
 20
21.561086998289589
 30
0.0
 11
7.2720779386421022
 21
20.76814223437156
 31
0.0
  0
LINE
  5
45FD
  8
240
  6
CONTINUOUS
 10
20.0
 20
20.76814223437156
 30
0.0
 11
20.0
 21
21.561086998289589
 31
0.0
  0
LINE
  5
4600
  8
241
  6
CONTINUOUS
 10
14.395048355306409
 20
16.701315300145009
 30
0.0
 11
19.536038969321101
 21
20.336544625331172
 31
0.0
  0
LINE
  5
4601
  8
240
  6
CONTINUOUS
 10
19.536038969321101
 20
20.336544625331172
 30
0.0
 11
19.915470053837929
 21
20.604842918186009
 31
0.0
  0
LINE
  5
4602
  8
241
  6
CONTINUOUS
 10
7.3566078848041787
 20
20.604842918186009
 30
0.0
 11
12.877029583335901
 21
16.701315300145001
 31
0.0
  0
LINE
  5
4603
  8
241
  6
CONTINUOUS
 10
12.99249963717382
 20
16.66461461633055
 30
0.0
 11
14.27957830146849
 21
16.66461461633055
 31
0.0
  0
LINE
  5
4609
  8
241
  6
CONTINUOUS
 10
14.27957830146844
 20
25.66461461633056
 30
0.0
 11
12.99249963717366
 21
25.66461461633056
 31
0.0
  0
LINE
  5
460A
  8
241
  6
CONTINUOUS
 10
13.012236601318611
 20
26.260660126054081
 30
0.0
 11
13.011330361889589
 21
25.66461461633056
 31
0.0
  0
LINE
  5
460B
  8
241
  6
CONTINUOUS
 10
14.257805616524889
 20
27.599580285848379
 30
0.0
 11
12.98120990087563
 21
26.22730808035622
 31
0.0
  0
LINE
  5
460C
  8
241
  6
CONTINUOUS
 10
14.26074757675261
 20
25.66461461633056
 30
0.0
 11
14.257805616524889
 21
27.599580285848379
 31
0.0
  0
LINE
  5
460D
  8
241
  6
CONTINUOUS
 10
14.398625196720291
 20
27.595770337857871
 30
0.0
 11
14.401624234398099
 21
25.623264083818071
 31
0.0
  0
LINE
  5
4610
  8
241
  6
CONTINUOUS
 10
12.870453704243999
 20
25.623264083818071
 30
0.0
 11
12.87148659864781
 21
26.302612224831069
 31
0.0
  0
LINE
  5
4612
  8
241
  6
CONTINUOUS
 10
19.915470053837929
 20
21.72438631447514
 30
0.0
 11
14.39504835530636
 21
25.627913932516101
 31
0.0
  0
LINE
  5
4613
  8
241
  6
CONTINUOUS
 10
12.877029583335741
 20
25.627913932516101
 30
0.0
 11
7.356607884804176
 21
21.72438631447514
 31
0.0
  0
LINE
  5
4614
  8
241
  6
CONTINUOUS
 10
12.433844734821511
 20
27.28492053497337
 30
0.0
 11
12.89892914691691
 21
26.241016099221572
 31
0.0
  0
LINE
  5
474B
  8
250
  6
CONTINUOUS
 10
-30.062520689999999
 20
-28.29299147
 30
0.0
 11
-43.129187350000002
 21
-28.29299147
 31
0.0
1001
ITEMNAME
1000
LNSP2
  0
LINE
  5
474C
  8
240
  6
CONTINUOUS
 10
-40.0
 20
18.0
 30
0.0
 11
-15.955725940000001
 21
18.0
 31
0.0
  0
LINE
  5
474D
  8
240
  6
CONTINUOUS
 10
-15.955725940000001
 20
-18.0
 30
0.0
 11
-40.0
 21
-18.0
 31
0.0
  0
LINE
  5
474E
  8
240
  6
CONTINUOUS
 10
-40.0
 20
-18.0
 30
0.0
 11
-40.0
 21
18.0
 31
0.0
  0
LINE
  5
474F
  8
245
  6
CENTER2
 10
-16.0
 20
7.0
 30
0.0
 11
-16.0
 21
-7.0
 31
0.0
  0
CIRCLE
  5
4750
  8
241
  6
CONTINUOUS
 10
-16.0
 20
0.0
 30
0.0
 40
4.5
  0
CIRCLE
  5
4751
  8
241
  6
CONTINUOUS
 10
-16.0
 20
0.0
 30
0.0
 40
6.0
  0
LINE
  5
4752
  8
241
  6
CONTINUOUS
 10
-1.944274059999997
 20
-18.0
 30
0.0
 11
-15.955725940000001
 21
-18.0
 31
0.0
  0
LINE
  5
4753
  8
240
  6
CONTINUOUS
 10
-13.934999995
 20
-21.5
 30
0.0
 11
-3.9650000049999989
 21
-21.5
 31
0.0
  0
LINE
  5
4754
  8
240
  6
CONTINUOUS
 10
-15.955725940000001
 20
-18.0
 30
0.0
 11
-13.934999995
 21
-21.5
 31
0.0
  0
LINE
  5
4755
  8
240
  6
CONTINUOUS
 10
0.0
 20
-18.0
 30
0.0
 11
-1.944274059999997
 21
-18.0
 31
0.0
  0
LINE
  5
4756
  8
240
  6
CONTINUOUS
 10
-1.944274059999997
 20
-18.0
 30
0.0
 11
-3.9650000049999989
 21
-21.5
 31
0.0
  0
LINE
  5
4757
  8
241
  6
CONTINUOUS
 10
-1.944274059999997
 20
18.0
 30
0.0
 11
-15.955725940000001
 21
18.0
 31
0.0
  0
LINE
  5
4758
  8
240
  6
CONTINUOUS
 10
-13.934999995
 20
21.5
 30
0.0
 11
-3.9650000049999989
 21
21.5
 31
0.0
  0
LINE
  5
4759
  8
240
  6
CONTINUOUS
 10
-15.955725940000001
 20
18.0
 30
0.0
 11
-13.934999995
 21
21.5
 31
0.0
  0
LINE
  5
475A
  8
240
  6
CONTINUOUS
 10
0.0
 20
18.0
 30
0.0
 11
-1.944274059999997
 21
18.0
 31
0.0
  0
LINE
  5
475B
  8
240
  6
CONTINUOUS
 10
-1.944274059999997
 20
18.0
 30
0.0
 11
-3.9650000049999989
 21
21.5
 31
0.0
  0
TEXT
  5
475C
  8
250
  6
CONTINUOUS
 10
-40.729187349999997
 20
-27.29299147
 30
0.0
 40
2.799999999999998
  1
CK6
  7
YOKO
1001
ITEMNAME
1000
LNSP3
1001
ACAD
1000
MTEXTBEGIN
1070
    73
1070
     1
1070
    44
1040
1.0
1070
    74
1070
     0
1000
MTEXTEND
1000
MTEXTBEGIN
1070
    73
1070
     1
1070
    44
1040
1.0
1070
    74
1070
     0
1000
MTEXTEND
1000
MTEXTBEGIN
1070
    73
1070
     1
1070
    44
1040
1.0
1070
    74
1070
     0
1000
MTEXTEND
  0
LINE
  5
475D
  8
250
  6
CONTINUOUS
 10
-25.234859290566959
 20
-19.931236650111959
 30
0.0
 11
-30.062520689999999
 21
-28.29299147
 31
0.0
1001
ACAD
1000
DSTYLE
1002
{
1070
     6
1000
OPEN
1070
   343
1005
0
1002
}
  0
LINE
  5
475E
  8
250
  6
CONTINUOUS
 10
-25.55673207202307
 20
-19.745403312967468
 30
0.0
 11
-24.119859290000001
 21
-18.0
 31
0.0
  0
LINE
  5
475F
  8
250
  6
CONTINUOUS
 10
-24.912986509110841
 20
-20.11706998725646
 30
0.0
 11
-24.119859290000001
 21
-18.0
 31
0.0
  0
LINE
  5
4760
  8
250
  6
CONTINUOUS
 10
-24.119859290000001
 20
-18.0
 30
0.0
 11
-25.234859290566959
 21
-19.931236650111959
 31
0.0
  0
LINE
  5
4761
  8
247
  6
CONTINUOUS
 10
5.3227634364733953
 20
-17.373883773707831
 30
0.0
 11
5.322763436473398
 21
-12.020037620075829
 31
0.0
  0
ARC
  5
4762
  8
247
  6
CONTINUOUS
 10
3.9227634365293991
 20
-17.373883773707831
 30
0.0
 40
1.3999999999439989
 50
180.0
 51
0.0
  0
ARC
  5
4763
  8
247
  6
CONTINUOUS
 10
3.9227634365293991
 20
-12.020037620075829
 30
0.0
 40
1.3999999999439989
 50
0.0
 51
180.0
  0
LINE
  5
4764
  8
247
  6
CONTINUOUS
 10
2.5227634365853979
 20
-16.681576081427831
 30
0.0
 11
4.9227634364893946
 21
-17.369765007221439
 31
0.0
  0
LINE
  5
4765
  8
247
  6
CONTINUOUS
 10
3.6612249750013981
 20
-15.961870828320491
 30
0.0
 11
3.6612249750013981
 21
-17.008024674432491
 31
0.0
  0
ARC
  5
4766
  8
247
  6
CONTINUOUS
 10
2.9624423706357792
 20
-15.689998826523659
 30
0.0
 40
0.4430532353516279
 50
72.997889675291617
 51
172.92416621851231
  0
ARC
  5
4767
  8
247
  6
CONTINUOUS
 10
2.8715898720460191
 20
-16.027386432074849
 30
0.0
 40
0.7923483388981447
 50
4.7429368522013959
 51
73.849226273267618
1001
GENIUS_GENOBJ-N-FIL_13
1002
{
1000
OWNER
1000
GEN
1002
}
1001
GENIUS_GENODEF_13
1002
{
1000
HIER
1070
     0
1002
}
1002
{
1000
MANEDIT
1070
     0
1002
}
1002
{
1000
NOSEL
1070
     0
1002
}
1002
{
1000
BEHIND
1070
     0
1002
}
1002
{
1000
OTHER
1070
     0
1002
}
1002
{
1000
REACTOR
1002
}
  0
LINE
  5
4768
  8
247
  6
CONTINUOUS
 10
4.9227634364893946
 20
-16.32361116110944
 30
0.0
 11
4.9227634364893946
 21
-17.369765007221439
 31
0.0
  0
LINE
  5
4769
  8
247
  6
CONTINUOUS
 10
2.5227634365853979
 20
-16.681576081427831
 30
0.0
 11
2.5227634365853988
 21
-15.63542223531584
 31
0.0
  0
ARC
  5
476A
  8
247
  6
CONTINUOUS
 10
4.1083828226058392
 20
-16.0226194828894
 30
0.0
 40
0.4512654869432983
 50
65.990941652530566
 51
172.26344345906949
  0
ARC
  5
476B
  8
247
  6
CONTINUOUS
 10
4.1127066678226702
 20
-16.40449392192949
 30
0.0
 40
0.8140847556984784
 50
5.7019851642581516
 51
77.277338436820898
1001
GENIUS_GENOBJ-N-FIL_13
1002
{
1000
OWNER
1000
GEN
1002
}
1001
GENIUS_GENODEF_13
1002
{
1000
HIER
1070
     0
1002
}
1002
{
1000
MANEDIT
1070
     0
1002
}
1002
{
1000
NOSEL
1070
     0
1002
}
1002
{
1000
BEHIND
1070
     0
1002
}
1002
{
1000
OTHER
1070
     0
1002
}
1002
{
1000
REACTOR
1002
}
  0
LINE
  5
476C
  8
247
  6
CONTINUOUS
 10
4.9227634364893946
 20
-15.000534238085439
 30
0.0
 11
2.5227634365853988
 21
-14.31234531229183
 31
0.0
  0
LINE
  5
476D
  8
247
  6
CONTINUOUS
 10
2.5227634365853988
 20
-12.373883773907821
 30
0.0
 11
2.5227634365853988
 21
-12.8264730692171
 31
0.0
  0
LINE
  5
476E
  8
247
  6
CONTINUOUS
 10
4.9227634364893946
 20
-13.54311454309183
 30
0.0
 11
4.9227634364893946
 21
-13.050806850803831
 31
0.0
  0
ARC
  5
476F
  8
247
  6
CONTINUOUS
 10
4.1893915452521053
 20
-12.140916740950111
 30
0.0
 40
1.8021200658737691
 50
202.3594881415267
 51
254.9932485428466
  0
ARC
  5
4770
  8
247
  6
CONTINUOUS
 10
3.1694135606290081
 20
-12.6731393570224
 30
0.0
 40
0.7125379196582227
 50
94.994589319075104
 51
155.16632895730359
1001
GENIUS_GENOBJ-N-FIL_13
1002
{
1000
OWNER
1000
GEN
1002
}
1001
GENIUS_GENODEF_13
1002
{
1000
HIER
1070
     0
1002
}
1002
{
1000
MANEDIT
1070
     0
1002
}
1002
{
1000
NOSEL
1070
     0
1002
}
1002
{
1000
BEHIND
1070
     0
1002
}
1002
{
1000
OTHER
1070
     0
1002
}
1002
{
1000
REACTOR
1002
}
  0
ARC
  5
4771
  8
247
  6
CONTINUOUS
 10
3.8508801474076062
 20
-13.355050882621899
 30
0.0
 40
1.1142253884693689
 50
15.846096555779241
 51
82.325137004170543
  0
ARC
  5
4772
  8
247
  6
CONTINUOUS
 10
4.0901581816952266
 20
-12.88765395432411
 30
0.0
 40
1.0596509301362289
 50
249.71360167049809
 51
321.78874565640763
1001
GENIUS_GENOBJ-N-FIL_13
1002
{
1000
OWNER
1000
GEN
1002
}
1001
GENIUS_GENODEF_13
1002
{
1000
HIER
1070
     0
1002
}
1002
{
1000
MANEDIT
1070
     0
1002
}
1002
{
1000
NOSEL
1070
     0
1002
}
1002
{
1000
BEHIND
1070
     0
1002
}
1002
{
1000
OTHER
1070
     0
1002
}
1002
{
1000
REACTOR
1002
}
  0
LINE
  5
4773
  8
247
  6
CONTINUOUS
 10
3.9996865134493991
 20
-12.80465300465983
 30
0.0
 11
3.9996865134493991
 21
-12.25080685083582
 31
0.0
  0
LINE
  5
4774
  8
247
  6
CONTINUOUS
 10
2.5227634365853988
 20
-17.373883773707831
 30
0.0
 11
2.5227634365853988
 21
-16.835422235267831
 31
0.0
  0
ARC
  5
47CC
  8
240
  6
CONTINUOUS
 10
13.01177490060911
 20
37.595246063493562
 30
0.0
 40
0.2
 50
90.0
 51
135.0
1001
GENIUS_GENODEF_13
1002
{
1000
HIER
1070
     0
1002
}
1002
{
1000
MANEDIT
1070
     0
1002
}
1002
{
1000
NOSEL
1070
     0
1002
}
1002
{
1000
BEHIND
1070
     0
1002
}
1002
{
1000
OTHER
1070
     0
1002
}
1002
{
1000
REACTOR
1002
}
1001
GENIUS_GENOBJ-N-FIL_13
1002
{
1000
OWNER
1000
GEN
1002
}
  0
ARC
  5
47DC
  8
240
  6
CONTINUOUS
 10
14.26030303803299
 20
37.595246063493562
 30
0.0
 40
0.2
 50
45.000000000000448
 51
90.0
1001
GENIUS_GENODEF_13
1002
{
1000
HIER
1070
     0
1002
}
1002
{
1000
MANEDIT
1070
     0
1002
}
1002
{
1000
NOSEL
1070
     0
1002
}
1002
{
1000
BEHIND
1070
     0
1002
}
1002
{
1000
OTHER
1070
     0
1002
}
1002
{
1000
REACTOR
1002
}
1001
GENIUS_GENOBJ-N-FIL_13
1002
{
1000
OWNER
1000
GEN
1002
}
  0
ARC
  5
47F1
  8
240
  6
CONTINUOUS
 10
19.800000000000001
 20
32.055549101526637
 30
0.0
 40
0.2
 50
0.0
 51
45.000000000000448
1001
GENIUS_GENOBJ-N-FIL_13
1002
{
1000
OWNER
1000
GEN
1002
}
1001
GENIUS_GENODEF_13
1002
{
1000
HIER
1070
     0
1002
}
1002
{
1000
MANEDIT
1070
     0
1002
}
1002
{
1000
NOSEL
1070
     0
1002
}
1002
{
1000
BEHIND
1070
     0
1002
}
1002
{
1000
OTHER
1070
     0
1002
}
1002
{
1000
REACTOR
1002
}
  0
ARC
  5
4807
  8
240
  6
CONTINUOUS
 10
19.800000000000001
 20
30.80702096410279
 30
0.0
 40
0.2
 50
315.00000000000699
 51
0.0
1001
GENIUS_GENODEF_13
1002
{
1000
HIER
1070
     0
1002
}
1002
{
1000
MANEDIT
1070
     0
1002
}
1002
{
1000
NOSEL
1070
     0
1002
}
1002
{
1000
BEHIND
1070
     0
1002
}
1002
{
1000
OTHER
1070
     0
1002
}
1002
{
1000
REACTOR
1002
}
1001
GENIUS_GENOBJ-N-FIL_13
1002
{
1000
OWNER
1000
GEN
1002
}
  0
ARC
  5
4813
  8
240
  6
CONTINUOUS
 10
7.4720779386421023
 20
32.055549101526552
 30
0.0
 40
0.2
 50
135.0
 51
180.0
1001
GENIUS_GENODEF_13
1002
{
1000
HIER
1070
     0
1002
}
1002
{
1000
MANEDIT
1070
     0
1002
}
1002
{
1000
NOSEL
1070
     0
1002
}
1002
{
1000
BEHIND
1070
     0
1002
}
1002
{
1000
OTHER
1070
     0
1002
}
1002
{
1000
REACTOR
1002
}
1001
GENIUS_GENOBJ-N-FIL_13
1002
{
1000
OWNER
1000
GEN
1002
}
  0
ARC
  5
4814
  8
241
  6
CONTINUOUS
 10
7.4720779386421023
 20
30.80702096410268
 30
0.0
 40
0.2
 50
180.0
 51
225.0000000000081
1001
GENIUS_GENODEF_13
1002
{
1000
HIER
1070
     0
1002
}
1002
{
1000
MANEDIT
1070
     0
1002
}
1002
{
1000
NOSEL
1070
     0
1002
}
1002
{
1000
BEHIND
1070
     0
1002
}
1002
{
1000
OTHER
1070
     0
1002
}
1002
{
1000
REACTOR
1002
}
1001
GENIUS_GENOBJ-N-FIL_13
1002
{
1000
OWNER
1000
GEN
1002
}
  0
ARC
  5
4818
  8
241
  6
CONTINUOUS
 10
10.920561323037671
 20
35.368469468690321
 30
0.0
 40
6.1695502812569218
 50
213.09186290040211
 51
271.07248792037558
  0
ARC
  5
481A
  8
241
  6
CONTINUOUS
 10
15.76758120291119
 20
38.549463122007978
 30
0.0
 40
9.3667286125936862
 50
273.47936392360418
 51
293.72353048861532
  0
ARC
  5
481B
  8
241
  6
CONTINUOUS
 10
14.283960709442439
 20
27.431901400095001
 30
0.0
 40
0.2
 50
54.735610317246149
 51
100.7285831216097
1001
GENIUS_GENODEF_13
1002
{
1000
HIER
1070
     0
1002
}
1002
{
1000
MANEDIT
1070
     0
1002
}
1002
{
1000
NOSEL
1070
     0
1002
}
1002
{
1000
BEHIND
1070
     0
1002
}
1002
{
1000
OTHER
1070
     0
1002
}
1002
{
1000
REACTOR
1002
}
1001
GENIUS_GENOBJ-N-FIL_13
1002
{
1000
OWNER
1000
GEN
1002
}
  0
ARC
  5
481C
  8
241
  6
CONTINUOUS
 10
14.27957830146844
 20
25.464614616330561
 30
0.0
 40
0.2
 50
54.735610317245779
 51
90.0
1001
GENIUS_GENODEF_13
1002
{
1000
HIER
1070
     0
1002
}
1002
{
1000
MANEDIT
1070
     0
1002
}
1002
{
1000
NOSEL
1070
     0
1002
}
1002
{
1000
BEHIND
1070
     0
1002
}
1002
{
1000
OTHER
1070
     0
1002
}
1002
{
1000
REACTOR
1002
}
1001
GENIUS_GENOBJ-N-FIL_13
1002
{
1000
OWNER
1000
GEN
1002
}
  0
ARC
  5
481D
  8
241
  6
CONTINUOUS
 10
12.99249963717366
 20
25.464614616330561
 30
0.0
 40
0.2
 50
90.0
 51
125.2643896827542
1001
GENIUS_GENODEF_13
1002
{
1000
HIER
1070
     0
1002
}
1002
{
1000
MANEDIT
1070
     0
1002
}
1002
{
1000
NOSEL
1070
     0
1002
}
1002
{
1000
BEHIND
1070
     0
1002
}
1002
{
1000
OTHER
1070
     0
1002
}
1002
{
1000
REACTOR
1002
}
1001
GENIUS_GENOBJ-N-FIL_13
1002
{
1000
OWNER
1000
GEN
1002
}
  0
ARC
  5
481E
  8
241
  6
CONTINUOUS
 10
7.4720779386421023
 20
21.561086998289589
 30
0.0
 40
0.2
 50
125.2643896827542
 51
180.0
1001
GENIUS_GENODEF_13
1002
{
1000
HIER
1070
     0
1002
}
1002
{
1000
MANEDIT
1070
     0
1002
}
1002
{
1000
NOSEL
1070
     0
1002
}
1002
{
1000
BEHIND
1070
     0
1002
}
1002
{
1000
OTHER
1070
     0
1002
}
1002
{
1000
REACTOR
1002
}
1001
GENIUS_GENOBJ-N-FIL_13
1002
{
1000
OWNER
1000
GEN
1002
}
  0
ARC
  5
481F
  8
241
  6
CONTINUOUS
 10
7.4720779386421023
 20
20.76814223437156
 30
0.0
 40
0.2
 50
180.0
 51
234.73561031724631
1001
GENIUS_GENODEF_13
1002
{
1000
HIER
1070
     0
1002
}
1002
{
1000
MANEDIT
1070
     0
1002
}
1002
{
1000
NOSEL
1070
     0
1002
}
1002
{
1000
BEHIND
1070
     0
1002
}
1002
{
1000
OTHER
1070
     0
1002
}
1002
{
1000
REACTOR
1002
}
1001
GENIUS_GENOBJ-N-FIL_13
1002
{
1000
OWNER
1000
GEN
1002
}
  0
ARC
  5
4820
  8
241
  6
CONTINUOUS
 10
12.99249963717382
 20
16.864614616330549
 30
0.0
 40
0.2
 50
234.7356103172462
 51
270.0
1001
GENIUS_GENODEF_13
1002
{
1000
HIER
1070
     0
1002
}
1002
{
1000
MANEDIT
1070
     0
1002
}
1002
{
1000
NOSEL
1070
     0
1002
}
1002
{
1000
BEHIND
1070
     0
1002
}
1002
{
1000
OTHER
1070
     0
1002
}
1002
{
1000
REACTOR
1002
}
1001
GENIUS_GENOBJ-N-FIL_13
1002
{
1000
OWNER
1000
GEN
1002
}
  0
ARC
  5
4821
  8
241
  6
CONTINUOUS
 10
14.27957830146849
 20
16.864614616330549
 30
0.0
 40
0.2
 50
270.0
 51
305.26438968275448
1001
GENIUS_GENODEF_13
1002
{
1000
HIER
1070
     0
1002
}
1002
{
1000
MANEDIT
1070
     0
1002
}
1002
{
1000
NOSEL
1070
     0
1002
}
1002
{
1000
BEHIND
1070
     0
1002
}
1002
{
1000
OTHER
1070
     0
1002
}
1002
{
1000
REACTOR
1002
}
1001
GENIUS_GENOBJ-N-FIL_13
1002
{
1000
OWNER
1000
GEN
1002
}
  0
ARC
  5
4822
  8
240
  6
CONTINUOUS
 10
19.800000000000001
 20
20.76814223437156
 30
0.0
 40
0.2
 50
305.2643896827571
 51
0.0
1001
GENIUS_GENODEF_13
1002
{
1000
HIER
1070
     0
1002
}
1002
{
1000
MANEDIT
1070
     0
1002
}
1002
{
1000
NOSEL
1070
     0
1002
}
1002
{
1000
BEHIND
1070
     0
1002
}
1002
{
1000
OTHER
1070
     0
1002
}
1002
{
1000
REACTOR
1002
}
1001
GENIUS_GENOBJ-N-FIL_13
1002
{
1000
OWNER
1000
GEN
1002
}
  0
ARC
  5
4823
  8
241
  6
CONTINUOUS
 10
19.800000000000001
 20
21.561086998289589
 30
0.0
 40
0.2
 50
0.0
 51
54.735610317245779
1001
GENIUS_GENODEF_13
1002
{
1000
HIER
1070
     0
1002
}
1002
{
1000
MANEDIT
1070
     0
1002
}
1002
{
1000
NOSEL
1070
     0
1002
}
1002
{
1000
BEHIND
1070
     0
1002
}
1002
{
1000
OTHER
1070
     0
1002
}
1002
{
1000
REACTOR
1002
}
1001
GENIUS_GENOBJ-N-FIL_13
1002
{
1000
OWNER
1000
GEN
1002
}
  0
LINE
  5
4824
  8
240
  6
CONTINUOUS
 10
19.536038969321101
 20
23.174586027978531
 30
0.0
 11
19.893919916977381
 21
22.225274788110561
 31
0.0
  0
ARC
  5
4825
  8
241
  6
CONTINUOUS
 10
12.94460140786051
 20
26.261364184642549
 30
0.0
 40
0.05
 50
204.01411643137541
 51
317.0686108737064
1001
GENIUS_GENODEF_13
1002
{
1000
HIER
1070
     0
1002
}
1002
{
1000
MANEDIT
1070
     0
1002
}
1002
{
1000
NOSEL
1070
     0
1002
}
1002
{
1000
BEHIND
1070
     0
1002
}
1002
{
1000
OTHER
1070
     0
1002
}
1002
{
1000
REACTOR
1002
}
1001
GENIUS_GENOBJ-N-FIL_13
1002
{
1000
OWNER
1000
GEN
1002
}
  0
LINE
  5
4826
  8
241
  6
CONTINUOUS
 10
11.008045529071101
 20
14.943545764042559
 30
0.0
 11
5.7517351399030083
 21
18.825178160884061
 31
0.0
  0
LINE
  5
4827
  8
241
  6
CONTINUOUS
 10
16.464032409571089
 20
15.12875316964498
 30
0.0
 11
19.240316355771199
 21
17.131244798478889
 31
0.0
  0
ARC
  5
4828
  8
241
  6
CONTINUOUS
 10
13.614150138048871
 20
18.27117968782262
 30
0.0
 40
4.226017463735201
 50
236.9516912765952
 51
306.13995274735709
  0
ARC
  5
4829
  8
241
  6
CONTINUOUS
 10
14.822453139101979
 20
18.594778644171448
 30
0.0
 40
4.6539710698162491
 50
341.67118451196171
 51
19.053780124886089
  0
ARC
  5
482A
  8
241
  6
CONTINUOUS
 10
8.3341080281189157
 20
20.043939042582998
 30
0.0
 40
2.8555258395875391
 50
107.5683176627479
 51
205.26514901666309
  0
ARC
  5
482B
  8
241
  6
CONTINUOUS
 10
29.085782109105089
 20
24.192068949994169
 30
0.0
 40
23.943292687163218
 50
192.95290440654179
 51
206.38140324656101
  0
ARC
  5
4854
  8
241
  6
CONTINUOUS
 10
29.287868100770169
 20
19.637473491720229
 30
0.0
 40
22.490498438609102
 50
195.69612161119539
 51
215.75381186097081
  0
LINE
  5
4857
  8
241
  6
CONTINUOUS
 10
11.036038969321099
 20
6.49619298434708
 30
0.0
 11
13.03603896932278
 21
4.1229907859430588
 31
0.0
  0
LINE
  5
4858
  8
241
  6
CONTINUOUS
 10
16.23505574666283
 20
6.4961929843470729
 30
0.0
 11
14.23603896932079
 21
4.1229907859430588
 31
0.0
  0
ARC
  5
4859
  8
241
  6
CONTINUOUS
 10
-0.0419324077795803
 20
18.783187207907311
 30
0.0
 40
20.393885613822128
 50
322.95197540034582
 51
343.7382018811183
  0
ARC
  5
485A
  8
241
  6
CONTINUOUS
 10
12.9517663167463
 20
-0.5438316636737244
 30
0.0
 40
0.05
 50
191.855513163615
 51
330.0134222821481
1001
GENIUS_GENOBJ-N-FIL_13
1002
{
1000
OWNER
1000
GEN
1002
}
1001
GENIUS_GENODEF_13
1002
{
1000
HIER
1070
     0
1002
}
1002
{
1000
MANEDIT
1070
     0
1002
}
1002
{
1000
NOSEL
1070
     0
1002
}
1002
{
1000
BEHIND
1070
     0
1002
}
1002
{
1000
OTHER
1070
     0
1002
}
1002
{
1000
REACTOR
1002
}
  0
ARC
  5
485B
  8
241
  6
CONTINUOUS
 10
12.727184142427239
 20
6.1063129347670539
 30
0.0
 40
13.103549581680831
 50
237.8367925746239
 51
299.80508570935712
  0
ARC
  5
485C
  8
241
  6
CONTINUOUS
 10
8.2303506543866884
 20
-3.266234646593718
 30
0.0
 40
3.0169801404780312
 50
105.7434198276147
 51
214.75922731699231
  0
ARC
  5
485D
  8
241
  6
CONTINUOUS
 10
8.1747872986130012
 20
-3.1482338366635121
 30
0.0
 40
11.26596853391554
 50
349.17591975802378
 51
8.4126829532227259
  0
ARC
  5
485E
  8
241
  6
CONTINUOUS
 10
35.130645612811449
 20
1.088672828833213
 30
0.0
 40
30.000428479037559
 50
191.68297360048419
 51
203.5840993727123
  0
ARC
  5
4860
  8
241
  6
CONTINUOUS
 10
38.085497324430122
 20
-4.7205251495487497
 30
0.0
 40
31.073024558593929
 50
191.49783611643721
 51
209.48174224488841
  0
ARC
  5
4861
  8
241
  6
CONTINUOUS
 10
-6.9588027671567376
 20
-6.1190257822857568
 30
0.0
 40
27.033189774147459
 50
329.50942699295251
 51
348.54634966423612
  0
LINE
  5
4862
  8
241
  6
CONTINUOUS
 10
11.036038969321069
 20
-20.01299577774363
 30
0.0
 11
13.036038969322581
 21
-23.369210512980221
 31
0.0
  0
LINE
  5
4863
  8
241
  6
CONTINUOUS
 10
16.336038969321091
 20
-19.835574103110549
 30
0.0
 11
14.23603896932079
 21
-23.369210512980221
 31
0.0
  0
LINE
  5
4864
  8
241
  6
CONTINUOUS
 10
12.43384473482161
 20
-24.909041750186901
 30
0.0
 11
13.014605092677369
 21
-25.208873371445961
 31
0.0
  0
ARC
  5
4865
  8
241
  6
CONTINUOUS
 10
12.95442476990792
 20
-27.017528667921201
 30
0.0
 40
0.05
 50
192.54961425997701
 51
323.98984192030917
1001
GENIUS_GENODEF_13
1002
{
1000
HIER
1070
     0
1002
}
1002
{
1000
MANEDIT
1070
     0
1002
}
1002
{
1000
NOSEL
1070
     0
1002
}
1002
{
1000
BEHIND
1070
     0
1002
}
1002
{
1000
OTHER
1070
     0
1002
}
1002
{
1000
REACTOR
1002
}
1001
GENIUS_GENOBJ-N-FIL_13
1002
{
1000
OWNER
1000
GEN
1002
}
  0
ARC
  5
4866
  8
241
  6
CONTINUOUS
 10
19.824738715575592
 20
-22.984228871833611
 30
0.0
 40
0.05
 50
210.84660110191101
 51
6.2833799149615954
1001
GENIUS_GENOBJ-N-FIL_13
1002
{
1000
OWNER
1000
GEN
1002
}
1001
GENIUS_GENODEF_13
1002
{
1000
HIER
1070
     0
1002
}
1002
{
1000
MANEDIT
1070
     0
1002
}
1002
{
1000
NOSEL
1070
     0
1002
}
1002
{
1000
BEHIND
1070
     0
1002
}
1002
{
1000
OTHER
1070
     0
1002
}
1002
{
1000
REACTOR
1002
}
  0
ARC
  5
4867
  8
241
  6
CONTINUOUS
 10
13.106354055317411
 20
-25.031159759546149
 30
0.0
 40
0.2
 50
242.69385779029309
 51
270.0
1001
GENIUS_GENOBJ-N-FIL_13
1002
{
1000
OWNER
1000
GEN
1002
}
1001
GENIUS_GENODEF_13
1002
{
1000
HIER
1070
     0
1002
}
1002
{
1000
MANEDIT
1070
     0
1002
}
1002
{
1000
NOSEL
1070
     0
1002
}
1002
{
1000
BEHIND
1070
     0
1002
}
1002
{
1000
OTHER
1070
     0
1002
}
1002
{
1000
REACTOR
1002
}
  0
ARC
  5
4868
  8
241
  6
CONTINUOUS
 10
14.319122097260941
 20
-25.031159759546149
 30
0.0
 40
0.2
 50
270.0
 51
305.26438968275471
1001
GENIUS_GENODEF_13
1002
{
1000
HIER
1070
     0
1002
}
1002
{
1000
MANEDIT
1070
     0
1002
}
1002
{
1000
NOSEL
1070
     0
1002
}
1002
{
1000
BEHIND
1070
     0
1002
}
1002
{
1000
OTHER
1070
     0
1002
}
1002
{
1000
REACTOR
1002
}
1001
GENIUS_GENOBJ-N-FIL_13
1002
{
1000
OWNER
1000
GEN
1002
}
  0
ARC
  5
4869
  8
241
  6
CONTINUOUS
 10
14.27957830146844
 20
-27.58593495989054
 30
0.0
 40
0.2
 50
270.0
 51
305.26438968275431
1001
GENIUS_GENODEF_13
1002
{
1000
HIER
1070
     0
1002
}
1002
{
1000
MANEDIT
1070
     0
1002
}
1002
{
1000
NOSEL
1070
     0
1002
}
1002
{
1000
BEHIND
1070
     0
1002
}
1002
{
1000
OTHER
1070
     0
1002
}
1002
{
1000
REACTOR
1002
}
1001
GENIUS_GENOBJ-N-FIL_13
1002
{
1000
OWNER
1000
GEN
1002
}
  0
ARC
  5
486A
  8
241
  6
CONTINUOUS
 10
12.99249963717366
 20
-27.58593495989054
 30
0.0
 40
0.2
 50
234.73561031724489
 51
270.0
1001
GENIUS_GENODEF_13
1002
{
1000
HIER
1070
     0
1002
}
1002
{
1000
MANEDIT
1070
     0
1002
}
1002
{
1000
NOSEL
1070
     0
1002
}
1002
{
1000
BEHIND
1070
     0
1002
}
1002
{
1000
OTHER
1070
     0
1002
}
1002
{
1000
REACTOR
1002
}
1001
GENIUS_GENOBJ-N-FIL_13
1002
{
1000
OWNER
1000
GEN
1002
}
  0
ARC
  5
486B
  8
241
  6
CONTINUOUS
 10
7.4720779386421006
 20
-23.682407341849451
 30
0.0
 40
0.2
 50
180.0
 51
234.73561031724489
1001
GENIUS_GENODEF_13
1002
{
1000
HIER
1070
     0
1002
}
1002
{
1000
MANEDIT
1070
     0
1002
}
1002
{
1000
NOSEL
1070
     0
1002
}
1002
{
1000
BEHIND
1070
     0
1002
}
1002
{
1000
OTHER
1070
     0
1002
}
1002
{
1000
REACTOR
1002
}
1001
GENIUS_GENOBJ-N-FIL_13
1002
{
1000
OWNER
1000
GEN
1002
}
  0
ARC
  5
486C
  8
241
  6
CONTINUOUS
 10
7.8360389693210948
 20
-21.412953140544509
 30
0.0
 40
0.2
 50
180.0
 51
234.73561031724489
1001
GENIUS_GENODEF_13
1002
{
1000
HIER
1070
     0
1002
}
1002
{
1000
MANEDIT
1070
     0
1002
}
1002
{
1000
NOSEL
1070
     0
1002
}
1002
{
1000
BEHIND
1070
     0
1002
}
1002
{
1000
OTHER
1070
     0
1002
}
1002
{
1000
REACTOR
1002
}
1001
GENIUS_GENOBJ-N-FIL_13
1002
{
1000
OWNER
1000
GEN
1002
}
  0
ARC
  5
486D
  8
240
  6
CONTINUOUS
 10
19.800000000000001
 20
-23.68240734184954
 30
0.0
 40
0.2
 50
305.2643896827571
 51
0.0
1001
GENIUS_GENODEF_13
1002
{
1000
HIER
1070
     0
1002
}
1002
{
1000
MANEDIT
1070
     0
1002
}
1002
{
1000
NOSEL
1070
     0
1002
}
1002
{
1000
BEHIND
1070
     0
1002
}
1002
{
1000
OTHER
1070
     0
1002
}
1002
{
1000
REACTOR
1002
}
1001
GENIUS_GENOBJ-N-FIL_13
1002
{
1000
OWNER
1000
GEN
1002
}
  0
LINE
  5
486E
  8
240
  6
CONTINUOUS
 10
19.60760006927779
 20
-20.57811839063131
 30
0.0
 11
19.536038969321101
 21
-20.336544625331051
 31
0.0
  0
ARC
  5
4870
  8
241
  6
CONTINUOUS
 10
34.986075635448699
 20
-16.884818125531758
 30
0.0
 40
29.908469449901411
 50
203.87113902858229
 51
216.79556433681529
  0
ARC
  5
4871
  8
241
  6
CONTINUOUS
 10
6.198237461453588
 20
-25.742132759202971
 30
0.0
 40
13.51082237132327
 50
318.62042242520442
 51
350.82067946016019
  0
ARC
  5
489A
  8
241
  6
CONTINUOUS
 10
13.90627810282612
 20
-23.064530023350208
 30
0.0
 40
8.6258829119701463
 50
199.02832977813139
 51
223.3720435873897
  0
ARC
  5
489B
  8
241
  6
CONTINUOUS
 10
8.1104096256861489
 20
-24.987932377644139
 30
0.0
 40
2.5206278129651181
 50
144.99731149072821
 51
200.6505403436602
  0
ARC
  5
489C
  8
240
  6
CONTINUOUS
 10
13.011774900609129
 20
-37.595246063493619
 30
0.0
 40
0.2
 50
225.0
 51
270.0
1001
GENIUS_GENODEF_13
1002
{
1000
HIER
1070
     0
1002
}
1002
{
1000
MANEDIT
1070
     0
1002
}
1002
{
1000
NOSEL
1070
     0
1002
}
1002
{
1000
BEHIND
1070
     0
1002
}
1002
{
1000
OTHER
1070
     0
1002
}
1002
{
1000
REACTOR
1002
}
1001
GENIUS_GENOBJ-N-FIL_13
1002
{
1000
OWNER
1000
GEN
1002
}
  0
ARC
  5
48AF
  8
240
  6
CONTINUOUS
 10
14.26030303803301
 20
-37.595246063493619
 30
0.0
 40
0.2
 50
270.0
 51
314.99999999999989
1001
GENIUS_GENOBJ-N-FIL_13
1002
{
1000
OWNER
1000
GEN
1002
}
1001
GENIUS_GENODEF_13
1002
{
1000
HIER
1070
     0
1002
}
1002
{
1000
MANEDIT
1070
     0
1002
}
1002
{
1000
NOSEL
1070
     0
1002
}
1002
{
1000
BEHIND
1070
     0
1002
}
1002
{
1000
OTHER
1070
     0
1002
}
1002
{
1000
REACTOR
1002
}
  0
ARC
  5
48B0
  8
240
  6
CONTINUOUS
 10
19.800000000000001
 20
-30.807020964102811
 30
0.0
 40
0.2
 50
0.0
 51
44.999999999996987
1001
GENIUS_GENOBJ-N-FIL_13
1002
{
1000
OWNER
1000
GEN
1002
}
1001
GENIUS_GENODEF_13
1002
{
1000
HIER
1070
     0
1002
}
1002
{
1000
MANEDIT
1070
     0
1002
}
1002
{
1000
NOSEL
1070
     0
1002
}
1002
{
1000
BEHIND
1070
     0
1002
}
1002
{
1000
OTHER
1070
     0
1002
}
1002
{
1000
REACTOR
1002
}
  0
ARC
  5
48B1
  8
240
  6
CONTINUOUS
 10
19.800000000000001
 20
-32.055549101526651
 30
0.0
 40
0.2
 50
314.99999999999989
 51
0.0
1001
GENIUS_GENOBJ-N-FIL_13
1002
{
1000
OWNER
1000
GEN
1002
}
1001
GENIUS_GENODEF_13
1002
{
1000
HIER
1070
     0
1002
}
1002
{
1000
MANEDIT
1070
     0
1002
}
1002
{
1000
NOSEL
1070
     0
1002
}
1002
{
1000
BEHIND
1070
     0
1002
}
1002
{
1000
OTHER
1070
     0
1002
}
1002
{
1000
REACTOR
1002
}
  0
LINE
  5
48B6
  8
241
  6
CONTINUOUS
 10
12.977437210250841
 20
-37.303587258129781
 30
0.0
 11
7.9289114344436937
 21
-32.249174911505051
 31
0.0
  0
LINE
  5
48B7
  8
241
  6
CONTINUOUS
 10
14.29483495160232
 20
-37.30338333442154
 30
0.0
 11
18.9531102271355
 21
-32.626224850328562
 31
0.0
  0
LINE
  5
48BA
  8
241
  6
CONTINUOUS
 10
11.03603896932106
 20
-34.798843036947609
 30
0.0
 11
12.97338137885693
 21
-37.100826863064562
 31
0.0
  0
LINE
  5
48BB
  8
241
  6
CONTINUOUS
 10
16.336038969321098
 20
-34.673386967685033
 30
0.0
 11
14.29885862474773
 21
-37.100620877396807
 31
0.0
  0
ARC
  5
48BC
  8
241
  6
CONTINUOUS
 10
14.14566494252594
 20
-36.972045235351629
 30
0.0
 40
0.2
 50
270.0
 51
319.99322325722289
1001
GENIUS_GENOBJ-N-FIL_13
1002
{
1000
OWNER
1000
GEN
1002
}
1001
GENIUS_GENODEF_13
1002
{
1000
HIER
1070
     0
1002
}
1002
{
1000
MANEDIT
1070
     0
1002
}
1002
{
1000
NOSEL
1070
     0
1002
}
1002
{
1000
BEHIND
1070
     0
1002
}
1002
{
1000
OTHER
1070
     0
1002
}
1002
{
1000
REACTOR
1002
}
  0
ARC
  5
48BD
  8
241
  6
CONTINUOUS
 10
14.15312782582088
 20
-37.162248326352092
 30
0.0
 40
0.2
 50
270.0
 51
315.1158946339757
1001
GENIUS_GENODEF_13
1002
{
1000
HIER
1070
     0
1002
}
1002
{
1000
MANEDIT
1070
     0
1002
}
1002
{
1000
NOSEL
1070
     0
1002
}
1002
{
1000
BEHIND
1070
     0
1002
}
1002
{
1000
OTHER
1070
     0
1002
}
1002
{
1000
REACTOR
1002
}
1001
GENIUS_GENOBJ-N-FIL_13
1002
{
1000
OWNER
1000
GEN
1002
}
  0
ARC
  5
48BE
  8
241
  6
CONTINUOUS
 10
13.12640194075502
 20
-36.972045235351629
 30
0.0
 40
0.2
 50
220.08386073118419
 51
270.0
1001
GENIUS_GENODEF_13
1002
{
1000
HIER
1070
     0
1002
}
1002
{
1000
MANEDIT
1070
     0
1002
}
1002
{
1000
NOSEL
1070
     0
1002
}
1002
{
1000
BEHIND
1070
     0
1002
}
1002
{
1000
OTHER
1070
     0
1002
}
1002
{
1000
REACTOR
1002
}
1001
GENIUS_GENOBJ-N-FIL_13
1002
{
1000
OWNER
1000
GEN
1002
}
  0
ARC
  5
48BF
  8
241
  6
CONTINUOUS
 10
13.118940942936391
 20
-37.162248326352092
 30
0.0
 40
0.2
 50
224.96661608520239
 51
270.0
1001
GENIUS_GENODEF_13
1002
{
1000
HIER
1070
     0
1002
}
1002
{
1000
MANEDIT
1070
     0
1002
}
1002
{
1000
NOSEL
1070
     0
1002
}
1002
{
1000
BEHIND
1070
     0
1002
}
1002
{
1000
OTHER
1070
     0
1002
}
1002
{
1000
REACTOR
1002
}
1001
GENIUS_GENOBJ-N-FIL_13
1002
{
1000
OWNER
1000
GEN
1002
}
  0
ARC
  5
48C1
  8
241
  6
CONTINUOUS
 10
17.536038969321101
 20
-31.214874769634079
 30
0.0
 40
2.0
 50
315.1158946339757
 51
0.0
1001
GENIUS_GENODEF_13
1002
{
1000
HIER
1070
     0
1002
}
1002
{
1000
MANEDIT
1070
     0
1002
}
1002
{
1000
NOSEL
1070
     0
1002
}
1002
{
1000
BEHIND
1070
     0
1002
}
1002
{
1000
OTHER
1070
     0
1002
}
1002
{
1000
REACTOR
1002
}
1001
GENIUS_GENOBJ-N-FIL_13
1002
{
1000
OWNER
1000
GEN
1002
}
  0
ARC
  5
48C4
  8
241
  6
CONTINUOUS
 10
7.2213927710159727
 20
-32.955869570393489
 30
0.0
 40
1.0
 50
44.966616085202382
 51
90.0
1001
GENIUS_GENODEF_13
1002
{
1000
HIER
1070
     0
1002
}
1002
{
1000
MANEDIT
1070
     0
1002
}
1002
{
1000
NOSEL
1070
     0
1002
}
1002
{
1000
BEHIND
1070
     0
1002
}
1002
{
1000
OTHER
1070
     0
1002
}
1002
{
1000
REACTOR
1002
}
1001
GENIUS_GENOBJ-N-FIL_13
1002
{
1000
OWNER
1000
GEN
1002
}
  0
LINE
  5
48C6
  8
240
  6
CONTINUOUS
 10
7.3305564225325979
 20
-32.196870297891692
 30
0.0
 11
7.2213927710159727
 21
-31.955869570393489
 31
0.0
  0
LINE
  5
48C7
  8
240
  6
CONTINUOUS
 10
6.2477884222523867
 20
31.95586957039346
 30
0.0
 11
6.1818476720383053
 21
31.999999999999989
 31
0.0
  0
LINE
  5
48C9
  8
240
  6
CONTINUOUS
 10
6.2477884222523308
 20
-31.955869570393489
 30
0.0
 11
6.1818476720382698
 21
-32.0
 31
0.0
  0
LINE
  5
4B1F
  8
250
  6
CONTINUOUS
 10
20.138391814001299
 20
32.499999999999993
 30
0.0
 11
36.036038969321098
 21
32.499999999999993
 31
0.0
  0
LINE
  5
4B20
  8
250
  6
CONTINUOUS
 10
35.036038969321091
 20
-7.0000000000000027
 30
0.0
 11
35.036038969321098
 21
30.269999999999989
 31
0.0
  0
LINE
  5
4B23
  8
250
  6
CONTINUOUS
 10
15.138391814001199
 20
37.499999999999993
 30
0.0
 11
43.036038969321091
 21
37.499999999999979
 31
0.0
  0
LINE
  5
4B24
  8
250
  6
CONTINUOUS
 10
42.036038969321091
 20
-7.0000000000000062
 30
0.0
 11
42.036038969321098
 21
35.269999999999982
 31
0.0
  0
LINE
  5
4B27
  8
250
  6
CONTINUOUS
 10
14.76074757675261
 20
-37.795246063493643
 30
0.0
 11
50.036038969321091
 21
-37.795246063493657
 31
0.0
  0
LINE
  5
4B28
  8
250
  6
CONTINUOUS
 10
14.76030303803299
 20
37.795246063493572
 30
0.0
 11
50.036038969321091
 21
37.795246063493551
 31
0.0
  0
LINE
  5
4B29
  8
250
  6
CONTINUOUS
 10
49.036038969321083
 20
-35.56524606349366
 30
0.0
 11
49.036038969321098
 21
35.565246063493561
 31
0.0
  0
LINE
  5
4B2D
  8
250
  6
CONTINUOUS
 10
0.0
 20
31.499999999999989
 30
0.0
 11
0.0000000000000016
 21
57.0
 31
0.0
  0
LINE
  5
4B2E
  8
250
  6
CONTINUOUS
 10
20.0
 20
32.555549101526637
 30
0.0
 11
20.0
 21
57.0
 31
0.0
  0
LINE
  5
4B2F
  8
250
  6
CONTINUOUS
 10
2.2300000000000009
 20
56.0
 30
0.0
 11
17.77
 21
56.0
 31
0.0
  0
LINE
  5
4B33
  8
250
  6
CONTINUOUS
 10
20.0
 20
32.638391814001253
 30
0.0
 11
20.000000000000011
 21
51.023655630719091
 31
0.0
  0
LINE
  5
4B34
  8
250
  6
CONTINUOUS
 10
14.04817100367702
 20
38.090220810324148
 30
0.0
 11
6.6461018907017619
 21
45.492289923299261
 31
0.0
  0
ARC
  5
4B35
  8
250
  6
CONTINUOUS
 10
20.0
 20
32.138391814001253
 30
0.0
 40
17.885263816717838
 50
97.148482545514483
 51
127.851517454486
  0
TEXT
  5
4B39
  8
250
  6
CONTINUOUS
 10
7.333333333333333
 20
57.0
 30
0.0
 40
2.7999999999999989
  1
20
  0
LINE
  5
4B3A
  8
250
  6
CONTINUOUS
 10
17.77
 20
56.37166666666667
 30
0.0
 11
20.0
 21
56.0
 31
0.0
  0
LINE
  5
4B3B
  8
250
  6
CONTINUOUS
 10
17.77
 20
55.62833333333333
 30
0.0
 11
20.0
 21
56.0
 31
0.0
  0
LINE
  5
4B3C
  8
250
  6
CONTINUOUS
 10
20.0
 20
56.0
 30
0.0
 11
17.77
 21
56.0
 31
0.0
  0
LINE
  5
4B3D
  8
250
  6
CONTINUOUS
 10
2.2300000000000009
 20
55.62833333333333
 30
0.0
 11
0.0000000000000015
 21
56.0
 31
0.0
  0
LINE
  5
4B3E
  8
250
  6
CONTINUOUS
 10
2.2300000000000009
 20
56.37166666666667
 30
0.0
 11
0.0000000000000015
 21
56.0
 31
0.0
  0
LINE
  5
4B3F
  8
250
  6
CONTINUOUS
 10
0.0000000000000015
 20
56.0
 30
0.0
 11
2.2300000000000009
 21
56.0
 31
0.0
  0
TEXT
  5
4B40
  8
250
  6
CONTINUOUS
 10
9.8165079174619958
 20
48.361513536774517
 30
0.0
 40
2.7999999999999989
  1
45\U+00B0
 50
22.500000000000242
  0
LINE
  5
4B41
  8
250
  6
CONTINUOUS
 10
9.2712060782778405
 20
45.981979724742438
 30
0.0
 11
7.3532086718883187
 21
44.785183142112729
 31
0.0
  0
LINE
  5
4B42
  8
250
  6
CONTINUOUS
 10
8.7793802997822805
 20
46.539341230456358
 30
0.0
 11
7.3532086718883187
 21
44.785183142112729
 31
0.0
  0
LINE
  5
4B43
  8
250
  6
CONTINUOUS
 10
7.3532086718883187
 20
44.785183142112729
 30
0.0
 11
9.0252931890300605
 21
46.260660477599401
 31
0.0
  0
LINE
  5
4B44
  8
250
  6
CONTINUOUS
 10
17.751167291239309
 20
50.255577081040421
 30
0.0
 11
20.000000000000011
 21
50.023655630719098
 31
0.0
  0
LINE
  5
4B45
  8
250
  6
CONTINUOUS
 10
17.797508048365408
 20
49.513689637641207
 30
0.0
 11
20.000000000000011
 21
50.023655630719098
 31
0.0
  0
LINE
  5
4B46
  8
250
  6
CONTINUOUS
 10
20.000000000000011
 20
50.023655630719098
 30
0.0
 11
17.77433766980236
 21
49.88463335934081
 31
0.0
  0
TEXT
  5
4B47
  8
250
  6
CONTINUOUS
 10
34.036038969321091
 20
-4.6650000000000018
 30
0.0
 40
2.7999999999999989
  1
\U+220565
 50
90.0
  0
LINE
  5
4B48
  8
250
  6
CONTINUOUS
 10
34.664372302654428
 20
30.269999999999989
 30
0.0
 11
35.036038969321098
 21
32.499999999999993
 31
0.0
  0
LINE
  5
4B49
  8
250
  6
CONTINUOUS
 10
35.407705635987767
 20
30.269999999999989
 30
0.0
 11
35.036038969321098
 21
32.499999999999993
 31
0.0
  0
LINE
  5
4B4A
  8
250
  6
CONTINUOUS
 10
35.036038969321098
 20
32.499999999999993
 30
0.0
 11
35.036038969321098
 21
30.269999999999989
 31
0.0
  0
TEXT
  5
4B4B
  8
250
  6
CONTINUOUS
 10
41.036038969321091
 20
-2.7650000000000068
 30
0.0
 40
2.7999999999999989
  1
\U+220575
 50
90.0
  0
LINE
  5
4B4C
  8
250
  6
CONTINUOUS
 10
41.664372302654428
 20
35.269999999999982
 30
0.0
 11
42.036038969321098
 21
37.499999999999979
 31
0.0
  0
LINE
  5
4B4D
  8
250
  6
CONTINUOUS
 10
42.40770563598776
 20
35.269999999999982
 30
0.0
 11
42.036038969321098
 21
37.499999999999979
 31
0.0
  0
LINE
  5
4B4E
  8
250
  6
CONTINUOUS
 10
42.036038969321098
 20
37.499999999999979
 30
0.0
 11
42.036038969321098
 21
35.269999999999982
 31
0.0
  0
TEXT
  5
4B4F
  8
250
  6
CONTINUOUS
 10
48.036038969321091
 20
-5.9333333333333744
 30
0.0
 40
2.7999999999999989
  1
\U+220575.7
 50
90.0
  0
LINE
  5
4B50
  8
250
  6
CONTINUOUS
 10
48.664372302654428
 20
35.565246063493561
 30
0.0
 11
49.036038969321098
 21
37.795246063493551
 31
0.0
  0
LINE
  5
4B51
  8
250
  6
CONTINUOUS
 10
49.407705635987767
 20
35.565246063493561
 30
0.0
 11
49.036038969321098
 21
37.795246063493551
 31
0.0
  0
LINE
  5
4B52
  8
250
  6
CONTINUOUS
 10
49.036038969321098
 20
37.795246063493551
 30
0.0
 11
49.036038969321098
 21
35.565246063493561
 31
0.0
  0
LINE
  5
4B53
  8
250
  6
CONTINUOUS
 10
49.407705635987753
 20
-35.56524606349366
 30
0.0
 11
49.036038969321083
 21
-37.795246063493657
 31
0.0
  0
LINE
  5
4B54
  8
250
  6
CONTINUOUS
 10
48.664372302654407
 20
-35.56524606349366
 30
0.0
 11
49.036038969321083
 21
-37.795246063493657
 31
0.0
  0
LINE
  5
4B55
  8
250
  6
CONTINUOUS
 10
49.036038969321083
 20
-37.795246063493657
 30
0.0
 11
49.036038969321083
 21
-35.56524606349366
 31
0.0
  0
LINE
  5
4B56
  8
250
  6
CONTINUOUS
 10
12.133241585921381
 20
37.499999999999993
 30
0.0
 11
-64.0
 21
37.499999999999957
 31
0.0
  0
LINE
  5
4B57
  8
250
  6
CONTINUOUS
 10
-62.999999999999993
 20
-7.0000000000000018
 30
0.0
 11
-63.0
 21
35.269999999999982
 31
0.0
  0
LINE
  5
4B58
  8
250
  6
CONTINUOUS
 10
-62.62833333333333
 20
35.269999999999982
 30
0.0
 11
-63.0
 21
37.499999999999993
 31
0.0
  0
LINE
  5
4B59
  8
250
  6
CONTINUOUS
 10
-63.37166666666667
 20
35.269999999999982
 30
0.0
 11
-63.0
 21
37.499999999999993
 31
0.0
  0
LINE
  5
4B5A
  8
250
  6
CONTINUOUS
 10
-63.0
 20
37.499999999999993
 30
0.0
 11
-63.0
 21
35.269999999999982
 31
0.0
  0
LINE
  5
4B5B
  8
250
  6
CONTINUOUS
 10
7.1332415859212857
 20
32.499999999999993
 30
0.0
 11
-57.0
 21
32.499999999999993
 31
0.0
  0
LINE
  5
4B5C
  8
250
  6
CONTINUOUS
 10
-55.999999999999993
 20
-7.0
 30
0.0
 11
-56.0
 21
30.269999999999989
 31
0.0
  0
LINE
  5
4B5D
  8
250
  6
CONTINUOUS
 10
-55.62833333333333
 20
30.269999999999989
 30
0.0
 11
-56.0
 21
32.499999999999993
 31
0.0
  0
LINE
  5
4B5E
  8
250
  6
CONTINUOUS
 10
-56.37166666666667
 20
30.269999999999989
 30
0.0
 11
-56.0
 21
32.499999999999993
 31
0.0
  0
LINE
  5
4B5F
  8
250
  6
CONTINUOUS
 10
-56.0
 20
32.499999999999993
 30
0.0
 11
-56.0
 21
30.269999999999989
 31
0.0
  0
TEXT
  5
4BDB
  8
250
  6
CONTINUOUS
 10
-64.0
 20
-2.765000000000005
 30
0.0
 40
2.7999999999999989
  1
\U+220575
 50
90.0
  0
TEXT
  5
4BDC
  8
250
  6
CONTINUOUS
 10
-56.999999999999993
 20
-4.0729655674180458
 30
0.0
 40
2.7999999999999989
  1
\U+220565
 50
90.0
  0
LINE
  5
4BDD
  8
250
  6
CONTINUOUS
 10
0.5
 20
31.999999999999989
 30
0.0
 11
-49.999999999999929
 21
32.0
 31
0.0
  0
LINE
  5
4BDE
  8
250
 10
0.5
 20
-32.0
 30
0.0
 11
-49.99999999999995
 21
-31.999999999999989
 31
0.0
  0
LINE
  5
4BDF
  8
250
  6
CONTINUOUS
 10
-48.999999999999943
 20
29.77
 30
0.0
 11
-48.99999999999995
 21
-29.769999999999978
 31
0.0
  0
INSERT
  5
4BE2
  8
240
  2
*U6
 10
0.0
 20
0.0
 30
0.0
  0
LINE
  5
4BE3
  8
250
  6
BYBLOCK
 10
-48.628333333333281
 20
-29.769999999999978
 30
0.0
 11
-48.99999999999995
 21
-31.999999999999989
 31
0.0
  0
LINE
  5
4BE4
  8
250
  6
BYBLOCK
 10
-49.37166666666662
 20
-29.769999999999978
 30
0.0
 11
-48.99999999999995
 21
-31.999999999999989
 31
0.0
  0
LINE
  5
4BE5
  8
250
  6
BYBLOCK
 10
-48.99999999999995
 20
-31.999999999999989
 30
0.0
 11
-48.99999999999995
 21
-29.769999999999978
 31
0.0
  0
LINE
  5
4C0E
  8
250
  6
CONTINUOUS
 10
-49.371666666666599
 20
29.77
 30
0.0
 11
-48.999999999999943
 21
32.0
 31
0.0
  0
LINE
  5
4C0F
  8
250
  6
CONTINUOUS
 10
-48.628333333333273
 20
29.77
 30
0.0
 11
-48.999999999999943
 21
32.0
 31
0.0
  0
LINE
  5
4C10
  8
250
  6
CONTINUOUS
 10
-48.999999999999943
 20
32.0
 30
0.0
 11
-48.999999999999943
 21
29.77
 31
0.0
  0
VIEWPORT
  5
22
 67
     1
  8
0
 10
261.51769911504419
 20
148.5
 30
0.0
 40
523.0353982300885
 41
297.0
 68
     1
 69
     1
1001
ACAD
1000
MVIEW
1002
{
1070
    16
1010
0.0
1020
0.0
1030
0.0
1010
0.0
1020
0.0
1030
1.0
1040
0.0
1040
297.0
1040
261.51769911504419
1040
148.5
1040
50.0
1040
0.0
1040
0.0
1070
     0
1070
   100
1070
     1
1070
     1
1070
     0
1070
     0
1070
     0
1070
     0
1040
0.0
1040
0.0
1040
0.0
1040
1.0
1040
1.0
1040
10.0
1040
10.0
1070
     0
1002
{
1002
}
1002
}
1001
GENIUS_GENODEF_13
1002
{
1000
HIER
1070
     0
1002
}
1002
{
1000
MANEDIT
1070
     0
1002
}
1002
{
1000
NOSEL
1070
     0
1002
}
1002
{
1000
BEHIND
1070
     0
1002
}
1002
{
1000
OTHER
1070
     0
1002
}
1002
{
1000
REACTOR
1002
}
1001
GENIUS_GENOBJ-N-SDF_13
1002
{
1000
OWNER
1000
GEN
1002
}
1001
GENIUS_GENSCREG_15
1000
PF
1040
1.0
1000
DF
1040
1.0
1000
MIN
1011
0.0
1021
0.0
1031
0.0
1021
0.0
1031
0.0
1000
MAX
1011
523.0353982300885
1021
0.0
1031
0.0
1021
297.0
1031
0.0
1000
FLAGS
1070
     4
  0
ENDSEC
  0
EOF
