  0
SECTION
  2
HEADER
  9
$ACADVER
  1
AC1009
  9
$INSBASE
 10
0.0
 20
0.0
 30
0.0
  9
$EXTMIN
 10
-35.3897462000000118
 20
-25.0
 30
0.0
  9
$EXTMAX
 10
166.5569147512946984
 20
61.0000000000000071
 30
0.0
  9
$LIMMIN
 10
0.0
 20
0.0
  9
$LIMMAX
 10
297.0
 20
210.0
  9
$ORTHOMODE
 70
     0
  9
$REGENMODE
 70
     1
  9
$FILLMODE
 70
     1
  9
$QTEXTMODE
 70
     0
  9
$MIRRTEXT
 70
     1
  9
$DRAGMODE
 70
     2
  9
$LTSCALE
 40
10.0
  9
$OSMODE
 70
   807
  9
$ATTMODE
 70
     1
  9
$TEXTSIZE
 40
3.0
  9
$TRACEWID
 40
1.0
  9
$TEXTSTYLE
  7
YOKO
  9
$CLAYER
  8
240
  9
$CELTYPE
  6
BYLAYER
  9
$CECOLOR
 62
   256
  9
$DIMSCALE
 40
1.0
  9
$DIMASZ
 40
2.2299999999999991
  9
$DIMEXO
 40
0.5
  9
$DIMDLI
 40
7.0
  9
$DIMRND
 40
0.0
  9
$DIMDLE
 40
0.0
  9
$DIMEXE
 40
1.0
  9
$DIMTP
 40
0.0
  9
$DIMTM
 40
0.01
  9
$DIMTXT
 40
2.799999999999998
  9
$DIMCEN
 40
0.0
  9
$DIMTSZ
 40
0.0
  9
$DIMTOL
 70
     0
  9
$DIMLIM
 70
     0
  9
$DIMTIH
 70
     0
  9
$DIMTOH
 70
     0
  9
$DIMSE1
 70
     0
  9
$DIMSE2
 70
     0
  9
$DIMTAD
 70
     3
  9
$DIMZIN
 70
     9
  9
$DIMBLK
  1
OPEN
  9
$DIMASO
 70
     1
  9
$DIMSHO
 70
     1
  9
$DIMPOST
  1

  9
$DIMAPOST
  1

  9
$DIMALT
 70
     0
  9
$DIMALTD
 70
     2
  9
$DIMALTF
 40
25.3999999999999986
  9
$DIMLFAC
 40
1.0
  9
$DIMTOFL
 70
     1
  9
$DIMTVP
 40
0.0
  9
$DIMTIX
 70
     1
  9
$DIMSOXD
 70
     0
  9
$DIMSAH
 70
     0
  9
$DIMBLK1
  1

  9
$DIMBLK2
  1

  9
$DIMSTYLE
  2
BIGT
  9
$DIMCLRD
 70
   256
  9
$DIMCLRE
 70
   256
  9
$DIMCLRT
 70
    40
  9
$DIMTFAC
 40
1.0
  9
$DIMGAP
 40
1.0
  9
$LUNITS
 70
     2
  9
$LUPREC
 70
     6
  9
$SKETCHINC
 40
1.0
  9
$FILLETRAD
 40
0.0
  9
$AUNITS
 70
     0
  9
$AUPREC
 70
     6
  9
$MENU
  1
.
  9
$ELEVATION
 40
0.0
  9
$PELEVATION
 40
0.0
  9
$THICKNESS
 40
0.0
  9
$LIMCHECK
 70
     0
  9
$BLIPMODE
 70
     0
  9
$CHAMFERA
 40
0.2
  9
$CHAMFERB
 40
0.2
  9
$SKPOLY
 70
     0
  9
$TDCREATE
 40
2457820.5579282408580184
  9
$TDUPDATE
 40
2458292.6424421300180256
  9
$TDINDWG
 40
0.019033831
  9
$TDUSRTIMER
 40
0.0190338079
  9
$USRTIMER
 70
     1
  9
$ANGBASE
 50
0.0
  9
$ANGDIR
 70
     0
  9
$PDMODE
 70
     1
  9
$PDSIZE
 40
0.0
  9
$PLINEWID
 40
0.0
  9
$COORDS
 70
     1
  9
$SPLFRAME
 70
     0
  9
$SPLINETYPE
 70
     6
  9
$SPLINESEGS
 70
     4
  9
$ATTDIA
 70
     1
  9
$ATTREQ
 70
     1
  9
$HANDLING
 70
     1
  9
$HANDSEED
  5
4729
  9
$SURFTAB1
 70
     6
  9
$SURFTAB2
 70
     6
  9
$SURFTYPE
 70
     6
  9
$SURFU
 70
     6
  9
$SURFV
 70
     6
  9
$UCSNAME
  2

  9
$UCSORG
 10
0.0
 20
0.0
 30
0.0
  9
$UCSXDIR
 10
1.0
 20
0.0
 30
0.0
  9
$UCSYDIR
 10
0.0
 20
1.0
 30
0.0
  9
$PUCSNAME
  2

  9
$PUCSORG
 10
0.0
 20
0.0
 30
0.0
  9
$PUCSXDIR
 10
1.0
 20
0.0
 30
0.0
  9
$PUCSYDIR
 10
0.0
 20
1.0
 30
0.0
  9
$USERI1
 70
     1
  9
$USERI2
 70
     0
  9
$USERI3
 70
     0
  9
$USERI4
 70
     0
  9
$USERI5
 70
     0
  9
$USERR1
 40
0.0
  9
$USERR2
 40
0.0
  9
$USERR3
 40
0.0
  9
$USERR4
 40
0.0
  9
$USERR5
 40
0.0
  9
$WORLDVIEW
 70
     1
  9
$SHADEDGE
 70
     3
  9
$SHADEDIF
 70
    70
  9
$TILEMODE
 70
     1
  9
$MAXACTVP
 70
    16
  9
$PLIMCHECK
 70
     0
  9
$PEXTMIN
 10
1.0000000000000000E+20
 20
1.0000000000000000E+20
 30
1.0000000000000000E+20
  9
$PEXTMAX
 10
-1.0000000000000000E+20
 20
-1.0000000000000000E+20
 30
-1.0000000000000000E+20
  9
$PLIMMIN
 10
0.0
 20
0.0
  9
$PLIMMAX
 10
420.0
 20
297.0
  9
$UNITMODE
 70
     0
  9
$VISRETAIN
 70
     1
  9
$PLINEGEN
 70
     0
  9
$PSLTSCALE
 70
     1
  0
ENDSEC
  0
SECTION
  2
TABLES
  0
TABLE
  2
VPORT
 70
     1
  0
VPORT
  2
*ACTIVE
 70
     0
 10
0.0
 20
0.0
 11
1.0
 21
1.0
 12
103.7836795886936017
 22
10.2466637971305108
 13
0.0
 23
0.0
 14
7.0
 24
7.0
 15
7.0
 25
7.0
 16
0.0
 26
0.0
 36
1.0
 17
0.0
 27
0.0
 37
0.0
 40
214.216234071557011
 41
1.887387387387387
 42
50.0
 43
0.0
 44
0.0
 50
0.0
 51
0.0
 71
     0
 72
  2000
 73
     1
 74
     0
 75
     0
 76
     1
 77
     0
 78
     0
  0
ENDTAB
  0
TABLE
  2
LTYPE
 70
    20
  0
LTYPE
  2
CONTINUOUS
 70
     0
  3
Solid line
 72
    65
 73
     0
 40
0.0
  0
LTYPE
  2
CENTER2
 70
     0
  3
___ _ ___ _ ___ _ ___ _ ___ _ ___ _ ___ _ ___ _
 72
    65
 73
     4
 40
1.125
 49
0.75
 49
-0.125
 49
0.125
 49
-0.125
  0
LTYPE
  2
HIDDEN2
 70
     0
  3
_ _ _ _ _ _ _ _ _ _ _ _ _ _ _ _ _ _ _ _ _ _ _ _
 72
    65
 73
     2
 40
0.1875
 49
0.125
 49
-0.0625
  0
LTYPE
  2
AMCONSTR
 70
     0
  3
_______________________
 72
    65
 73
     2
 40
9999.0
 49
9999.0
 49
0.0
  0
LTYPE
  2
HIDDEN
 70
     0
  3
Hidden __ __ __ __ __ __ __ __ __ __ __ __ __ _
 72
    65
 73
     2
 40
0.375
 49
0.25
 49
-0.125
  0
LTYPE
  2
PHANTOM2
 70
     0
  3
Phantom (.5x) ___ _ _ ___ _ _ ___ _ _ ___ _ _
 72
    65
 73
     6
 40
1.25
 49
0.625
 49
-0.125
 49
0.125
 49
-0.125
 49
0.125
 49
-0.125
  0
LTYPE
  2
CENTER
 70
     0
  3
Center ____ _ ____ _ ____ _ ____ _ ____ _ ____
 72
    65
 73
     4
 40
2.0
 49
1.25
 49
-0.25
 49
0.25
 49
-0.25
  0
LTYPE
  2
AMZIGZAG2
 70
     0
  3
/\/-/\/-/\/-/\/-/\/-/\/
 72
    65
 73
     2
 40
0.4401
 49
0.0001
 49
-0.4400000000000001
  0
LTYPE
  2
ACANSTGB
 70
     0
  3
__ . . __ . .
 72
    65
 73
     6
 40
0.35433070866
 49
0.15748031496
 49
-0.03937007874
 49
0.03937007874
 49
-0.03937007874
 49
0.03937007874
 49
-0.03937007874
  0
LTYPE
  2
ACANSTGL
 70
     0
  3
_ _ _ _ _
 72
    65
 73
     2
 40
0.11811023622
 49
0.07874015748
 49
-0.03937007874
  0
ENDTAB
  0
TABLE
  2
LAYER
 70
     9
  0
LAYER
  2
0
 70
     0
 62
     7
  6
CONTINUOUS
  0
LAYER
  2
240
 70
     0
 62
     4
  6
CONTINUOUS
  0
LAYER
  2
DEFPOINTS
 70
     0
 62
     7
  6
CONTINUOUS
  0
LAYER
  2
245
 70
     0
 62
     2
  6
CENTER2
  0
LAYER
  2
241
 70
     0
 62
   211
  6
CONTINUOUS
  0
LAYER
  2
242
 70
     0
 62
     3
  6
CONTINUOUS
  0
LAYER
  2
243
 70
     0
 62
   211
  6
HIDDEN2
  0
LAYER
  2
250
 70
     0
 62
     3
  6
CONTINUOUS
  0
LAYER
  2
247
 70
     0
 62
    60
  6
CONTINUOUS
  0
ENDTAB
  0
TABLE
  2
STYLE
 70
     7
  0
STYLE
  2
STANDARD
 70
     0
 40
0.0
 41
1.0
 50
0.0
 71
     0
 42
3.0
  3
romans.shx
  4
extfont.shx
  0
STYLE
  2
YOKO
 70
     0
 40
0.0
 41
1.0
 50
0.0
 71
     0
 42
3.0
  3
romans.shx
  4
extfont.shx
  0
STYLE
  2

 70
     1
 40
0.0
 41
1.0
 50
0.0
 71
     0
 42
3.0
  3
genltshp.shx
  4

  0
STYLE
  2
ACANSGDT
 70
     0
 40
0.0
 41
1.0
 50
0.0
 71
     0
 42
3.0
  3
amgdt.shx
  4

  0
ENDTAB
  0
TABLE
  2
VIEW
 70
     0
  0
ENDTAB
  0
TABLE
  2
UCS
 70
     0
  0
ENDTAB
  0
TABLE
  2
APPID
 70
    42
  0
APPID
  2
ACAD
 70
     0
  0
APPID
  2
ACADANNOTATIVE
 70
     0
  0
APPID
  2
GLOBAL
 70
     0
  0
APPID
  2
DETAIL
 70
     0
  0
APPID
  2
GRPNAME
 70
     0
  0
APPID
  2
GPARA
 70
     0
  0
APPID
  2
MCAD_NO_VIS
 70
     0
  0
APPID
  2
ACAD_TEMP_GRAPHIC
 70
     0
  0
APPID
  2
ACATTRIBSERVICES
 70
     0
  0
APPID
  2
GENIUS_GENSCREG_15
 70
     0
  0
APPID
  2
GENIUS_GENODEF_13
 70
     0
  0
APPID
  2
GENIUS_GENOBJ-N-SDF_13
 70
     0
  0
APPID
  2
GENIUS_GENREC_14
 70
     0
  0
APPID
  2
GENIUS_GENOBJ-N-REC_13
 70
     0
  0
APPID
  2
GENIUS_GENDIMSH_14
 70
     0
  0
APPID
  2
GENIUS_GENOBJ-N-DIM_13
 70
     0
  0
APPID
  2
GENIUS_GENDIM_13
 70
     0
  0
APPID
  2
GENIUS_GENDTOL_13
 70
     0
  0
APPID
  2
GENIUS_GENOLIS_13
 70
     0
  0
APPID
  2
GENIUS_GENOENT_13
 70
     0
  0
APPID
  2
GENIUS_GENOBJ-F-FEM_13
 70
     0
  0
APPID
  2
GENIUS_GENOREF_13
 70
     0
  0
APPID
  2
GENIUS_GEFFEM_13
 70
     0
  0
APPID
  2
GENIUS_GEFFEMP_13
 70
     0
  0
APPID
  2
AD_DRAW
 70
     0
  0
APPID
  2
DESIGNERASSEMBLIES
 70
     0
  0
APPID
  2
ACADM_DIM_EDIT
 70
     0
  0
APPID
  2
AMDT_DM_ADJ
 70
     0
  0
APPID
  2
ITEMNAME
 70
     0
  0
APPID
  2
GENIUS_GENOBJ-N-FIL_13
 70
     0
  0
APPID
  2
GENIUS_GENFIL_13
 70
     0
  0
APPID
  2
GENIUS_GENOBJ-N-CHA_13
 70
     0
  0
APPID
  2
ACAECLAYERSTANDARD
 70
     0
  0
APPID
  2
ACAD_NAV_VCDISPLAY
 70
     0
  0
APPID
  2
ACAD_EXEMPT_FROM_CAD_STANDARDS
 70
     0
  0
APPID
  2
ACAD_DSTYLE_DIMJAG
 70
     0
  0
APPID
  2
ACAD_DSTYLE_DIMBREAK
 70
     0
  0
APPID
  2
ACAD_MLEADERVER
 70
     0
  0
APPID
  2
ACAD_DSTYLE_DIMARC_LENGTH_
 70
     0
  0
APPID
  2
ACAD_DSTYLE_DIM_LINETYPE
 70
     0
  0
APPID
  2
ACAD_DSTYLE_DIM_EXT1_LINETYPE
 70
     0
  0
APPID
  2
ACAD_DSTYLE_DIM_EXT2_LINETYPE
 70
     0
  0
ENDTAB
  0
TABLE
  2
DIMSTYLE
 70
    16
  0
DIMSTYLE
  2
STANDARD
 70
     0
  3

  4

  5

  6

  7

 40
1.0
 41
0.18
 42
0.0625
 43
0.38
 44
0.18
 45
0.0
 46
0.0
 47
0.0
 48
0.0
140
0.18
141
0.09
142
0.0
143
25.3999999999999986
144
1.0
145
0.0
146
1.0
147
0.09
 71
     0
 72
     0
 73
     1
 74
     1
 75
     0
 76
     0
 77
     0
 78
     0
170
     0
171
     2
172
     0
173
     0
174
     0
175
     0
176
     0
177
     0
178
     0
  0
DIMSTYLE
  2
BIGT
 70
     0
  3

  4

  5

  6

  7

 40
1.0
 41
2.2299999999999991
 42
0.5
 43
7.0
 44
1.0
 45
0.0
 46
0.0
 47
0.0
 48
0.01
140
2.799999999999998
141
0.0
142
0.0
143
25.3999999999999986
144
1.0
145
0.0
146
1.0
147
1.0
 71
     0
 72
     0
 73
     0
 74
     0
 75
     0
 76
     0
 77
     3
 78
     9
170
     0
171
     2
172
     1
173
     0
174
     1
175
     0
176
   256
177
   256
178
    40
  0
DIMSTYLE
  2
AM_ANSI
 70
     0
  3

  4
mm
  5

  6

  7

 40
1.0
 41
0.12
 42
0.05
 43
0.5
 44
0.1
 45
0.0
 46
0.0
 47
0.1
 48
0.1
140
0.12
141
0.0
142
0.0
143
25.3999999999999986
144
1.0
145
0.0
146
0.71
147
0.06
 71
     0
 72
     0
 73
     1
 74
     1
 75
     0
 76
     0
 77
     0
 78
     7
170
     0
171
     2
172
     0
173
     0
174
     0
175
     0
176
   256
177
   256
178
     2
  0
DIMSTYLE
  2
AM_ANSI$3
 70
     0
  3

  4
mm
  5

  6

  7

 40
1.0
 41
0.12
 42
0.05
 43
0.5
 44
0.1
 45
0.0
 46
0.0
 47
0.1
 48
0.1
140
0.12
141
0.0
142
0.0
143
25.3999999999999986
144
1.0
145
0.0
146
0.71
147
0.06
 71
     0
 72
     0
 73
     1
 74
     1
 75
     0
 76
     0
 77
     0
 78
     7
170
     0
171
     2
172
     0
173
     0
174
     0
175
     0
176
   256
177
   256
178
     2
  0
DIMSTYLE
  2
AM_ANSI$4
 70
     0
  3

  4
mm
  5

  6

  7

 40
1.0
 41
0.12
 42
0.05
 43
0.5
 44
0.1
 45
0.0
 46
0.0
 47
0.1
 48
0.1
140
0.12
141
0.0
142
0.0
143
25.3999999999999986
144
1.0
145
0.0
146
0.71
147
0.06
 71
     0
 72
     0
 73
     1
 74
     1
 75
     0
 76
     0
 77
     0
 78
     7
170
     0
171
     2
172
     0
173
     0
174
     0
175
     0
176
   256
177
   256
178
     2
  0
DIMSTYLE
  2
AM_ANSI$7
 70
     0
  3

  4
mm
  5

  6

  7

 40
1.0
 41
0.12
 42
0.05
 43
0.5
 44
0.1
 45
0.0
 46
0.0
 47
0.1
 48
0.1
140
0.12
141
0.0
142
0.0
143
25.3999999999999986
144
1.0
145
0.0
146
0.71
147
0.06
 71
     0
 72
     0
 73
     1
 74
     1
 75
     0
 76
     0
 77
     0
 78
     7
170
     0
171
     2
172
     0
173
     0
174
     0
175
     0
176
   256
177
   256
178
     2
  0
DIMSTYLE
  2
AM_ANSI$SF
 70
     0
  3

  4
mm
  5

  6

  7

 40
1.0
 41
0.12
 42
0.05
 43
0.5
 44
0.1
 45
0.0
 46
0.0
 47
0.1
 48
0.1
140
0.12
141
0.0
142
0.0
143
25.3999999999999986
144
1.0
145
0.0
146
0.71
147
0.06
 71
     0
 72
     0
 73
     1
 74
     1
 75
     1
 76
     1
 77
     0
 78
     7
170
     0
171
     2
172
     0
173
     0
174
     0
175
     0
176
   256
177
   256
178
     2
  0
DIMSTYLE
  2
AM_ANSI$SH
 70
     0
  3

  4
mm
  5

  6
GENAXEH
  7

 40
1.0
 41
0.12
 42
0.05
 43
0.5
 44
0.1
 45
0.0
 46
0.0
 47
0.1
 48
0.1
140
0.12
141
0.0
142
0.0
143
25.3999999999999986
144
1.0
145
0.0
146
0.71
147
0.06
 71
     0
 72
     0
 73
     1
 74
     1
 75
     1
 76
     1
 77
     0
 78
     7
170
     0
171
     2
172
     0
173
     1
174
     0
175
     0
176
   256
177
   256
178
     2
  0
ENDTAB
  0
ENDSEC
  0
SECTION
  2
BLOCKS
  0
BLOCK
  8
0
  2
$MODEL_SPACE
 70
     0
 10
0.0
 20
0.0
 30
0.0
  3
$MODEL_SPACE
  1

  0
ENDBLK
  5
45FB
  8
0
  0
BLOCK
 67
     1
  8
0
  2
$PAPER_SPACE
 70
     0
 10
0.0
 20
0.0
 30
0.0
  3
$PAPER_SPACE
  1

  0
ENDBLK
  5
45F7
 67
     1
  8
0
  0
BLOCK
  8
0
  2
_OPEN
 70
     0
 10
0.0
 20
0.0
 30
0.0
  3
_OPEN
  1

  0
LINE
  5
3E1A
  8
0
  6
BYBLOCK
 62
     0
 10
-1.0
 20
0.1666666666666666
 30
0.0
 11
0.0
 21
0.0
 31
0.0
  0
LINE
  5
3E1B
  8
0
  6
BYBLOCK
 62
     0
 10
-1.0
 20
-0.1666666666666666
 30
0.0
 11
0.0
 21
0.0
 31
0.0
  0
LINE
  5
3E1C
  8
0
  6
BYBLOCK
 62
     0
 10
0.0
 20
0.0
 30
0.0
 11
-1.0
 21
0.0
 31
0.0
  0
ENDBLK
  5
3E1D
  8
0
  0
BLOCK
  8
0
  2
GENAXEH
 70
     0
 10
0.0
 20
0.0
 30
0.0
  3
GENAXEH
  1

  0
LINE
  5
3E45
  8
0
 10
-1.0
 20
0.0
 30
0.0
 11
1.0
 21
0.0
 31
0.0
  0
ENDBLK
  5
3E46
  8
0
  0
BLOCK
  8
0
  2
_ACMFILLEDHALF
 70
     0
 10
0.0
 20
0.0
 30
0.0
  3
_ACMFILLEDHALF
  1

  0
TRACE
  5
46AA
  8
240
 62
     0
 10
-0.8
 20
0.0
 30
0.0
 11
-1.0
 21
0.166666666
 31
0.0
 12
0.0
 22
0.0
 32
0.0
 13
0.0
 23
0.0
 33
0.0
  0
LINE
  5
46AB
  8
240
 62
     0
 10
-1.0
 20
0.0
 30
0.0
 11
-0.8
 21
0.0
 31
0.0
  0
ENDBLK
  5
46A9
  8
0
  0
ENDSEC
  0
SECTION
  2
ENTITIES
  0
LINE
  5
42D8
  8
250
  6
CONTINUOUS
 10
-17.5333798245385211
 20
-15.7454033175461401
 30
0.0
 11
-16.0965070499999996
 21
-14.0
 31
0.0
  0
LINE
  5
42D9
  8
250
  6
CONTINUOUS
 10
-16.8896342742782402
 20
-16.1170699840156004
 30
0.0
 11
-16.0965070499999996
 21
-14.0
 31
0.0
  0
LINE
  5
42DA
  8
250
  6
CONTINUOUS
 10
-16.0965070499999996
 20
-14.0
 30
0.0
 11
-17.2115070494083788
 21
-15.9312366507808605
 31
0.0
  0
LINE
  5
42DB
  8
250
  6
CONTINUOUS
 10
-17.2115070494083788
 20
-15.9312366507808605
 30
0.0
 11
-22.3230795300000011
 21
-24.7847399000000017
 31
0.0
  0
TEXT
  5
42DC
  8
250
  6
CONTINUOUS
 10
-32.989746199999999
 20
-23.7847399000000017
 30
0.0
 40
2.799999999999998
  1
CK5
  7
YOKO
  0
LINE
  5
42DD
  8
250
  6
CONTINUOUS
 10
-22.3230795300000011
 20
-24.7847399000000017
 30
0.0
 11
-35.3897462000000118
 21
-24.7847399000000017
 31
0.0
1001
ITEMNAME
1000
LNSP2
  0
LINE
  5
42DE
  8
250
  6
CONTINUOUS
 10
150.5
 20
-25.0
 30
0.0
 11
166.0
 21
-25.0
 31
0.0
  0
LINE
  5
42DF
  8
250
  6
CONTINUOUS
 10
150.5
 20
25.0
 30
0.0
 11
166.0
 21
25.0
 31
0.0
  0
LINE
  5
42E0
  8
250
  6
CONTINUOUS
 10
165.0
 20
-22.7700000000000102
 30
0.0
 11
165.0
 21
22.7699999999999996
 31
0.0
  0
LINE
  5
42E1
  8
250
  6
CONTINUOUS
 10
165.3716666666666129
 20
-22.7699999999999996
 30
0.0
 11
165.0
 21
-25.0
 31
0.0
  0
LINE
  5
42E2
  8
250
  6
CONTINUOUS
 10
164.6283333333333019
 20
-22.7699999999999996
 30
0.0
 11
165.0
 21
-25.0
 31
0.0
  0
LINE
  5
42E3
  8
250
  6
CONTINUOUS
 10
165.0
 20
-25.0
 30
0.0
 11
165.0
 21
-22.7699999999999996
 31
0.0
  0
LINE
  5
42E4
  8
250
  6
CONTINUOUS
 10
164.6283333333333019
 20
22.7699999999999996
 30
0.0
 11
165.0
 21
25.0
 31
0.0
  0
LINE
  5
42E5
  8
250
  6
CONTINUOUS
 10
165.3716666666666129
 20
22.7699999999999996
 30
0.0
 11
165.0
 21
25.0
 31
0.0
  0
LINE
  5
42E6
  8
250
  6
CONTINUOUS
 10
165.0
 20
25.0
 30
0.0
 11
165.0
 21
22.7699999999999996
 31
0.0
  0
TEXT
  5
42E7
  8
250
  6
CONTINUOUS
 10
164.0
 20
-3.799999999999975
 30
0.0
 40
2.799999999999998
  1
\U+2205
 50
90.0
  0
TEXT
  5
42E8
  8
250
  6
CONTINUOUS
 10
164.0
 20
-1.2666666666666431
 30
0.0
 40
2.799999999999998
  1
50
 50
90.0
  0
LINE
  5
42E9
  8
250
  6
CONTINUOUS
 10
0.0
 20
25.5
 30
0.0
 11
0.0000000000000012
 21
43.0
 31
0.0
  0
LINE
  5
42EA
  8
250
  6
CONTINUOUS
 10
150.0
 20
25.5
 30
0.0
 11
150.0
 21
43.0
 31
0.0
  0
LINE
  5
42EB
  8
250
  6
CONTINUOUS
 10
2.2299999999999991
 20
42.0
 30
0.0
 11
147.7700000000000102
 21
42.0
 31
0.0
  0
LINE
  5
42EC
  8
250
  6
CONTINUOUS
 10
2.2299999999999991
 20
41.6283333333333303
 30
0.0
 11
0.0000000000000011
 21
42.0
 31
0.0
  0
LINE
  5
42ED
  8
250
  6
CONTINUOUS
 10
2.2299999999999991
 20
42.3716666666666626
 30
0.0
 11
0.0000000000000011
 21
42.0
 31
0.0
  0
LINE
  5
42EE
  8
250
  6
CONTINUOUS
 10
0.0000000000000011
 20
42.0
 30
0.0
 11
2.2299999999999991
 21
42.0
 31
0.0
  0
LINE
  5
42EF
  8
250
  6
CONTINUOUS
 10
147.7700000000000102
 20
42.3716666666666626
 30
0.0
 11
150.0
 21
42.0
 31
0.0
  0
LINE
  5
42F0
  8
250
  6
CONTINUOUS
 10
147.7700000000000102
 20
41.6283333333333303
 30
0.0
 11
150.0
 21
42.0
 31
0.0
  0
LINE
  5
42F1
  8
250
  6
CONTINUOUS
 10
150.0
 20
42.0
 30
0.0
 11
147.7700000000000102
 21
42.0
 31
0.0
  0
TEXT
  5
42F2
  8
250
  6
CONTINUOUS
 10
70.7999999999999972
 20
43.0
 30
0.0
 40
2.799999999999998
  1
150
  0
LINE
  5
42F3
  8
250
  6
CONTINUOUS
 10
146.1490734916177132
 20
26.7454033171720909
 30
0.0
 11
144.7122007166248068
 21
25.0
 31
0.0
  0
LINE
  5
42F4
  8
250
  6
CONTINUOUS
 10
145.5053279414541123
 20
27.1170699838091309
 30
0.0
 11
144.7122007166248068
 21
25.0
 31
0.0
  0
LINE
  5
42F5
  8
250
  6
CONTINUOUS
 10
144.7122007166248068
 20
25.0
 30
0.0
 11
145.8272007165359128
 21
26.9312366504906109
 31
0.0
  0
POLYLINE
  5
42F6
  8
250
  6
CONTINUOUS
 66
     1
 10
0.0
 20
0.0
 30
0.0
  0
VERTEX
  5
42F7
  8
250
  6
CONTINUOUS
 10
145.8272007165359128
 20
26.9312366504906109
 30
0.0
  0
VERTEX
  5
42F8
  8
250
  6
CONTINUOUS
 10
153.490248081294709
 20
40.2040240284702435
 30
0.0
  0
SEQEND
  5
42F9
  8
250
  6
CONTINUOUS
  0
TEXT
  5
42FA
  8
250
  6
CONTINUOUS
 10
155.8902480812946862
 20
41.2040240284702577
 30
0.0
 40
2.799999999999998
  1
CK5
  7
YOKO
  0
LINE
  5
42FB
  8
250
  6
CONTINUOUS
 10
153.490248081294709
 20
40.2040240284702435
 30
0.0
 11
166.5569147512946984
 21
40.2040240284702435
 31
0.0
1001
ITEMNAME
1000
LNSP2
  0
TEXT
  5
42FC
  8
241
  6
CONTINUOUS
 10
-30.0
 20
56.0
 30
0.0
 40
5.0
  1
CKB55DP-150
  7
YOKO
 11
-30.0
 21
56.0
 31
0.0
 73
     1
  0
LINE
  5
42FD
  8
245
  6
CENTER2
 10
-31.0
 20
0.0
 30
0.0
 11
151.0
 21
0.0
 31
0.0
  0
LINE
  5
42FE
  8
240
  6
CONTINUOUS
 10
150.0
 20
25.0
 30
0.0
 11
0.0
 21
25.0
 31
0.0
  0
LINE
  5
42FF
  8
240
  6
CONTINUOUS
 10
150.0
 20
-25.0
 30
0.0
 11
0.0
 21
-25.0
 31
0.0
  0
LINE
  5
4300
  8
240
  6
CONTINUOUS
 10
-30.0
 20
14.0
 30
0.0
 11
-13.0383756700000006
 21
14.0
 31
0.0
  0
LINE
  5
4301
  8
240
  6
CONTINUOUS
 10
-30.0
 20
-14.0
 30
0.0
 11
-13.0383756700000006
 21
-14.0
 31
0.0
  0
LINE
  5
4302
  8
240
  6
CONTINUOUS
 10
-30.0
 20
14.0
 30
0.0
 11
-30.0
 21
-14.0
 31
0.0
  0
LINE
  5
4303
  8
240
  6
CONTINUOUS
 10
0.0
 20
-25.0
 30
0.0
 11
0.0
 21
-14.0
 31
0.0
  0
LINE
  5
4304
  8
240
  6
CONTINUOUS
 10
-11.5949999950000002
 20
-16.5
 30
0.0
 11
-13.0383756700000006
 21
-14.0
 31
0.0
  0
LINE
  5
4305
  8
240
  6
CONTINUOUS
 10
-3.4050000050000002
 20
-16.5
 30
0.0
 11
-1.96162433
 21
-14.0
 31
0.0
  0
LINE
  5
4307
  8
240
  6
CONTINUOUS
 10
-11.5949999950000002
 20
-16.5
 30
0.0
 11
-3.405000004999998
 21
-16.5
 31
0.0
  0
LINE
  5
430A
  8
241
  6
CONTINUOUS
 10
-13.0383756700000006
 20
-14.0
 30
0.0
 11
-1.96162433
 21
-14.0
 31
0.0
  0
LINE
  5
430B
  8
245
  6
CENTER2
 10
-13.0
 20
6.0
 30
0.0
 11
-13.0
 21
-6.0
 31
0.0
  0
CIRCLE
  5
430C
  8
241
  6
CONTINUOUS
 10
-13.0
 20
0.0
 30
0.0
 40
4.0
  0
CIRCLE
  5
430D
  8
241
  6
CONTINUOUS
 10
-13.0
 20
0.0
 30
0.0
 40
5.0
  0
LINE
  5
430E
  8
241
  6
CONTINUOUS
 10
0.0
 20
14.0
 30
0.0
 11
0.0
 21
-14.0
 31
0.0
  0
LINE
  5
430F
  8
240
  6
CONTINUOUS
 10
0.0
 20
-14.0
 30
0.0
 11
-1.96162433
 21
-14.0
 31
0.0
  0
LINE
  5
4311
  8
241
  6
CONTINUOUS
 10
-13.0383756700000006
 20
14.0
 30
0.0
 11
-1.96162433
 21
14.0
 31
0.0
  0
LINE
  5
4312
  8
240
  6
CONTINUOUS
 10
-11.5949999950000002
 20
16.5
 30
0.0
 11
-13.0383756700000006
 21
14.0
 31
0.0
  0
LINE
  5
4314
  8
240
  6
CONTINUOUS
 10
-11.5949999950000002
 20
16.5
 30
0.0
 11
-3.405000004999998
 21
16.5
 31
0.0
  0
LINE
  5
4315
  8
240
  6
CONTINUOUS
 10
0.0
 20
14.0
 30
0.0
 11
0.0
 21
25.0
 31
0.0
  0
LINE
  5
4316
  8
240
  6
CONTINUOUS
 10
0.0
 20
14.0
 30
0.0
 11
-1.96162433
 21
14.0
 31
0.0
  0
LINE
  5
4317
  8
240
  6
CONTINUOUS
 10
-3.4050000050000002
 20
16.5
 30
0.0
 11
-1.96162433
 21
14.0
 31
0.0
  0
LINE
  5
4319
  8
243
  6
HIDDEN2
 10
118.0
 20
14.0
 30
0.0
 11
150.0
 21
14.0
 31
0.0
  0
LINE
  5
431A
  8
245
  6
CENTER2
 10
137.0
 20
6.0
 30
0.0
 11
137.0
 21
-6.0
 31
0.0
1001
GRPNAME
1000
PASTMD1U
  0
CIRCLE
  5
431B
  8
242
  6
CONTINUOUS
 10
137.0
 20
0.0
 30
0.0
 40
4.5
  0
CIRCLE
  5
431C
  8
241
  6
CONTINUOUS
 10
137.0
 20
0.0
 30
0.0
 40
5.0
  0
LINE
  5
431D
  8
241
  6
CONTINUOUS
 10
134.5
 20
-1.443375669999998
 30
0.0
 11
137.0
 21
-2.8867513499999991
 31
0.0
  0
LINE
  5
431E
  8
241
  6
CONTINUOUS
 10
137.0
 20
-2.8867513499999991
 30
0.0
 11
139.5
 21
-1.443375669999998
 31
0.0
  0
LINE
  5
431F
  8
241
  6
CONTINUOUS
 10
139.5
 20
-1.443375669999998
 30
0.0
 11
139.5
 21
1.443375669999998
 31
0.0
  0
LINE
  5
4320
  8
241
  6
CONTINUOUS
 10
139.5
 20
1.443375669999998
 30
0.0
 11
137.0
 21
2.8867513499999991
 31
0.0
  0
LINE
  5
4321
  8
241
  6
CONTINUOUS
 10
137.0
 20
2.8867513499999991
 30
0.0
 11
134.5
 21
1.443375669999998
 31
0.0
  0
LINE
  5
4322
  8
241
  6
CONTINUOUS
 10
134.5
 20
1.443375669999998
 30
0.0
 11
134.5
 21
-1.443375669999998
 31
0.0
  0
LINE
  5
4323
  8
240
  6
CONTINUOUS
 10
150.0
 20
25.0
 30
0.0
 11
150.0
 21
-25.0
 31
0.0
  0
LINE
  5
4324
  8
243
  6
HIDDEN2
 10
118.0
 20
-13.9999999999999893
 30
0.0
 11
150.0
 21
-14.0
 31
0.0
  0
LINE
  5
4443
  8
247
  6
CONTINUOUS
 10
5.4999999999999432
 20
-15.75
 30
0.0
 11
5.5
 21
-11.1153846156699903
 31
0.0
  0
LINE
  5
4444
  8
247
  6
CONTINUOUS
 10
3.0
 20
-14.9548934999879108
 30
0.0
 11
5.0999999999160082
 21
-15.5570588100573506
 31
0.0
  0
LINE
  5
4445
  8
247
  6
CONTINUOUS
 10
3.996153846113998
 20
-14.3251514035190404
 30
0.0
 11
3.996153846113998
 21
-15.2405360188670294
 31
0.0
  0
ARC
  5
4446
  8
247
  6
CONTINUOUS
 10
3.3847190672940992
 20
-14.0872634019467498
 30
0.0
 40
0.3876715809326743
 50
72.9978896752930098
 51
172.9241662185135056
  0
ARC
  5
4447
  8
247
  6
CONTINUOUS
 10
3.305223131028014
 20
-14.3824775568040604
 30
0.0
 40
0.6933047965358767
 50
4.7429368522022131
 51
73.8492262732667513
1001
GENIUS_GENOBJ-N-FIL_13
1002
{
1000
OWNER
1000
GEN
1002
}
1001
GENIUS_GENODEF_13
1002
{
1000
HIER
1070
     0
1002
}
1002
{
1000
MANEDIT
1070
     0
1002
}
1002
{
1000
NOSEL
1070
     0
1002
}
1002
{
1000
BEHIND
1070
     0
1002
}
1002
{
1000
OTHER
1070
     0
1002
}
1002
{
1000
REACTOR
1002
}
  0
LINE
  5
4448
  8
247
  6
CONTINUOUS
 10
5.0999999999160082
 20
-14.6416741947093705
 30
0.0
 11
5.0999999999160082
 21
-15.5570588100573506
 31
0.0
  0
LINE
  5
4449
  8
247
  6
CONTINUOUS
 10
3.0
 20
-14.9548934999879108
 30
0.0
 11
3.0
 21
-14.0395088846399307
 31
0.0
  0
ARC
  5
444A
  8
247
  6
CONTINUOUS
 10
4.3874169627678707
 20
-14.3783064762668005
 30
0.0
 40
0.394857301075386
 50
65.990941652528889
 51
172.2634434590690944
  0
ARC
  5
444B
  8
247
  6
CONTINUOUS
 10
4.3912003273325677
 20
-14.7124466104269196
 30
0.0
 40
0.7123241612361686
 50
5.701985164256504
 51
77.2773384368220064
1001
GENIUS_GENOBJ-N-FIL_13
1002
{
1000
OWNER
1000
GEN
1002
}
1001
GENIUS_GENODEF_13
1002
{
1000
HIER
1070
     0
1002
}
1002
{
1000
MANEDIT
1070
     0
1002
}
1002
{
1000
NOSEL
1070
     0
1002
}
1002
{
1000
BEHIND
1070
     0
1002
}
1002
{
1000
OTHER
1070
     0
1002
}
1002
{
1000
REACTOR
1002
}
  0
LINE
  5
444C
  8
247
  6
CONTINUOUS
 10
5.0999999999160082
 20
-13.6839818870633394
 30
0.0
 11
3.0
 21
-13.0818165769939601
 31
0.0
  0
LINE
  5
444D
  8
247
  6
CONTINUOUS
 10
3.0
 20
-11.5856627309079308
 30
0.0
 11
3.0
 21
-11.9816783643035407
 31
0.0
  0
LINE
  5
444E
  8
247
  6
CONTINUOUS
 10
5.0999999999160082
 20
-12.60873965394393
 30
0.0
 11
5.0999999999160082
 21
-12.1779704231919297
 31
0.0
  0
ARC
  5
444F
  8
247
  6
CONTINUOUS
 10
4.4582995950833588
 20
-11.3818165770699107
 30
0.0
 40
1.576855057639547
 50
202.3594881415293116
 51
254.9932485428469136
  0
ARC
  5
4450
  8
247
  6
CONTINUOUS
 10
3.565818858538135
 20
-11.8475113661331708
 30
0.0
 40
0.6234706797009447
 50
94.9945893190753168
 51
155.1663289573041027
1001
GENIUS_GENOBJ-N-FIL_13
1002
{
1000
OWNER
1000
GEN
1002
}
1001
GENIUS_GENODEF_13
1002
{
1000
HIER
1070
     0
1002
}
1002
{
1000
MANEDIT
1070
     0
1002
}
1002
{
1000
NOSEL
1070
     0
1002
}
1002
{
1000
BEHIND
1070
     0
1002
}
1002
{
1000
OTHER
1070
     0
1002
}
1002
{
1000
REACTOR
1002
}
  0
ARC
  5
4451
  8
247
  6
CONTINUOUS
 10
4.1621021219694381
 20
-12.4441839510327501
 30
0.0
 40
0.9749472149106982
 50
15.8460965557806794
 51
82.325137004169278
  0
ARC
  5
4452
  8
247
  6
CONTINUOUS
 10
4.3714704019710648
 20
-12.0352116387721804
 30
0.0
 40
0.9271945638692008
 50
249.7136016704968995
 51
321.7887456564109243
1001
GENIUS_GENOBJ-N-FIL_13
1002
{
1000
OWNER
1000
GEN
1002
}
1001
GENIUS_GENODEF_13
1002
{
1000
HIER
1070
     0
1002
}
1002
{
1000
MANEDIT
1070
     0
1002
}
1002
{
1000
NOSEL
1070
     0
1002
}
1002
{
1000
BEHIND
1070
     0
1002
}
1002
{
1000
OTHER
1070
     0
1002
}
1002
{
1000
REACTOR
1002
}
  0
LINE
  5
4453
  8
247
  6
CONTINUOUS
 10
4.2923076922559744
 20
-11.9625858078159109
 30
0.0
 11
4.2923076922559744
 21
-11.4779704232199702
 31
0.0
  0
ARC
  5
4454
  8
247
  6
CONTINUOUS
 10
4.25
 20
-15.75
 30
0.0
 40
1.25
 50
180.0
 51
0.0
  0
LINE
  5
4455
  8
247
  6
CONTINUOUS
 10
3.0
 20
-15.75
 30
0.0
 11
3.0
 21
-15.3038461539139803
 31
0.0
  0
ARC
  5
4456
  8
247
  6
CONTINUOUS
 10
4.25
 20
-11.1153846156699903
 30
0.0
 40
1.25
 50
0.0
 51
180.0
  0
VIEWPORT
  5
22
 67
     1
  8
0
 10
261.517699115044195
 20
148.5
 30
0.0
 40
523.0353982300885036
 41
297.0
 68
     1
 69
     1
1001
ACAD
1000
MVIEW
1002
{
1070
    16
1010
0.0
1020
0.0
1030
0.0
1010
0.0
1020
0.0
1030
1.0
1040
0.0
1040
297.0
1040
261.517699115044195
1040
148.5
1040
50.0
1040
0.0
1040
0.0
1070
     0
1070
   100
1070
     1
1070
     1
1070
     0
1070
     0
1070
     0
1070
     0
1040
0.0
1040
0.0
1040
0.0
1040
1.0
1040
1.0
1040
10.0
1040
10.0
1070
     0
1002
{
1002
}
1002
}
1001
GENIUS_GENODEF_13
1002
{
1000
HIER
1070
     0
1002
}
1002
{
1000
MANEDIT
1070
     0
1002
}
1002
{
1000
NOSEL
1070
     0
1002
}
1002
{
1000
BEHIND
1070
     0
1002
}
1002
{
1000
OTHER
1070
     0
1002
}
1002
{
1000
REACTOR
1002
}
1001
GENIUS_GENOBJ-N-SDF_13
1002
{
1000
OWNER
1000
GEN
1002
}
1001
GENIUS_GENSCREG_15
1000
PF
1040
1.0
1000
DF
1040
1.0
1000
MIN
1011
0.0
1021
0.0
1031
0.0
1021
0.0
1031
0.0
1000
MAX
1011
523.0353982300885036
1021
0.0
1031
0.0
1021
297.0
1031
0.0
1000
FLAGS
1070
     4
  0
ENDSEC
  0
EOF
