  0
SECTION
  2
HEADER
  9
$ACADVER
  1
AC1009
  9
$INSBASE
 10
0.0
 20
0.0
 30
0.0
  9
$EXTMIN
 10
-35.3897462000000118
 20
-25.0
 30
0.0
  9
$EXTMAX
 10
108.4429115500000051
 20
61.0000000000000213
 30
0.0
  9
$LIMMIN
 10
0.0
 20
0.0
  9
$LIMMAX
 10
420.0
 20
297.0
  9
$ORTHOMODE
 70
     0
  9
$REGENMODE
 70
     1
  9
$FILLMODE
 70
     1
  9
$QTEXTMODE
 70
     0
  9
$MIRRTEXT
 70
     1
  9
$DRAGMODE
 70
     2
  9
$LTSCALE
 40
10.0
  9
$OSMODE
 70
   807
  9
$ATTMODE
 70
     1
  9
$TEXTSIZE
 40
3.0
  9
$TRACEWID
 40
1.0
  9
$TEXTSTYLE
  7
YOKO
  9
$CLAYER
  8
240
  9
$CELTYPE
  6
BYLAYER
  9
$CECOLOR
 62
   256
  9
$DIMSCALE
 40
1.0
  9
$DIMASZ
 40
2.2299999999999991
  9
$DIMEXO
 40
0.5
  9
$DIMDLI
 40
2.5
  9
$DIMRND
 40
0.0
  9
$DIMDLE
 40
0.0
  9
$DIMEXE
 40
1.0
  9
$DIMTP
 40
0.0
  9
$DIMTM
 40
0.0
  9
$DIMTXT
 40
2.799999999999998
  9
$DIMCEN
 40
0.0
  9
$DIMTSZ
 40
0.0
  9
$DIMTOL
 70
     0
  9
$DIMLIM
 70
     0
  9
$DIMTIH
 70
     0
  9
$DIMTOH
 70
     0
  9
$DIMSE1
 70
     0
  9
$DIMSE2
 70
     0
  9
$DIMTAD
 70
     3
  9
$DIMZIN
 70
     8
  9
$DIMBLK
  1

  9
$DIMASO
 70
     1
  9
$DIMSHO
 70
     1
  9
$DIMPOST
  1

  9
$DIMAPOST
  1

  9
$DIMALT
 70
     0
  9
$DIMALTD
 70
     2
  9
$DIMALTF
 40
25.3999999999999986
  9
$DIMLFAC
 40
1.0
  9
$DIMTOFL
 70
     1
  9
$DIMTVP
 40
0.0
  9
$DIMTIX
 70
     1
  9
$DIMSOXD
 70
     0
  9
$DIMSAH
 70
     1
  9
$DIMBLK1
  1
OPEN
  9
$DIMBLK2
  1
OPEN
  9
$DIMSTYLE
  2
BIGT
  9
$DIMCLRD
 70
   256
  9
$DIMCLRE
 70
   256
  9
$DIMCLRT
 70
    40
  9
$DIMTFAC
 40
1.0
  9
$DIMGAP
 40
1.0
  9
$LUNITS
 70
     2
  9
$LUPREC
 70
     2
  9
$SKETCHINC
 40
1.0
  9
$FILLETRAD
 40
0.0
  9
$AUNITS
 70
     0
  9
$AUPREC
 70
     3
  9
$MENU
  1
.
  9
$ELEVATION
 40
0.0
  9
$PELEVATION
 40
0.0
  9
$THICKNESS
 40
0.0
  9
$LIMCHECK
 70
     0
  9
$BLIPMODE
 70
     0
  9
$CHAMFERA
 40
10.0
  9
$CHAMFERB
 40
10.0
  9
$SKPOLY
 70
     0
  9
$TDCREATE
 40
2455447.7103703701868653
  9
$TDUPDATE
 40
2458295.654074075166136
  9
$TDINDWG
 40
0.0148763657
  9
$TDUSRTIMER
 40
0.0148763657
  9
$USRTIMER
 70
     1
  9
$ANGBASE
 50
0.0
  9
$ANGDIR
 70
     0
  9
$PDMODE
 70
     1
  9
$PDSIZE
 40
-5.0
  9
$PLINEWID
 40
0.0
  9
$COORDS
 70
     1
  9
$SPLFRAME
 70
     0
  9
$SPLINETYPE
 70
     6
  9
$SPLINESEGS
 70
     8
  9
$ATTDIA
 70
     1
  9
$ATTREQ
 70
     1
  9
$HANDLING
 70
     1
  9
$HANDSEED
  5
EE2
  9
$SURFTAB1
 70
     6
  9
$SURFTAB2
 70
     6
  9
$SURFTYPE
 70
     6
  9
$SURFU
 70
     6
  9
$SURFV
 70
     6
  9
$UCSNAME
  2

  9
$UCSORG
 10
0.0
 20
0.0
 30
0.0
  9
$UCSXDIR
 10
1.0
 20
0.0
 30
0.0
  9
$UCSYDIR
 10
0.0
 20
1.0
 30
0.0
  9
$PUCSNAME
  2

  9
$PUCSORG
 10
0.0
 20
0.0
 30
0.0
  9
$PUCSXDIR
 10
1.0
 20
0.0
 30
0.0
  9
$PUCSYDIR
 10
0.0
 20
1.0
 30
0.0
  9
$USERI1
 70
     1
  9
$USERI2
 70
     0
  9
$USERI3
 70
     0
  9
$USERI4
 70
     0
  9
$USERI5
 70
     0
  9
$USERR1
 40
0.0
  9
$USERR2
 40
0.0
  9
$USERR3
 40
0.0
  9
$USERR4
 40
0.0
  9
$USERR5
 40
0.0
  9
$WORLDVIEW
 70
     1
  9
$SHADEDGE
 70
     3
  9
$SHADEDIF
 70
    70
  9
$TILEMODE
 70
     1
  9
$MAXACTVP
 70
    16
  9
$PLIMCHECK
 70
     0
  9
$PEXTMIN
 10
1.0000000000000000E+20
 20
1.0000000000000000E+20
 30
1.0000000000000000E+20
  9
$PEXTMAX
 10
-1.0000000000000000E+20
 20
-1.0000000000000000E+20
 30
-1.0000000000000000E+20
  9
$PLIMMIN
 10
0.0
 20
0.0
  9
$PLIMMAX
 10
420.0
 20
297.0
  9
$UNITMODE
 70
     0
  9
$VISRETAIN
 70
     0
  9
$PLINEGEN
 70
     0
  9
$PSLTSCALE
 70
     1
  0
ENDSEC
  0
SECTION
  2
TABLES
  0
TABLE
  2
VPORT
 70
     1
  0
VPORT
  2
*ACTIVE
 70
     0
 10
0.0
 20
0.0
 11
1.0
 21
1.0
 12
58.8575451659866076
 22
14.6872692908323206
 13
0.0
 23
0.0
 14
7.0
 24
7.0
 15
7.0
 25
7.0
 16
0.0
 26
0.0
 36
1.0
 17
0.0
 27
0.0
 37
0.0
 40
172.9432471972058067
 41
1.887387387387387
 42
50.0
 43
0.0
 44
0.0
 50
0.0
 51
0.0
 71
     0
 72
  2000
 73
     1
 74
     0
 75
     0
 76
     1
 77
     0
 78
     0
  0
ENDTAB
  0
TABLE
  2
LTYPE
 70
    22
  0
LTYPE
  2
CONTINUOUS
 70
     0
  3
Solid line
 72
    65
 73
     0
 40
0.0
  0
LTYPE
  2
CENTER2
 70
     0
  3
___ _ ___ _ ___ _ ___ _ ___ _ ___ _ ___ _ ___ _
 72
    65
 73
     4
 40
1.125
 49
0.75
 49
-0.125
 49
0.125
 49
-0.125
  0
LTYPE
  2
HIDDEN2
 70
     0
  3
_ _ _ _ _ _ _ _ _ _ _ _ _ _ _ _ _ _ _ _ _ _ _ _
 72
    65
 73
     2
 40
0.1875
 49
0.125
 49
-0.0625
  0
LTYPE
  2
HIDDEN
 70
     0
  3
Hidden __ __ __ __ __ __ __ __ __ __ __ __ __ _
 72
    65
 73
     2
 40
9.5249999999999986
 49
6.3499999999999979
 49
-3.174999999999998
  0
LTYPE
  2
PHANTOM2
 70
     0
  3
Phantom (.5x) ___ _ _ ___ _ _ ___ _ _ ___ _ _
 72
    65
 73
     6
 40
31.75
 49
15.875
 49
-3.174999999999998
 49
3.174999999999998
 49
-3.174999999999998
 49
3.174999999999998
 49
-3.174999999999998
  0
LTYPE
  2
CENTER
 70
     0
  3
Center ____ _ ____ _ ____ _ ____ _ ____ _ ____
 72
    65
 73
     4
 40
50.7999999999999972
 49
31.75
 49
-6.3499999999999979
 49
6.3499999999999979
 49
-6.3499999999999979
  0
LTYPE
  2
AMCONSTR
 70
     0
  3
_______________________
 72
    65
 73
     2
 40
9999.0
 49
9999.0
 49
0.0
  0
LTYPE
  2
AMZIGZAG2
 70
     0
  3
/\/-/\/-/\/-/\/-/\/-/\/
 72
    65
 73
     2
 40
0.4401
 49
0.0001
 49
-0.4400000000000003
  0
LTYPE
  2
ACANSTGB
 70
     0
  3
__ . . __ . .
 72
    65
 73
     6
 40
0.35433070866
 49
0.15748031496
 49
-0.03937007874
 49
0.03937007874
 49
-0.03937007874
 49
0.03937007874
 49
-0.03937007874
  0
LTYPE
  2
ACANSTGL
 70
     0
  3
_ _ _ _ _
 72
    65
 73
     2
 40
0.11811023622
 49
0.07874015748
 49
-0.03937007874
  0
ENDTAB
  0
TABLE
  2
LAYER
 70
     9
  0
LAYER
  2
0
 70
     0
 62
     7
  6
CONTINUOUS
  0
LAYER
  2
240
 70
     0
 62
     4
  6
CONTINUOUS
  0
LAYER
  2
241
 70
     0
 62
   211
  6
CONTINUOUS
  0
LAYER
  2
242
 70
     0
 62
     3
  6
CONTINUOUS
  0
LAYER
  2
245
 70
     0
 62
     2
  6
CENTER2
  0
LAYER
  2
250
 70
     0
 62
     3
  6
CONTINUOUS
  0
LAYER
  2
DEFPOINTS
 70
     0
 62
     7
  6
CONTINUOUS
  0
LAYER
  2
247
 70
     0
 62
    60
  6
CONTINUOUS
  0
LAYER
  2
243
 70
     0
 62
   211
  6
HIDDEN2
  0
ENDTAB
  0
TABLE
  2
STYLE
 70
     9
  0
STYLE
  2
STANDARD
 70
     0
 40
0.0
 41
1.0
 50
0.0
 71
     0
 42
3.0
  3
romans.shx
  4
BIGFONT.SHX
  0
STYLE
  2
YOKO
 70
     0
 40
0.0
 41
1.0
 50
0.0
 71
     0
 42
3.0
  3
romans.shx
  4
extfont.shx
  0
STYLE
  2
ACANSGDT
 70
     0
 40
0.0
 41
1.0
 50
0.0
 71
     0
 42
3.0
  3
amgdt.shx
  4

  0
ENDTAB
  0
TABLE
  2
VIEW
 70
     1
  0
VIEW
  2
OLE1
 70
     0
 40
104.8217471899999964
 10
38.0267030999999989
 20
18.0063787899999994
 41
147.6436639599999978
 11
0.0
 21
0.0
 31
1.0
 12
0.0
 22
0.0
 32
0.0
 42
50.0
 43
0.0
 44
0.0
 50
0.0
 71
     0
  0
ENDTAB
  0
TABLE
  2
UCS
 70
     0
  0
ENDTAB
  0
TABLE
  2
APPID
 70
    26
  0
APPID
  2
ACAD
 70
     0
  0
APPID
  2
ACADANNOTATIVE
 70
     0
  0
APPID
  2
GLOBAL
 70
     0
  0
APPID
  2
DETAIL
 70
     0
  0
APPID
  2
GRPNAME
 70
     0
  0
APPID
  2
GPARA
 70
     0
  0
APPID
  2
DCO15
 70
     0
  0
APPID
  2
ITEMNAME
 70
     0
  0
APPID
  2
GRADE_0
 70
     0
  0
APPID
  2
CONTENTBLOCKICON
 70
     0
  0
APPID
  2
MCAD_NO_VIS
 70
     0
  0
APPID
  2
ACAD_TEMP_GRAPHIC
 70
     0
  0
APPID
  2
ACATTRIBSERVICES
 70
     0
  0
APPID
  2
DESIGNERASSEMBLIES
 70
     0
  0
APPID
  2
ACAD_DSTYLE_DIMJAG
 70
     0
  0
APPID
  2
ACAD_DSTYLE_DIMBREAK
 70
     0
  0
APPID
  2
GENIUS_GENSCREG_15
 70
     0
  0
APPID
  2
GENIUS_GENOBJ-N-SDF_13
 70
     0
  0
APPID
  2
GENIUS_GENODEF_13
 70
     0
  0
APPID
  2
ACAD_NAV_VCDISPLAY
 70
     0
  0
APPID
  2
GENIUS_GENOBJ-N-FIL_13
 70
     0
  0
APPID
  2
ACAECLAYERSTANDARD
 70
     0
  0
APPID
  2
GENIUS_GENDTOL_13
 70
     0
  0
APPID
  2
ACAD_DSTYLE_DIMINSPECT
 70
     0
  0
APPID
  2
ACAD_MLEADERVER
 70
     0
  0
APPID
  2
ACAD_EXEMPT_FROM_CAD_STANDARDS
 70
     0
  0
ENDTAB
  0
TABLE
  2
DIMSTYLE
 70
    24
  0
DIMSTYLE
  2
STANDARD
 70
     0
  3

  4

  5

  6

  7

 40
1.0
 41
0.18
 42
0.0625
 43
0.38
 44
0.18
 45
0.0
 46
0.0
 47
0.0
 48
0.0
140
0.18
141
0.09
142
0.0
143
25.3999999999999986
144
1.0
145
0.0
146
1.0
147
0.09
 71
     0
 72
     0
 73
     1
 74
     1
 75
     0
 76
     0
 77
     0
 78
     0
170
     0
171
     2
172
     0
173
     0
174
     0
175
     0
176
     0
177
     0
178
     0
  0
DIMSTYLE
  2
BIGT
 70
     0
  3

  4

  5

  6

  7

 40
1.0
 41
2.2299999999999991
 42
0.5
 43
2.5
 44
1.0
 45
0.0
 46
0.0
 47
0.0
 48
0.0
140
2.799999999999998
141
0.0
142
0.0
143
25.3999999999999986
144
1.0
145
0.0
146
1.0
147
1.0
 71
     0
 72
     0
 73
     0
 74
     0
 75
     0
 76
     0
 77
     3
 78
     8
170
     0
171
     2
172
     1
173
     1
174
     1
175
     0
176
   256
177
   256
178
    40
  0
DIMSTYLE
  2
AM_ANSI
 70
     0
  3

  4
mm
  5

  6

  7

 40
1.0
 41
0.1
 42
0.05
 43
0.5
 44
0.1
 45
0.0
 46
0.0
 47
0.1
 48
0.1
140
0.12
141
0.0
142
0.0
143
25.3999999999999986
144
1.0
145
0.0
146
0.71
147
0.06
 71
     0
 72
     0
 73
     1
 74
     1
 75
     0
 76
     0
 77
     0
 78
     7
170
     0
171
     2
172
     0
173
     0
174
     0
175
     0
176
   256
177
   256
178
     2
  0
DIMSTYLE
  2
AM_ANSI$3
 70
     0
  3

  4
mm
  5

  6

  7

 40
1.0
 41
0.1
 42
0.05
 43
0.5
 44
0.1
 45
0.0
 46
0.0
 47
0.1
 48
0.1
140
0.12
141
0.0
142
0.0
143
25.3999999999999986
144
1.0
145
0.0
146
0.71
147
0.06
 71
     0
 72
     0
 73
     1
 74
     1
 75
     0
 76
     0
 77
     0
 78
     7
170
     0
171
     2
172
     0
173
     0
174
     0
175
     0
176
   256
177
   256
178
     2
  0
DIMSTYLE
  2
AM_ANSI$4
 70
     0
  3

  4
mm
  5

  6

  7

 40
1.0
 41
0.1
 42
0.05
 43
0.5
 44
0.1
 45
0.0
 46
0.0
 47
0.1
 48
0.1
140
0.12
141
0.0
142
0.0
143
25.3999999999999986
144
1.0
145
0.0
146
0.71
147
0.06
 71
     0
 72
     0
 73
     1
 74
     1
 75
     0
 76
     0
 77
     0
 78
     7
170
     0
171
     2
172
     0
173
     0
174
     0
175
     0
176
   256
177
   256
178
     2
  0
DIMSTYLE
  2
AM_ANSI$7
 70
     0
  3

  4
mm
  5

  6

  7

 40
1.0
 41
0.1
 42
0.05
 43
0.5
 44
0.1
 45
0.0
 46
0.0
 47
0.1
 48
0.1
140
0.24
141
0.0
142
0.0
143
25.3999999999999986
144
1.0
145
0.0
146
0.71
147
0.06
 71
     0
 72
     0
 73
     1
 74
     1
 75
     0
 76
     0
 77
     0
 78
     7
170
     0
171
     2
172
     0
173
     0
174
     0
175
     0
176
   256
177
   256
178
     2
  0
DIMSTYLE
  2
AM_ANSI$SF
 70
     0
  3

  4
mm
  5

  6

  7

 40
1.0
 41
0.1
 42
0.05
 43
0.5
 44
0.1
 45
0.0
 46
0.0
 47
0.1
 48
0.1
140
0.12
141
0.0
142
0.0
143
25.3999999999999986
144
1.0
145
0.0
146
0.71
147
0.06
 71
     0
 72
     0
 73
     1
 74
     1
 75
     1
 76
     1
 77
     0
 78
     7
170
     0
171
     2
172
     0
173
     0
174
     0
175
     0
176
   256
177
   256
178
     2
  0
DIMSTYLE
  2
AM_ANSI$SH
 70
     0
  3

  4
mm
  5

  6

  7

 40
1.0
 41
0.1
 42
0.05
 43
0.5
 44
0.1
 45
0.0
 46
0.0
 47
0.1
 48
0.1
140
0.12
141
0.0
142
0.0
143
25.3999999999999986
144
1.0
145
0.0
146
0.71
147
0.06
 71
     0
 72
     0
 73
     1
 74
     1
 75
     1
 76
     1
 77
     0
 78
     7
170
     0
171
     2
172
     0
173
     1
174
     0
175
     0
176
   256
177
   256
178
     2
  0
ENDTAB
  0
ENDSEC
  0
SECTION
  2
BLOCKS
  0
BLOCK
  8
0
  2
$MODEL_SPACE
 70
     0
 10
0.0
 20
0.0
 30
0.0
  3
$MODEL_SPACE
  1

  0
ENDBLK
  5
DB4
  8
0
  0
BLOCK
 67
     1
  8
0
  2
$PAPER_SPACE
 70
     0
 10
0.0
 20
0.0
 30
0.0
  3
$PAPER_SPACE
  1

  0
ENDBLK
  5
DB0
 67
     1
  8
0
  0
BLOCK
  8
0
  2
_OPEN
 70
     0
 10
0.0
 20
0.0
 30
0.0
  3
_OPEN
  1

  0
LINE
  5
595
  8
0
  6
BYBLOCK
 62
     0
 10
-1.0
 20
0.16666667
 30
0.0
 11
0.0
 21
0.0
 31
0.0
  0
LINE
  5
596
  8
0
  6
BYBLOCK
 62
     0
 10
-1.0
 20
-0.16666667
 30
0.0
 11
0.0
 21
0.0
 31
0.0
  0
LINE
  5
597
  8
0
  6
BYBLOCK
 62
     0
 10
0.0
 20
0.0
 30
0.0
 11
-1.0
 21
0.0
 31
0.0
  0
ENDBLK
  5
599
  8
0
  0
BLOCK
  8
0
  2
矢印なし
 70
     0
 10
0.0
 20
0.0
 30
0.0
  3
矢印なし
  1

  0
ENDBLK
  5
6E5
  8
0
  0
BLOCK
  8
0
  2
_ACMFILLEDHALF
 70
     0
 10
0.0
 20
0.0
 30
0.0
  3
_ACMFILLEDHALF
  1

  0
TRACE
  5
E62
  8
240
 62
     0
 10
-0.8
 20
0.0
 30
0.0
 11
-1.0
 21
0.166666666
 31
0.0
 12
0.0
 22
0.0
 32
0.0
 13
0.0
 23
0.0
 33
0.0
  0
LINE
  5
E63
  8
240
 62
     0
 10
-1.0
 20
0.0
 30
0.0
 11
-0.8
 21
0.0
 31
0.0
  0
ENDBLK
  5
E61
  8
0
  0
ENDSEC
  0
SECTION
  2
ENTITIES
  0
INSERT
  5
6E6
  8
245
  2
矢印なし
 10
175.6238269700000103
 20
90.551235719999994
 30
0.0
  0
LINE
  5
8B1
  8
250
  6
CONTINUOUS
 10
-22.3230795300000011
 20
-24.7847399000000017
 30
0.0
 11
-35.3897462000000118
 21
-24.7847399000000017
 31
0.0
1001
ITEMNAME
1000
LNSP2
  0
LINE
  5
8FA
  8
250
  6
CONTINUOUS
 10
95.3762448800000016
 20
46.0121352299999984
 30
0.0
 11
108.4429115500000051
 21
46.0121352299999984
 31
0.0
1001
ITEMNAME
1000
LNSP2
  0
TEXT
  5
909
  8
241
  6
CONTINUOUS
 10
-30.0
 20
56.0
 30
0.0
 40
5.0
  1
CKB55-90
  7
YOKO
 11
-30.0
 21
56.0
 31
0.0
 73
     1
  0
LINE
  5
BB4
  8
247
  6
CONTINUOUS
 10
5.9999999999977671
 20
-17.7500000000002984
 30
0.0
 11
5.999999999997824
 21
-13.1153846156703295
 31
0.0
  0
LINE
  5
BB5
  8
247
  6
CONTINUOUS
 10
3.4999999999978231
 20
-16.9548934999882412
 30
0.0
 11
5.599999999913833
 21
-17.5570588100576614
 31
0.0
  0
LINE
  5
BB6
  8
247
  6
CONTINUOUS
 10
4.496153846111822
 20
-16.3251514035193317
 30
0.0
 11
4.496153846111822
 21
-17.2405360188673384
 31
0.0
  0
ARC
  5
BB7
  8
247
  6
CONTINUOUS
 10
3.884719067291925
 20
-16.0872634019471015
 30
0.0
 40
0.3876715809326743
 50
72.9978896752920008
 51
172.9241662185123118
  0
ARC
  5
BB8
  8
247
  6
CONTINUOUS
 10
3.8052231310258402
 20
-16.3824775568044103
 30
0.0
 40
0.6933047965358772
 50
4.7429368522013933
 51
73.8492262732662965
1001
GENIUS_GENOBJ-N-FIL_13
1002
{
1000
OWNER
1000
GEN
1002
}
1001
GENIUS_GENODEF_13
1002
{
1000
HIER
1070
     0
1002
}
1002
{
1000
MANEDIT
1070
     0
1002
}
1002
{
1000
NOSEL
1070
     0
1002
}
1002
{
1000
BEHIND
1070
     0
1002
}
1002
{
1000
OTHER
1070
     0
1002
}
1002
{
1000
REACTOR
1002
}
  0
LINE
  5
BB9
  8
247
  6
CONTINUOUS
 10
5.599999999913833
 20
-16.6416741947096583
 30
0.0
 11
5.599999999913833
 21
-17.5570588100576614
 31
0.0
  0
LINE
  5
BBA
  8
247
  6
CONTINUOUS
 10
3.4999999999978231
 20
-16.9548934999882484
 30
0.0
 11
3.4999999999978231
 21
-16.0395088846402487
 31
0.0
  0
ARC
  5
BBB
  8
247
  6
CONTINUOUS
 10
4.8874169627657
 20
-16.3783064762671309
 30
0.0
 40
0.394857301075386
 50
65.9909416525288322
 51
172.2634434590694923
  0
ARC
  5
BBC
  8
247
  6
CONTINUOUS
 10
4.8912003273303961
 20
-16.7124466104272109
 30
0.0
 40
0.7123241612361686
 50
5.7019851642581392
 51
77.2773384368222622
1001
GENIUS_GENOBJ-N-FIL_13
1002
{
1000
OWNER
1000
GEN
1002
}
1001
GENIUS_GENODEF_13
1002
{
1000
HIER
1070
     0
1002
}
1002
{
1000
MANEDIT
1070
     0
1002
}
1002
{
1000
NOSEL
1070
     0
1002
}
1002
{
1000
BEHIND
1070
     0
1002
}
1002
{
1000
OTHER
1070
     0
1002
}
1002
{
1000
REACTOR
1002
}
  0
LINE
  5
BBD
  8
247
  6
CONTINUOUS
 10
5.599999999913833
 20
-15.6839818870636698
 30
0.0
 11
3.4999999999978262
 21
-15.0818165769942603
 31
0.0
  0
LINE
  5
BBE
  8
247
  6
CONTINUOUS
 10
3.4999999999978262
 20
-13.5856627309082594
 30
0.0
 11
3.4999999999978262
 21
-13.98167836430388
 31
0.0
  0
LINE
  5
BBF
  8
247
  6
CONTINUOUS
 10
5.599999999913833
 20
-14.6087396539442604
 30
0.0
 11
5.599999999913833
 21
-14.1779704231922707
 31
0.0
  0
ARC
  5
BC0
  8
247
  6
CONTINUOUS
 10
4.9582995950811881
 20
-13.3818165770702606
 30
0.0
 40
1.576855057639547
 50
202.3594881415272937
 51
254.9932485428460041
  0
ARC
  5
BC1
  8
247
  6
CONTINUOUS
 10
4.0658188585359643
 20
-13.8475113661335207
 30
0.0
 40
0.6234706797009447
 50
94.9945893190753736
 51
155.1663289573035911
1001
GENIUS_GENOBJ-N-FIL_13
1002
{
1000
OWNER
1000
GEN
1002
}
1001
GENIUS_GENODEF_13
1002
{
1000
HIER
1070
     0
1002
}
1002
{
1000
MANEDIT
1070
     0
1002
}
1002
{
1000
NOSEL
1070
     0
1002
}
1002
{
1000
BEHIND
1070
     0
1002
}
1002
{
1000
OTHER
1070
     0
1002
}
1002
{
1000
REACTOR
1002
}
  0
ARC
  5
BC2
  8
247
  6
CONTINUOUS
 10
4.6621021219672674
 20
-14.4441839510330698
 30
0.0
 40
0.9749472149106982
 50
15.8460965557798694
 51
82.3251370041691928
  0
ARC
  5
BC3
  8
247
  6
CONTINUOUS
 10
4.8714704019688941
 20
-14.0352116387725108
 30
0.0
 40
0.9271945638692008
 50
249.7136016704970132
 51
321.7887456564096169
1001
GENIUS_GENOBJ-N-FIL_13
1002
{
1000
OWNER
1000
GEN
1002
}
1001
GENIUS_GENODEF_13
1002
{
1000
HIER
1070
     0
1002
}
1002
{
1000
MANEDIT
1070
     0
1002
}
1002
{
1000
NOSEL
1070
     0
1002
}
1002
{
1000
BEHIND
1070
     0
1002
}
1002
{
1000
OTHER
1070
     0
1002
}
1002
{
1000
REACTOR
1002
}
  0
LINE
  5
BC4
  8
247
  6
CONTINUOUS
 10
4.792307692253801
 20
-13.9625858078162608
 30
0.0
 11
4.792307692253801
 21
-13.4779704232202597
 31
0.0
  0
ARC
  5
BC5
  8
247
  6
CONTINUOUS
 10
4.749999999997824
 20
-17.7500000000002984
 30
0.0
 40
1.25
 50
180.0
 51
0.0
  0
LINE
  5
BC6
  8
247
  6
CONTINUOUS
 10
3.4999999999978231
 20
-17.7500000000002984
 30
0.0
 11
3.4999999999978231
 21
-17.3038461539143
 31
0.0
  0
ARC
  5
BC7
  8
247
  6
CONTINUOUS
 10
4.749999999997824
 20
-13.11538461567031
 30
0.0
 40
1.25
 50
0.0
 51
180.0
  0
LINE
  5
BC8
  8
245
  6
CENTER2
 10
-31.0
 20
0.0
 30
0.0
 11
91.0
 21
0.0
 31
0.0
  0
LINE
  5
BC9
  8
240
  6
CONTINUOUS
 10
90.0
 20
25.0
 30
0.0
 11
0.0
 21
25.0
 31
0.0
  0
LINE
  5
BCA
  8
240
  6
CONTINUOUS
 10
90.0
 20
-25.0
 30
0.0
 11
0.0
 21
-25.0
 31
0.0
  0
LINE
  5
BCB
  8
240
  6
CONTINUOUS
 10
-30.0
 20
14.0
 30
0.0
 11
-13.0383756700000006
 21
14.0
 31
0.0
  0
LINE
  5
BCC
  8
240
  6
CONTINUOUS
 10
-30.0
 20
-14.0
 30
0.0
 11
-13.0383756700000006
 21
-14.0
 31
0.0
  0
LINE
  5
BD0
  8
240
  6
CONTINUOUS
 10
-30.0
 20
-14.0
 30
0.0
 11
-30.0
 21
14.0
 31
0.0
  0
LINE
  5
BD1
  8
240
  6
CONTINUOUS
 10
0.0
 20
-25.0
 30
0.0
 11
0.0
 21
-14.0
 31
0.0
  0
LINE
  5
BD2
  8
240
  6
CONTINUOUS
 10
-11.5949999950000002
 20
-16.5
 30
0.0
 11
-13.0383756700000006
 21
-14.0
 31
0.0
  0
LINE
  5
BD3
  8
240
  6
CONTINUOUS
 10
-3.405000004999998
 20
-16.5
 30
0.0
 11
-1.96162433
 21
-14.0
 31
0.0
  0
LINE
  5
BD5
  8
240
  6
CONTINUOUS
 10
-11.5949999950000002
 20
-16.5
 30
0.0
 11
-3.405000004999998
 21
-16.5
 31
0.0
  0
LINE
  5
BD9
  8
241
  6
CONTINUOUS
 10
-13.0383756700000006
 20
-14.0
 30
0.0
 11
-1.96162433
 21
-14.0
 31
0.0
  0
LINE
  5
BDA
  8
245
  6
CENTER2
 10
-13.0
 20
6.0
 30
0.0
 11
-13.0
 21
-6.0
 31
0.0
  0
CIRCLE
  5
BDC
  8
241
  6
CONTINUOUS
 10
-13.0
 20
0.0
 30
0.0
 40
4.0
  0
CIRCLE
  5
BDD
  8
241
  6
CONTINUOUS
 10
-13.0
 20
0.0
 30
0.0
 40
5.0
  0
LINE
  5
BDF
  8
241
  6
CONTINUOUS
 10
0.0
 20
14.0
 30
0.0
 11
0.0
 21
-14.0
 31
0.0
  0
LINE
  5
BE0
  8
240
  6
CONTINUOUS
 10
0.0
 20
-14.0
 30
0.0
 11
-1.96162433
 21
-14.0
 31
0.0
  0
LINE
  5
BE2
  8
241
  6
CONTINUOUS
 10
-13.0383756700000006
 20
14.0
 30
0.0
 11
-1.96162433
 21
14.0
 31
0.0
  0
LINE
  5
BE3
  8
240
  6
CONTINUOUS
 10
-11.5949999950000002
 20
16.5
 30
0.0
 11
-13.0383756700000006
 21
14.0
 31
0.0
  0
LINE
  5
BE5
  8
240
  6
CONTINUOUS
 10
-11.5949999950000002
 20
16.5
 30
0.0
 11
-3.405000004999998
 21
16.5
 31
0.0
  0
LINE
  5
BE6
  8
240
  6
CONTINUOUS
 10
0.0
 20
14.0
 30
0.0
 11
0.0
 21
25.0
 31
0.0
  0
LINE
  5
BE7
  8
240
  6
CONTINUOUS
 10
0.0
 20
14.0
 30
0.0
 11
-1.961624329999998
 21
14.0
 31
0.0
  0
LINE
  5
BE8
  8
240
  6
CONTINUOUS
 10
-3.4050000050000002
 20
16.5
 30
0.0
 11
-1.961624329999998
 21
14.0
 31
0.0
  0
LINE
  5
BEC
  8
243
  6
HIDDEN2
 10
58.0
 20
14.0
 30
0.0
 11
90.0
 21
14.0
 31
0.0
  0
LINE
  5
BEE
  8
245
  6
CENTER2
 10
77.0
 20
6.0
 30
0.0
 11
77.0
 21
-6.0
 31
0.0
1001
GRPNAME
1000
PASTMD1U
  0
CIRCLE
  5
BEF
  8
242
  6
CONTINUOUS
 10
77.0
 20
0.0
 30
0.0
 40
4.5
  0
CIRCLE
  5
BF0
  8
241
  6
CONTINUOUS
 10
77.0
 20
0.0
 30
0.0
 40
5.0
  0
LINE
  5
BF2
  8
240
  6
CONTINUOUS
 10
90.0
 20
25.0
 30
0.0
 11
90.0
 21
-25.0
 31
0.0
  0
TEXT
  5
BF5
  8
250
  6
CONTINUOUS
 10
97.776244879999993
 20
47.0121352299999771
 30
0.0
 40
2.799999999999998
  1
CK5
  7
YOKO
1001
ITEMNAME
1000
LNSP3
1001
ACAD
1000
MTEXTBEGIN
1070
    73
1070
     1
1070
    44
1040
1.0
1070
    74
1070
     0
1000
MTEXTEND
1000
MTEXTBEGIN
1070
    73
1070
     1
1070
    44
1040
1.0
1070
    74
1070
     0
1000
MTEXTEND
  0
LINE
  5
BF8
  8
250
  6
CONTINUOUS
 10
0.0
 20
25.5
 30
0.0
 11
0.0
 21
43.0
 31
0.0
  0
LINE
  5
BF9
  8
250
  6
CONTINUOUS
 10
90.0
 20
25.5
 30
0.0
 11
90.0
 21
43.0
 31
0.0
  0
LINE
  5
BFA
  8
250
  6
CONTINUOUS
 10
2.2299999999999991
 20
42.0
 30
0.0
 11
87.769999999999996
 21
42.0
 31
0.0
  0
LINE
  5
BFE
  8
250
  6
CONTINUOUS
 10
90.5
 20
-25.0
 30
0.0
 11
106.0
 21
-25.0
 31
0.0
  0
LINE
  5
BFF
  8
250
  6
CONTINUOUS
 10
90.5
 20
25.0
 30
0.0
 11
106.0
 21
25.0
 31
0.0
  0
LINE
  5
C00
  8
250
  6
CONTINUOUS
 10
105.0
 20
-22.7699999999999996
 30
0.0
 11
105.0
 21
22.7699999999999996
 31
0.0
  0
TEXT
  5
C04
  8
250
  6
CONTINUOUS
 10
-32.989746199999999
 20
-23.7847399000000017
 30
0.0
 40
2.799999999999998
  1
CK5
  7
YOKO
1001
ITEMNAME
1000
LNSP3
1001
ACAD
1000
MTEXTBEGIN
1070
    73
1070
     1
1070
    44
1040
1.0
1070
    74
1070
     0
1000
MTEXTEND
1000
MTEXTBEGIN
1070
    73
1070
     1
1070
    44
1040
1.0
1070
    74
1070
     0
1000
MTEXTEND
  0
LINE
  5
C07
  8
241
  6
CONTINUOUS
 10
74.5
 20
-1.443375669999998
 30
0.0
 11
77.0
 21
-2.8867513499999991
 31
0.0
  0
LINE
  5
C08
  8
241
  6
CONTINUOUS
 10
77.0
 20
-2.8867513499999991
 30
0.0
 11
79.5
 21
-1.443375669999998
 31
0.0
  0
LINE
  5
C09
  8
241
  6
CONTINUOUS
 10
79.5
 20
-1.443375669999998
 30
0.0
 11
79.5
 21
1.443375669999998
 31
0.0
  0
LINE
  5
C0A
  8
241
  6
CONTINUOUS
 10
79.5
 20
1.443375669999998
 30
0.0
 11
77.0
 21
2.8867513499999991
 31
0.0
  0
LINE
  5
C0B
  8
241
  6
CONTINUOUS
 10
77.0
 20
2.8867513499999991
 30
0.0
 11
74.5
 21
1.443375669999998
 31
0.0
  0
LINE
  5
C0C
  8
241
  6
CONTINUOUS
 10
74.5
 20
1.443375669999998
 30
0.0
 11
74.5
 21
-1.443375669999998
 31
0.0
  0
LINE
  5
C0D
  8
250
  6
CONTINUOUS
 10
84.3598829499111247
 20
26.9312366504906109
 30
0.0
 11
95.3762448800000016
 21
46.0121352299999984
 31
0.0
1001
ACAD
1000
DSTYLE
1002
{
1070
     6
1000
OPEN
1070
   343
1005
594
1002
}
  0
LINE
  5
C0E
  8
250
  6
CONTINUOUS
 10
84.6817557314303286
 20
26.7454033134554194
 30
0.0
 11
83.2448829500000045
 21
25.0
 31
0.0
  0
LINE
  5
C0F
  8
250
  6
CONTINUOUS
 10
84.0380101683919065
 20
27.1170699875258094
 30
0.0
 11
83.2448829500000045
 21
25.0
 31
0.0
  0
LINE
  5
C10
  8
250
  6
CONTINUOUS
 10
83.2448829500000045
 20
25.0
 30
0.0
 11
84.3598829499111247
 21
26.9312366504906109
 31
0.0
  0
TEXT
  5
C11
  8
250
  6
CONTINUOUS
 10
42.3333333333333286
 20
43.0
 30
0.0
 40
2.799999999999998
  1
90
1001
ACAD
1000
MTEXTBEGIN
1070
    73
1070
     1
1070
    44
1040
1.0
1070
    74
1070
     0
1000
MTEXTEND
1000
MTEXTBEGIN
1070
    73
1070
     1
1070
    44
1040
1.0
1070
    74
1070
     0
1000
MTEXTEND
  0
LINE
  5
C12
  8
250
  6
CONTINUOUS
 10
87.769999999999996
 20
42.3716666740999983
 30
0.0
 11
90.0
 21
42.0
 31
0.0
  0
LINE
  5
C13
  8
250
  6
CONTINUOUS
 10
87.769999999999996
 20
41.6283333258999875
 30
0.0
 11
90.0
 21
42.0
 31
0.0
  0
LINE
  5
C14
  8
250
  6
CONTINUOUS
 10
90.0
 20
42.0
 30
0.0
 11
87.769999999999996
 21
42.0
 31
0.0
  0
LINE
  5
C15
  8
250
  6
CONTINUOUS
 10
2.2299999999999991
 20
41.6283333258999875
 30
0.0
 11
0.0
 21
42.0
 31
0.0
  0
LINE
  5
C16
  8
250
  6
CONTINUOUS
 10
2.2299999999999991
 20
42.3716666740999983
 30
0.0
 11
0.0
 21
42.0
 31
0.0
  0
LINE
  5
C17
  8
250
  6
CONTINUOUS
 10
0.0
 20
42.0
 30
0.0
 11
2.2299999999999991
 21
42.0
 31
0.0
  0
TEXT
  5
C18
  8
250
  6
CONTINUOUS
 10
104.0
 20
-3.9333333333333318
 30
0.0
 40
2.799999999999998
  1
\U+220550
 50
90.0
1001
ACAD
1000
MTEXTBEGIN
1070
    73
1070
     1
1070
    44
1040
1.0
1070
    74
1070
     0
1000
MTEXTEND
1000
MTEXTBEGIN
1070
    73
1070
     1
1070
    44
1040
1.0
1070
    74
1070
     0
1000
MTEXTEND
  0
LINE
  5
C19
  8
250
  6
CONTINUOUS
 10
104.6283333259000017
 20
22.7699999999999996
 30
0.0
 11
105.0
 21
25.0
 31
0.0
  0
LINE
  5
C1A
  8
250
  6
CONTINUOUS
 10
105.3716666740999983
 20
22.7699999999999996
 30
0.0
 11
105.0
 21
25.0
 31
0.0
  0
LINE
  5
C1B
  8
250
  6
CONTINUOUS
 10
105.0
 20
25.0
 30
0.0
 11
105.0
 21
22.7699999999999996
 31
0.0
  0
LINE
  5
C1C
  8
250
  6
CONTINUOUS
 10
105.3716666740999983
 20
-22.7699999999999996
 30
0.0
 11
105.0
 21
-25.0
 31
0.0
  0
LINE
  5
C1D
  8
250
  6
CONTINUOUS
 10
104.6283333259000017
 20
-22.7699999999999996
 30
0.0
 11
105.0
 21
-25.0
 31
0.0
  0
LINE
  5
C1E
  8
250
  6
CONTINUOUS
 10
105.0
 20
-25.0
 30
0.0
 11
105.0
 21
-22.7699999999999996
 31
0.0
  0
LINE
  5
C1F
  8
250
  6
CONTINUOUS
 10
-17.2115070494083788
 20
-15.9312366507808605
 30
0.0
 11
-22.3230795300000011
 21
-24.7847399000000017
 31
0.0
1001
ACAD
1000
DSTYLE
1002
{
1070
     6
1000
OPEN
1070
   343
1005
594
1002
}
  0
LINE
  5
C20
  8
250
  6
CONTINUOUS
 10
-17.5333798309759814
 20
-15.7454033138294704
 30
0.0
 11
-16.0965070499999996
 21
-14.0
 31
0.0
  0
LINE
  5
C21
  8
250
  6
CONTINUOUS
 10
-16.8896342678407798
 20
-16.1170699877322612
 30
0.0
 11
-16.0965070499999996
 21
-14.0
 31
0.0
  0
LINE
  5
C22
  8
250
  6
CONTINUOUS
 10
-16.0965070499999996
 20
-14.0
 30
0.0
 11
-17.2115070494083788
 21
-15.9312366507808605
 31
0.0
  0
LINE
  5
C23
  8
243
  6
HIDDEN2
 10
58.0
 20
-13.9999999999999893
 30
0.0
 11
90.0
 21
-14.0
 31
0.0
  0
VIEWPORT
  5
22
 67
     1
  8
0
 10
261.5176991199999748
 20
148.5
 30
0.0
 40
523.0353982300000553
 41
297.0
 68
     1
 69
     1
1001
ACAD
1000
MVIEW
1002
{
1070
    16
1010
0.0
1020
0.0
1030
0.0
1010
0.0
1020
0.0
1030
1.0
1040
0.0
1040
297.0
1040
261.5176991199999748
1040
148.5
1040
50.0
1040
0.0
1040
0.0
1070
     0
1070
   100
1070
     1
1070
     1
1070
     0
1070
     0
1070
     0
1070
     0
1040
0.0
1040
0.0
1040
0.0
1040
1.0
1040
1.0
1040
10.0
1040
10.0
1070
     0
1002
{
1002
}
1002
}
1001
GENIUS_GENOBJ-N-SDF_13
1002
{
1000
OWNER
1000
GEN
1002
}
1001
GENIUS_GENODEF_13
1002
{
1000
HIER
1070
     0
1002
}
1002
{
1000
MANEDIT
1070
     0
1002
}
1002
{
1000
NOSEL
1070
     0
1002
}
1002
{
1000
BEHIND
1070
     0
1002
}
1002
{
1000
OTHER
1070
     0
1002
}
1002
{
1000
REACTOR
1002
}
1001
GENIUS_GENSCREG_15
1000
PF
1040
1.0
1000
DF
1040
1.0
1000
MIN
1011
0.0000000049999471
1021
0.0
1031
0.0
1021
0.0
1031
0.0
1000
MAX
1011
523.0353982350000024
1021
0.0
1031
0.0
1021
297.0
1031
0.0
1000
FLAGS
1070
     4
  0
ENDSEC
  0
EOF
