  0
SECTION
  2
HEADER
  9
$ACADVER
  1
AC1009
  9
$INSBASE
 10
0.0
 20
0.0
 30
0.0
  9
$EXTMIN
 10
-32.4160750899963404
 20
-27.0
 30
0.0
  9
$EXTMAX
 10
107.5048772799843988
 20
61.0000000000000071
 30
0.0
  9
$LIMMIN
 10
0.0
 20
0.0
  9
$LIMMAX
 10
297.0
 20
210.0
  9
$ORTHOMODE
 70
     1
  9
$REGENMODE
 70
     1
  9
$FILLMODE
 70
     1
  9
$QTEXTMODE
 70
     0
  9
$MIRRTEXT
 70
     1
  9
$DRAGMODE
 70
     2
  9
$LTSCALE
 40
10.0
  9
$OSMODE
 70
   807
  9
$ATTMODE
 70
     1
  9
$TEXTSIZE
 40
3.0
  9
$TRACEWID
 40
1.0
  9
$TEXTSTYLE
  7
YOKO
  9
$CLAYER
  8
240
  9
$CELTYPE
  6
BYLAYER
  9
$CECOLOR
 62
   256
  9
$DIMSCALE
 40
1.0
  9
$DIMASZ
 40
2.2299999999999991
  9
$DIMEXO
 40
0.5
  9
$DIMDLI
 40
7.0
  9
$DIMRND
 40
0.0
  9
$DIMDLE
 40
0.0
  9
$DIMEXE
 40
1.0
  9
$DIMTP
 40
0.0
  9
$DIMTM
 40
0.01
  9
$DIMTXT
 40
2.799999999999998
  9
$DIMCEN
 40
0.0
  9
$DIMTSZ
 40
0.0
  9
$DIMTOL
 70
     0
  9
$DIMLIM
 70
     0
  9
$DIMTIH
 70
     0
  9
$DIMTOH
 70
     0
  9
$DIMSE1
 70
     0
  9
$DIMSE2
 70
     0
  9
$DIMTAD
 70
     3
  9
$DIMZIN
 70
     9
  9
$DIMBLK
  1
OPEN
  9
$DIMASO
 70
     1
  9
$DIMSHO
 70
     1
  9
$DIMPOST
  1

  9
$DIMAPOST
  1

  9
$DIMALT
 70
     0
  9
$DIMALTD
 70
     2
  9
$DIMALTF
 40
25.3999999999999986
  9
$DIMLFAC
 40
1.0
  9
$DIMTOFL
 70
     1
  9
$DIMTVP
 40
0.0
  9
$DIMTIX
 70
     1
  9
$DIMSOXD
 70
     0
  9
$DIMSAH
 70
     0
  9
$DIMBLK1
  1

  9
$DIMBLK2
  1

  9
$DIMSTYLE
  2
BIGT
  9
$DIMCLRD
 70
   256
  9
$DIMCLRE
 70
   256
  9
$DIMCLRT
 70
    40
  9
$DIMTFAC
 40
1.0
  9
$DIMGAP
 40
1.0
  9
$LUNITS
 70
     2
  9
$LUPREC
 70
     6
  9
$SKETCHINC
 40
1.0
  9
$FILLETRAD
 40
0.0
  9
$AUNITS
 70
     0
  9
$AUPREC
 70
     6
  9
$MENU
  1
.
  9
$ELEVATION
 40
0.0
  9
$PELEVATION
 40
0.0
  9
$THICKNESS
 40
0.0
  9
$LIMCHECK
 70
     0
  9
$BLIPMODE
 70
     0
  9
$CHAMFERA
 40
0.2
  9
$CHAMFERB
 40
0.2
  9
$SKPOLY
 70
     0
  9
$TDCREATE
 40
2457745.688333333004266
  9
$TDUPDATE
 40
2458296.6825000001117587
  9
$TDINDWG
 40
0.0187457639
  9
$TDUSRTIMER
 40
0.0187457176
  9
$USRTIMER
 70
     1
  9
$ANGBASE
 50
0.0
  9
$ANGDIR
 70
     0
  9
$PDMODE
 70
     1
  9
$PDSIZE
 40
0.0
  9
$PLINEWID
 40
0.0
  9
$COORDS
 70
     1
  9
$SPLFRAME
 70
     0
  9
$SPLINETYPE
 70
     6
  9
$SPLINESEGS
 70
     4
  9
$ATTDIA
 70
     1
  9
$ATTREQ
 70
     1
  9
$HANDLING
 70
     1
  9
$HANDSEED
  5
4ABE
  9
$SURFTAB1
 70
     6
  9
$SURFTAB2
 70
     6
  9
$SURFTYPE
 70
     6
  9
$SURFU
 70
     6
  9
$SURFV
 70
     6
  9
$UCSNAME
  2

  9
$UCSORG
 10
0.0
 20
0.0
 30
0.0
  9
$UCSXDIR
 10
1.0
 20
0.0
 30
0.0
  9
$UCSYDIR
 10
0.0
 20
1.0
 30
0.0
  9
$PUCSNAME
  2

  9
$PUCSORG
 10
0.0
 20
0.0
 30
0.0
  9
$PUCSXDIR
 10
1.0
 20
0.0
 30
0.0
  9
$PUCSYDIR
 10
0.0
 20
1.0
 30
0.0
  9
$USERI1
 70
     1
  9
$USERI2
 70
     0
  9
$USERI3
 70
     0
  9
$USERI4
 70
     0
  9
$USERI5
 70
     0
  9
$USERR1
 40
0.0
  9
$USERR2
 40
0.0
  9
$USERR3
 40
0.0
  9
$USERR4
 40
0.0
  9
$USERR5
 40
0.0
  9
$WORLDVIEW
 70
     1
  9
$SHADEDGE
 70
     3
  9
$SHADEDIF
 70
    70
  9
$TILEMODE
 70
     1
  9
$MAXACTVP
 70
    16
  9
$PLIMCHECK
 70
     0
  9
$PEXTMIN
 10
1.0000000000000000E+20
 20
1.0000000000000000E+20
 30
1.0000000000000000E+20
  9
$PEXTMAX
 10
-1.0000000000000000E+20
 20
-1.0000000000000000E+20
 30
-1.0000000000000000E+20
  9
$PLIMMIN
 10
0.0
 20
0.0
  9
$PLIMMAX
 10
420.0
 20
297.0
  9
$UNITMODE
 70
     0
  9
$VISRETAIN
 70
     1
  9
$PLINEGEN
 70
     0
  9
$PSLTSCALE
 70
     1
  0
ENDSEC
  0
SECTION
  2
TABLES
  0
TABLE
  2
VPORT
 70
     1
  0
VPORT
  2
*ACTIVE
 70
     0
 10
0.0
 20
0.0
 11
1.0
 21
1.0
 12
81.2254813353077907
 22
15.2803336165330403
 13
0.0
 23
0.0
 14
7.0
 24
7.0
 15
7.0
 25
7.0
 16
0.0
 26
0.0
 36
1.0
 17
0.0
 27
0.0
 37
0.0
 40
154.0444150983362874
 41
1.887387387387387
 42
50.0
 43
0.0
 44
0.0
 50
0.0
 51
0.0
 71
     0
 72
  2000
 73
     1
 74
     0
 75
     0
 76
     1
 77
     0
 78
     0
  0
ENDTAB
  0
TABLE
  2
LTYPE
 70
    22
  0
LTYPE
  2
CONTINUOUS
 70
     0
  3
Solid line
 72
    65
 73
     0
 40
0.0
  0
LTYPE
  2
CENTER2
 70
     0
  3
___ _ ___ _ ___ _ ___ _ ___ _ ___ _ ___ _ ___ _
 72
    65
 73
     4
 40
1.125
 49
0.75
 49
-0.125
 49
0.125
 49
-0.125
  0
LTYPE
  2
HIDDEN2
 70
     0
  3
_ _ _ _ _ _ _ _ _ _ _ _ _ _ _ _ _ _ _ _ _ _ _ _
 72
    65
 73
     2
 40
0.1875
 49
0.125
 49
-0.0625
  0
LTYPE
  2
PHANTOM2
 70
     0
  3
___ _ _ ___ _ _ ___ _ _ ___ _ _ ___ _ _ ___ _ _
 72
    65
 73
     6
 40
1.25
 49
0.625
 49
-0.125
 49
0.125
 49
-0.125
 49
0.125
 49
-0.125
  0
LTYPE
  2
AMCONSTR
 70
     0
  3
_______________________
 72
    65
 73
     2
 40
9999.0
 49
9999.0
 49
0.0
  0
LTYPE
  2
HIDDEN
 70
     0
  3
Hidden __ __ __ __ __ __ __ __ __ __ __ __ __ _
 72
    65
 73
     2
 40
0.375
 49
0.25
 49
-0.125
  0
LTYPE
  2
CENTER
 70
     0
  3
Center ____ _ ____ _ ____ _ ____ _ ____ _ ____
 72
    65
 73
     4
 40
2.0
 49
1.25
 49
-0.25
 49
0.25
 49
-0.25
  0
LTYPE
  2
AMZIGZAG2
 70
     0
  3
/\/-/\/-/\/-/\/-/\/-/\/
 72
    65
 73
     2
 40
0.4401
 49
0.0001
 49
-0.4400000000000001
  0
LTYPE
  2
ACANSTGB
 70
     0
  3
__ . . __ . .
 72
    65
 73
     6
 40
0.35433070866
 49
0.15748031496
 49
-0.03937007874
 49
0.03937007874
 49
-0.03937007874
 49
0.03937007874
 49
-0.03937007874
  0
LTYPE
  2
ACANSTGL
 70
     0
  3
_ _ _ _ _
 72
    65
 73
     2
 40
0.11811023622
 49
0.07874015748
 49
-0.03937007874
  0
ENDTAB
  0
TABLE
  2
LAYER
 70
     8
  0
LAYER
  2
0
 70
     0
 62
     7
  6
CONTINUOUS
  0
LAYER
  2
240
 70
     0
 62
     4
  6
CONTINUOUS
  0
LAYER
  2
DEFPOINTS
 70
     0
 62
     7
  6
CONTINUOUS
  0
LAYER
  2
245
 70
     0
 62
     2
  6
CENTER2
  0
LAYER
  2
241
 70
     0
 62
   211
  6
CONTINUOUS
  0
LAYER
  2
243
 70
     0
 62
   211
  6
HIDDEN2
  0
LAYER
  2
250
 70
     0
 62
     3
  6
CONTINUOUS
  0
LAYER
  2
247
 70
     0
 62
    60
  6
CONTINUOUS
  0
ENDTAB
  0
TABLE
  2
STYLE
 70
    10
  0
STYLE
  2
STANDARD
 70
     0
 40
0.0
 41
1.0
 50
0.0
 71
     0
 42
3.0
  3
romans.shx
  4
extfont.shx
  0
STYLE
  2
YOKO
 70
     0
 40
0.0
 41
1.0
 50
0.0
 71
     0
 42
3.0
  3
romans.shx
  4
extfont.shx
  0
STYLE
  2

 70
     1
 40
0.0
 41
1.0
 50
0.0
 71
     0
 42
3.0
  3
genltshp.shx
  4

  0
STYLE
  2
ACANSGDT
 70
     0
 40
0.0
 41
1.0
 50
0.0
 71
     0
 42
3.0
  3
amgdt.shx
  4

  0
ENDTAB
  0
TABLE
  2
VIEW
 70
     0
  0
ENDTAB
  0
TABLE
  2
UCS
 70
     0
  0
ENDTAB
  0
TABLE
  2
APPID
 70
    46
  0
APPID
  2
ACAD
 70
     0
  0
APPID
  2
ACADANNOTATIVE
 70
     0
  0
APPID
  2
GLOBAL
 70
     0
  0
APPID
  2
DETAIL
 70
     0
  0
APPID
  2
GRPNAME
 70
     0
  0
APPID
  2
GPARA
 70
     0
  0
APPID
  2
MCAD_NO_VIS
 70
     0
  0
APPID
  2
ACAD_TEMP_GRAPHIC
 70
     0
  0
APPID
  2
ACATTRIBSERVICES
 70
     0
  0
APPID
  2
GENIUS_GENSCREG_15
 70
     0
  0
APPID
  2
GENIUS_GENODEF_13
 70
     0
  0
APPID
  2
GENIUS_GENOBJ-N-SDF_13
 70
     0
  0
APPID
  2
GENIUS_GENREC_14
 70
     0
  0
APPID
  2
GENIUS_GENOBJ-N-REC_13
 70
     0
  0
APPID
  2
GENIUS_GENDIMSH_14
 70
     0
  0
APPID
  2
GENIUS_GENOBJ-N-DIM_13
 70
     0
  0
APPID
  2
GENIUS_GENDIM_13
 70
     0
  0
APPID
  2
GENIUS_GENDTOL_13
 70
     0
  0
APPID
  2
GENIUS_GENOLIS_13
 70
     0
  0
APPID
  2
GENIUS_GENOENT_13
 70
     0
  0
APPID
  2
GENIUS_GENOBJ-F-FEM_13
 70
     0
  0
APPID
  2
GENIUS_GENOREF_13
 70
     0
  0
APPID
  2
GENIUS_GEFFEM_13
 70
     0
  0
APPID
  2
GENIUS_GEFFEMP_13
 70
     0
  0
APPID
  2
AD_DRAW
 70
     0
  0
APPID
  2
DESIGNERASSEMBLIES
 70
     0
  0
APPID
  2
ACADM_DIM_EDIT
 70
     0
  0
APPID
  2
AMDT_DM_ADJ
 70
     0
  0
APPID
  2
ITEMNAME
 70
     0
  0
APPID
  2
GENIUS_GENOBJ-N-FIL_13
 70
     0
  0
APPID
  2
GENIUS_GENFIL_13
 70
     0
  0
APPID
  2
GENIUS_GENOBJ-N-CHA_13
 70
     0
  0
APPID
  2
ACAD_NAV_VCDISPLAY
 70
     0
  0
APPID
  2
ACAD_PSEXT
 70
     0
  0
APPID
  2
GRADE_0
 70
     0
  0
APPID
  2
ACAD_DSTYLE_DIMRADIAL_EXTENSION
 70
     0
  0
APPID
  2
ACAD_EXEMPT_FROM_CAD_STANDARDS
 70
     0
  0
APPID
  2
GENIUS_GENOBJ-N-HTC_13
 70
     0
  0
APPID
  2
GENIUS_GENHATCH_13
 70
     0
  0
APPID
  2
ACAD_DSTYLE_DIMJAG
 70
     0
  0
APPID
  2
ACAD_DSTYLE_DIMBREAK
 70
     0
  0
APPID
  2
ACAD_MLEADERVER
 70
     0
  0
APPID
  2
ACAD_DSTYLE_DIMARC_LENGTH_
 70
     0
  0
APPID
  2
ACAD_DSTYLE_DIM_LINETYPE
 70
     0
  0
APPID
  2
ACAD_DSTYLE_DIM_EXT1_LINETYPE
 70
     0
  0
APPID
  2
ACAD_DSTYLE_DIM_EXT2_LINETYPE
 70
     0
  0
ENDTAB
  0
TABLE
  2
DIMSTYLE
 70
    31
  0
DIMSTYLE
  2
STANDARD
 70
     0
  3

  4

  5

  6

  7

 40
1.0
 41
0.18
 42
0.0625
 43
0.38
 44
0.18
 45
0.0
 46
0.0
 47
0.0
 48
0.0
140
0.18
141
0.09
142
0.0
143
25.3999999999999986
144
1.0
145
0.0
146
1.0
147
0.09
 71
     0
 72
     0
 73
     1
 74
     1
 75
     0
 76
     0
 77
     0
 78
     0
170
     0
171
     2
172
     0
173
     0
174
     0
175
     0
176
     0
177
     0
178
     0
  0
DIMSTYLE
  2
BIGT
 70
     0
  3

  4

  5

  6

  7

 40
1.0
 41
2.2299999999999991
 42
0.5
 43
7.0
 44
1.0
 45
0.0
 46
0.0
 47
0.0
 48
0.01
140
2.799999999999998
141
0.0
142
0.0
143
25.3999999999999986
144
1.0
145
0.0
146
1.0
147
1.0
 71
     0
 72
     0
 73
     0
 74
     0
 75
     0
 76
     0
 77
     3
 78
     9
170
     0
171
     2
172
     1
173
     0
174
     1
175
     0
176
   256
177
   256
178
    40
  0
DIMSTYLE
  2
AM_ANSI
 70
     0
  3

  4
mm
  5

  6

  7

 40
1.0
 41
0.12
 42
0.05
 43
0.5
 44
0.1
 45
0.0
 46
0.0
 47
0.1
 48
0.1
140
0.12
141
0.0
142
0.0
143
25.3999999999999986
144
1.0
145
0.0
146
0.71
147
0.06
 71
     0
 72
     0
 73
     1
 74
     1
 75
     0
 76
     0
 77
     0
 78
     7
170
     0
171
     2
172
     0
173
     0
174
     0
175
     0
176
   256
177
   256
178
     2
  0
DIMSTYLE
  2
AM_ANSI$3
 70
     0
  3

  4
mm
  5

  6

  7

 40
1.0
 41
0.12
 42
0.05
 43
0.5
 44
0.1
 45
0.0
 46
0.0
 47
0.1
 48
0.1
140
0.12
141
0.0
142
0.0
143
25.3999999999999986
144
1.0
145
0.0
146
0.71
147
0.06
 71
     0
 72
     0
 73
     1
 74
     1
 75
     0
 76
     0
 77
     0
 78
     7
170
     0
171
     2
172
     0
173
     0
174
     0
175
     0
176
   256
177
   256
178
     2
  0
DIMSTYLE
  2
AM_ANSI$4
 70
     0
  3

  4
mm
  5

  6

  7

 40
1.0
 41
0.12
 42
0.05
 43
0.5
 44
0.1
 45
0.0
 46
0.0
 47
0.1
 48
0.1
140
0.12
141
0.0
142
0.0
143
25.3999999999999986
144
1.0
145
0.0
146
0.71
147
0.06
 71
     0
 72
     0
 73
     1
 74
     1
 75
     0
 76
     0
 77
     0
 78
     7
170
     0
171
     2
172
     0
173
     0
174
     0
175
     0
176
   256
177
   256
178
     2
  0
DIMSTYLE
  2
AM_ANSI$7
 70
     0
  3

  4
mm
  5

  6

  7

 40
1.0
 41
0.12
 42
0.05
 43
0.5
 44
0.1
 45
0.0
 46
0.0
 47
0.1
 48
0.1
140
0.12
141
0.0
142
0.0
143
25.3999999999999986
144
1.0
145
0.0
146
0.71
147
0.06
 71
     0
 72
     0
 73
     1
 74
     1
 75
     0
 76
     0
 77
     0
 78
     7
170
     0
171
     2
172
     0
173
     0
174
     0
175
     0
176
   256
177
   256
178
     2
  0
DIMSTYLE
  2
AM_ANSI$SF
 70
     0
  3

  4
mm
  5

  6

  7

 40
1.0
 41
0.12
 42
0.05
 43
0.5
 44
0.1
 45
0.0
 46
0.0
 47
0.1
 48
0.1
140
0.12
141
0.0
142
0.0
143
25.3999999999999986
144
1.0
145
0.0
146
0.71
147
0.06
 71
     0
 72
     0
 73
     1
 74
     1
 75
     1
 76
     1
 77
     0
 78
     7
170
     0
171
     2
172
     0
173
     0
174
     0
175
     0
176
   256
177
   256
178
     2
  0
DIMSTYLE
  2
AM_ANSI$SH
 70
     0
  3

  4
mm
  5

  6
GENAXEH
  7

 40
1.0
 41
0.12
 42
0.05
 43
0.5
 44
0.1
 45
0.0
 46
0.0
 47
0.1
 48
0.1
140
0.12
141
0.0
142
0.0
143
25.3999999999999986
144
1.0
145
0.0
146
0.71
147
0.06
 71
     0
 72
     0
 73
     1
 74
     1
 75
     1
 76
     1
 77
     0
 78
     7
170
     0
171
     2
172
     0
173
     1
174
     0
175
     0
176
   256
177
   256
178
     2
  0
ENDTAB
  0
ENDSEC
  0
SECTION
  2
BLOCKS
  0
BLOCK
  8
0
  2
$MODEL_SPACE
 70
     0
 10
0.0
 20
0.0
 30
0.0
  3
$MODEL_SPACE
  1

  0
ENDBLK
  5
4979
  8
0
  0
BLOCK
 67
     1
  8
0
  2
$PAPER_SPACE
 70
     0
 10
0.0
 20
0.0
 30
0.0
  3
$PAPER_SPACE
  1

  0
ENDBLK
  5
4975
 67
     1
  8
0
  0
BLOCK
  8
0
  2
_OPEN
 70
     0
 10
0.0
 20
0.0
 30
0.0
  3
_OPEN
  1

  0
LINE
  5
4810
  8
0
  6
BYBLOCK
 62
     0
 10
-1.0
 20
0.1666666666666666
 30
0.0
 11
0.0
 21
0.0
 31
0.0
  0
LINE
  5
4811
  8
0
  6
BYBLOCK
 62
     0
 10
-1.0
 20
-0.1666666666666666
 30
0.0
 11
0.0
 21
0.0
 31
0.0
  0
LINE
  5
4812
  8
0
  6
BYBLOCK
 62
     0
 10
0.0
 20
0.0
 30
0.0
 11
-1.0
 21
0.0
 31
0.0
  0
ENDBLK
  5
4813
  8
0
  0
BLOCK
  8
0
  2
GENAXEH
 70
     0
 10
0.0
 20
0.0
 30
0.0
  3
GENAXEH
  1

  0
LINE
  5
484B
  8
0
 10
-1.0
 20
0.0
 30
0.0
 11
1.0
 21
0.0
 31
0.0
  0
ENDBLK
  5
484C
  8
0
  0
BLOCK
  8
0
  2
_ACMFILLEDHALF
 70
     0
 10
0.0
 20
0.0
 30
0.0
  3
_ACMFILLEDHALF
  1

  0
TRACE
  5
4A41
  8
240
 62
     0
 10
-0.8
 20
0.0
 30
0.0
 11
-1.0
 21
0.166666666
 31
0.0
 12
0.0
 22
0.0
 32
0.0
 13
0.0
 23
0.0
 33
0.0
  0
LINE
  5
4A42
  8
240
 62
     0
 10
-1.0
 20
0.0
 30
0.0
 11
-0.8
 21
0.0
 31
0.0
  0
ENDBLK
  5
4A40
  8
0
  0
ENDSEC
  0
SECTION
  2
ENTITIES
  0
LINE
  5
42D7
  8
241
  6
CONTINUOUS
 10
66.4999999999812843
 20
-26.9999999999957687
 30
0.0
 11
66.4999999999812843
 21
26.9999999999958789
 31
0.0
  0
LINE
  5
436F
  8
245
  6
CENTER2
 10
-31.9999999999999396
 20
0.0
 30
0.0
 11
88.8230611274697139
 21
0.0
 31
0.0
  0
LINE
  5
4371
  8
241
  6
CONTINUOUS
 10
51.1999999999893021
 20
-27.0
 30
0.0
 11
51.1999999999892808
 21
26.9999999999981206
 31
0.0
  0
LINE
  5
4372
  8
241
  6
CONTINUOUS
 10
52.7999999999969418
 20
-26.9999999999963585
 30
0.0
 11
52.7999999999969489
 21
26.9999999999979003
 31
0.0
  0
LINE
  5
4373
  8
241
  6
CONTINUOUS
 10
54.199999999998397
 20
-26.9999999999963585
 30
0.0
 11
54.199999999998397
 21
26.9999999999976801
 31
0.0
  0
LINE
  5
4374
  8
241
  6
CONTINUOUS
 10
55.8000000000005798
 20
-27.0
 30
0.0
 11
55.8000000000005798
 21
26.9999999999974492
 31
0.0
  0
LINE
  5
4380
  8
240
  6
CONTINUOUS
 10
0.0000000000036664
 20
25.0000000000381597
 30
0.0
 11
12.1999999999960895
 21
25.0000000000379998
 31
0.0
  0
LINE
  5
4385
  8
240
  6
CONTINUOUS
 10
0.0000000000036664
 20
25.0000000000381597
 30
0.0
 11
0.0000000000036664
 21
14.0
 31
0.0
  0
LINE
  5
43A6
  8
240
  6
CONTINUOUS
 10
0.0000000000000312
 20
-25.0000000000399112
 30
0.0
 11
0.0
 21
-14.0
 31
0.0
  0
LINE
  5
43A8
  8
240
  6
CONTINUOUS
 10
0.0000000000000312
 20
-25.0000000000399112
 30
0.0
 11
12.2000000000000597
 21
-25.0000000000419718
 31
0.0
  0
LINE
  5
43AB
  8
241
  6
CONTINUOUS
 10
14.1999999999563595
 20
27.0000000000035492
 30
0.0
 11
14.1999999999562991
 21
-26.9101797211226916
 31
0.0
  0
LINE
  5
43B6
  8
240
  6
CONTINUOUS
 10
14.1999999999563808
 20
-26.9999999999982698
 30
0.0
 11
12.2000000000000597
 21
-25.0000000000419718
 31
0.0
  0
LINE
  5
43C0
  8
240
  6
CONTINUOUS
 10
14.1999999999616406
 20
27.0000000000035492
 30
0.0
 11
12.1999999999960895
 21
25.0000000000379998
 31
0.0
  0
LINE
  5
43F7
  8
241
  6
CONTINUOUS
 10
12.2000000000000597
 20
-25.0000000000419718
 30
0.0
 11
12.1999999999960895
 21
25.0000000000379998
 31
0.0
  0
LINE
  5
4417
  8
250
  6
CONTINUOUS
 10
0.0000000000036664
 20
25.5
 30
0.0
 11
0.0000000000036664
 21
43.0
 31
0.0
  0
LINE
  5
4418
  8
250
  6
CONTINUOUS
 10
87.0000000000036664
 20
24.8381461658836713
 30
0.0
 11
87.0000000000036664
 21
43.0
 31
0.0
  0
LINE
  5
4419
  8
250
  6
CONTINUOUS
 10
2.2300000000036651
 20
42.0
 30
0.0
 11
84.770000000003634
 21
42.0
 31
0.0
  0
LINE
  5
441A
  8
250
  6
CONTINUOUS
 10
2.2300000000036651
 20
41.6283333333333303
 30
0.0
 11
0.0000000000036664
 21
42.0
 31
0.0
  0
LINE
  5
441B
  8
250
  6
CONTINUOUS
 10
2.2300000000036651
 20
42.3716666666666626
 30
0.0
 11
0.0000000000036664
 21
42.0
 31
0.0
  0
LINE
  5
441C
  8
250
  6
CONTINUOUS
 10
0.0000000000036664
 20
42.0
 30
0.0
 11
2.2300000000036651
 21
42.0
 31
0.0
  0
LINE
  5
441D
  8
250
  6
CONTINUOUS
 10
84.770000000003634
 20
42.3716666666666626
 30
0.0
 11
87.0000000000036664
 21
42.0
 31
0.0
  0
LINE
  5
441E
  8
250
  6
CONTINUOUS
 10
84.770000000003634
 20
41.6283333333333303
 30
0.0
 11
87.0000000000036664
 21
42.0
 31
0.0
  0
LINE
  5
441F
  8
250
  6
CONTINUOUS
 10
87.0000000000036664
 20
42.0
 30
0.0
 11
84.770000000003634
 21
42.0
 31
0.0
  0
TEXT
  5
4420
  8
250
  6
CONTINUOUS
 10
40.8333333333370021
 20
43.0
 30
0.0
 40
2.799999999999998
  1
87
1001
ACAD
1000
MTEXTBEGIN
1070
    73
1070
     1
1070
    44
1040
1.0
1070
    74
1070
     0
1000
MTEXTEND
1000
MTEXTBEGIN
1070
    73
1070
     1
1070
    44
1040
1.0
1070
    74
1070
     0
1000
MTEXTEND
  0
TEXT
  5
4421
  8
241
  6
CONTINUOUS
 10
-29.9999999999963407
 20
56.0
 30
0.0
 40
5.0
  1
CKB5-MGT20-87
  7
YOKO
 11
-29.9999999999963407
 21
56.0
 31
0.0
 73
     1
  0
LINE
  5
4422
  8
250
  6
CONTINUOUS
 10
-19.3494084299963305
 20
-24.8300288299999998
 30
0.0
 11
-32.4160750899963404
 21
-24.8300288299999998
 31
0.0
1001
ITEMNAME
1000
LNSP2
  0
TEXT
  5
4423
  8
250
  6
CONTINUOUS
 10
-30.0160750899963311
 20
-23.8300288299999998
 30
0.0
 40
2.799999999999998
  1
CK5
  7
YOKO
1001
ITEMNAME
1000
LNSP3
1001
ACAD
1000
MTEXTBEGIN
1070
    73
1070
     1
1070
    44
1040
1.0
1070
    74
1070
     0
1000
MTEXTEND
1000
MTEXTBEGIN
1070
    73
1070
     1
1070
    44
1040
1.0
1070
    74
1070
     0
1000
MTEXTEND
1000
MTEXTBEGIN
1070
    73
1070
     1
1070
    44
1040
1.0
1070
    74
1070
     0
1000
MTEXTEND
1000
MTEXTBEGIN
1070
    73
1070
     1
1070
    44
1040
1.0
1070
    74
1070
     0
1000
MTEXTEND
1000
MTEXTBEGIN
1070
    73
1070
     1
1070
    44
1040
1.0
1070
    74
1070
     0
1000
MTEXTEND
  0
LINE
  5
4424
  8
250
  6
CONTINUOUS
 10
-14.5335611450294309
 20
-15.7454033171389902
 30
0.0
 11
-13.0966883699963308
 21
-14.0
 31
0.0
  0
LINE
  5
4425
  8
250
  6
CONTINUOUS
 10
-13.8898155948744506
 20
-16.1170699837908593
 30
0.0
 11
-13.0966883699963308
 21
-14.0
 31
0.0
  0
LINE
  5
4426
  8
250
  6
CONTINUOUS
 10
-13.0966883699963308
 20
-14.0
 30
0.0
 11
-14.2116883699519398
 21
-15.9312366504649301
 31
0.0
  0
LINE
  5
4427
  8
250
  6
CONTINUOUS
 10
-14.2116883699519398
 20
-15.9312366504649301
 30
0.0
 11
-19.3494084299963305
 21
-24.8300288299999998
 31
0.0
1001
ACAD
1000
DSTYLE
1002
{
1070
     6
1000
OPEN
1070
   343
1005
594
1002
}
  0
LINE
  5
4428
  8
240
  6
CONTINUOUS
 10
-29.9999999999963407
 20
-14.0
 30
0.0
 11
0.0
 21
-14.0
 31
0.0
  0
LINE
  5
4429
  8
240
  6
CONTINUOUS
 10
-29.9999999999963407
 20
14.0
 30
0.0
 11
0.0000000000036664
 21
14.0
 31
0.0
  0
LINE
  5
442B
  8
240
  6
CONTINUOUS
 10
-29.9999999999963407
 20
-14.0
 30
0.0
 11
-29.9999999999963407
 21
14.0
 31
0.0
  0
LINE
  5
442C
  8
245
  6
CENTER2
 10
-12.99999999999633
 20
6.081999999999999
 30
0.0
 11
-12.99999999999633
 21
-6.081999999999999
 31
0.0
  0
CIRCLE
  5
4431
  8
241
  6
CONTINUOUS
 10
-12.99999999999633
 20
0.0
 30
0.0
 40
4.0
  0
CIRCLE
  5
4432
  8
241
  6
CONTINUOUS
 10
-12.99999999999633
 20
0.0
 30
0.0
 40
5.0819999999999919
  0
LINE
  5
4433
  8
241
  6
CONTINUOUS
 10
0.0000000000036664
 20
14.0
 30
0.0
 11
0.0000000000036628
 21
-14.0
 31
0.0
  0
LINE
  5
4475
  8
240
  6
CONTINUOUS
 10
77.0000000000006821
 20
26.9999999999940101
 30
0.0
 11
86.9999999999850786
 21
24.3205080756835699
 31
0.0
  0
LINE
  5
4476
  8
240
  6
CONTINUOUS
 10
86.9999999999850786
 20
24.3205080756835699
 30
0.0
 11
86.9999999999838138
 21
-24.3205080756837901
 31
0.0
  0
LINE
  5
4478
  8
240
  6
CONTINUOUS
 10
14.1999999999616406
 20
27.0000000000035492
 30
0.0
 11
77.0000000000006821
 21
26.9999999999940101
 31
0.0
  0
LINE
  5
448B
  8
240
  6
CONTINUOUS
 10
14.1999999999563808
 20
-26.9999999999982698
 30
0.0
 11
77.0000000000017621
 21
-26.99999999999363
 31
0.0
  0
LINE
  5
448E
  8
240
  6
CONTINUOUS
 10
77.0000000000017621
 20
-26.99999999999363
 30
0.0
 11
86.9999999999838138
 21
-24.3205080756837901
 31
0.0
  0
LINE
  5
4497
  8
241
  6
CONTINUOUS
 10
77.0000000000017621
 20
-26.9999999999936193
 30
0.0
 11
77.0000000000017621
 21
26.9999999999937295
 31
0.0
  0
LINE
  5
4518
  8
250
  6
CONTINUOUS
 10
89.3715439499844564
 20
35.1825552099999967
 30
0.0
 11
107.5048772799843988
 21
35.1825552099999967
 31
0.0
1001
ITEMNAME
1000
LNSP2
  0
LINE
  5
4519
  8
243
  6
HIDDEN2
 10
16.9999999999844498
 20
15.0
 30
0.0
 11
79.4999999999844533
 21
15.0
 31
0.0
  0
LINE
  5
451A
  8
245
  6
CENTER2
 10
40.9999999999844604
 20
7.4999999999990621
 30
0.0
 11
40.9999999999844604
 21
-7.500000000000937
 31
0.0
  0
LINE
  5
451B
  8
243
  6
HIDDEN2
 10
79.4999999999844533
 20
19.6999999999999993
 30
0.0
 11
86.9999999999844391
 21
19.6999999999999993
 31
0.0
  0
TEXT
  5
451C
  8
250
  6
CONTINUOUS
 10
91.6382106166511363
 20
36.1825552099999967
 30
0.0
 40
2.799999999999998
  1
MGT20
  7
YOKO
1001
ITEMNAME
1000
LNSP3
1001
ACAD
1000
MTEXTBEGIN
1070
    73
1070
     1
1070
    44
1040
1.0
1070
    74
1070
     0
1000
MTEXTEND
  0
LINE
  5
451D
  8
250
  6
CONTINUOUS
 10
77.5000000000017621
 20
-27.0
 30
0.0
 11
100.9999999999843965
 21
-27.0
 31
0.0
  0
LINE
  5
451E
  8
250
  6
CONTINUOUS
 10
77.5000000000017621
 20
27.0
 30
0.0
 11
100.9999999999843965
 21
27.0
 31
0.0
  0
LINE
  5
451F
  8
250
  6
CONTINUOUS
 10
99.9999999999844249
 20
-24.7699999999999996
 30
0.0
 11
99.9999999999844249
 21
24.7699999999999996
 31
0.0
  0
LINE
  5
4520
  8
250
  6
CONTINUOUS
 10
84.6227937395130851
 20
26.9574785678410116
 30
0.0
 11
89.3715439499844564
 21
35.1825552099999967
 31
0.0
1001
ACAD
1000
DSTYLE
1002
{
1070
     6
1000
OPEN
1070
    41
1040
2.0
1070
    42
1040
2.0
1070
    44
1040
2.0
1070
    79
1070
     2
1070
   140
1040
4.0
1070
   179
1070
     3
1070
   371
1070
    -1
1070
   372
1070
    -1
1002
}
  0
LINE
  5
4521
  8
250
  6
CONTINUOUS
 10
84.9114688741532291
 20
26.7908119012529014
 30
0.0
 11
83.622793739984445
 21
25.2254277599999988
 31
0.0
  0
LINE
  5
4522
  8
250
  6
CONTINUOUS
 10
84.3341186048729554
 20
27.1241452344291183
 30
0.0
 11
83.622793739984445
 21
25.2254277599999988
 31
0.0
  0
LINE
  5
4523
  8
250
  6
CONTINUOUS
 10
83.622793739984445
 20
25.2254277599999988
 30
0.0
 11
84.6227937395130851
 21
26.9574785678410116
 31
0.0
  0
LINE
  5
4524
  8
250
  6
CONTINUOUS
 10
99.6283333333177552
 20
24.7699999999999996
 30
0.0
 11
99.9999999999844249
 21
27.0
 31
0.0
  0
LINE
  5
4525
  8
250
  6
CONTINUOUS
 10
100.3716666666509951
 20
24.7699999999999996
 30
0.0
 11
99.9999999999844249
 21
27.0
 31
0.0
  0
LINE
  5
4526
  8
250
  6
CONTINUOUS
 10
99.9999999999844249
 20
27.0
 30
0.0
 11
99.9999999999844249
 21
24.7699999999999996
 31
0.0
  0
TEXT
  5
4527
  8
250
  6
CONTINUOUS
 10
98.9999999999844391
 20
-3.9999999999999991
 30
0.0
 40
2.799999999999998
  1
\U+220554
 50
90.0
1001
ACAD
1000
MTEXTBEGIN
1070
    73
1070
     1
1070
    44
1040
1.0
1070
    74
1070
     0
1000
MTEXTEND
1000
MTEXTBEGIN
1070
    73
1070
     1
1070
    44
1040
1.0
1070
    74
1070
     0
1000
MTEXTEND
  0
LINE
  5
4528
  8
250
  6
CONTINUOUS
 10
100.3716666666509951
 20
-24.7699999999999996
 30
0.0
 11
99.9999999999844249
 21
-27.0
 31
0.0
  0
LINE
  5
4529
  8
250
  6
CONTINUOUS
 10
99.6283333333177552
 20
-24.7699999999999996
 30
0.0
 11
99.9999999999844249
 21
-27.0
 31
0.0
  0
LINE
  5
452A
  8
250
  6
CONTINUOUS
 10
99.9999999999844249
 20
-27.0
 30
0.0
 11
99.9999999999844249
 21
-24.7699999999999996
 31
0.0
  0
LINE
  5
452B
  8
243
  6
HIDDEN2
 10
16.9999999999844498
 20
-15.0
 30
0.0
 11
79.4999999999844533
 21
-15.0
 31
0.0
  0
LINE
  5
452C
  8
243
  6
HIDDEN2
 10
79.4999999999844533
 20
-19.6999999999999993
 30
0.0
 11
79.4999999999844533
 21
19.6999999999999993
 31
0.0
  0
LINE
  5
452D
  8
243
  6
HIDDEN2
 10
79.4999999999844533
 20
-19.6999999999999993
 30
0.0
 11
86.9999999999844391
 21
-19.6999999999999993
 31
0.0
  0
LINE
  5
4764
  8
247
  6
CONTINUOUS
 10
8.0000000000035207
 20
-16.2500000000700595
 30
0.0
 11
8.0000000000035207
 21
-9.5576923080300542
 31
0.0
  0
ARC
  5
4765
  8
247
  6
CONTINUOUS
 10
6.250000000073495
 20
-16.2500000000700595
 30
0.0
 40
1.7499999999299991
 50
180.0
 51
0.0
  0
ARC
  5
4766
  8
247
  6
CONTINUOUS
 10
6.250000000073495
 20
-9.5576923080300542
 30
0.0
 40
1.7499999999299991
 50
0.0
 51
180.0
  0
LINE
  5
4767
  8
247
  6
CONTINUOUS
 10
4.5000000001435261
 20
-15.3846153847200302
 30
0.0
 11
7.5000000000235314
 21
-16.2448515419620385
 31
0.0
  0
LINE
  5
4768
  8
247
  6
CONTINUOUS
 10
5.9230769231635332
 20
-14.4849838183358504
 30
0.0
 11
5.9230769231635332
 21
-15.7926761259758699
 31
0.0
  0
ARC
  5
4769
  8
247
  6
CONTINUOUS
 10
5.049598667706503
 20
-14.14514381608981
 30
0.0
 40
0.5538165441895349
 50
72.9978896752917734
 51
172.9241662185135908
  0
ARC
  5
476A
  8
247
  6
CONTINUOUS
 10
4.936033044469295
 20
-14.5668783230288206
 30
0.0
 40
0.9904354236226808
 50
4.7429368522022131
 51
73.8492262732662965
1001
GENIUS_GENOBJ-N-FIL_13
1002
{
1000
OWNER
1000
GEN
1002
}
1001
GENIUS_GENODEF_13
1002
{
1000
HIER
1070
     0
1002
}
1002
{
1000
MANEDIT
1070
     0
1002
}
1002
{
1000
NOSEL
1070
     0
1002
}
1002
{
1000
BEHIND
1070
     0
1002
}
1002
{
1000
OTHER
1070
     0
1002
}
1002
{
1000
REACTOR
1002
}
  0
LINE
  5
476B
  8
247
  6
CONTINUOUS
 10
7.5000000000235314
 20
-14.9371592343220794
 30
0.0
 11
7.5000000000235314
 21
-16.2448515419620385
 31
0.0
  0
LINE
  5
476C
  8
247
  6
CONTINUOUS
 10
4.5000000001435261
 20
-15.3846153847200302
 30
0.0
 11
4.5000000001435261
 21
-14.0769230770800107
 31
0.0
  0
ARC
  5
476D
  8
247
  6
CONTINUOUS
 10
6.4820242326690591
 20
-14.5609196365470197
 30
0.0
 40
0.5640818586791229
 50
65.990941652528889
 51
172.2634434590690944
  0
ARC
  5
476E
  8
247
  6
CONTINUOUS
 10
6.4874290391900882
 20
-15.0382626853471209
 30
0.0
 40
1.0176059446230981
 50
5.701985164259777
 51
77.2773384368223759
1001
GENIUS_GENOBJ-N-FIL_13
1002
{
1000
OWNER
1000
GEN
1002
}
1001
GENIUS_GENODEF_13
1002
{
1000
HIER
1070
     0
1002
}
1002
{
1000
MANEDIT
1070
     0
1002
}
1002
{
1000
NOSEL
1070
     0
1002
}
1002
{
1000
BEHIND
1070
     0
1002
}
1002
{
1000
OTHER
1070
     0
1002
}
1002
{
1000
REACTOR
1002
}
  0
LINE
  5
476F
  8
247
  6
CONTINUOUS
 10
7.5000000000235314
 20
-13.2833130805420598
 30
0.0
 11
4.5000000001435261
 21
-12.4230769233000409
 31
0.0
  0
LINE
  5
4770
  8
247
  6
CONTINUOUS
 10
4.5000000001435261
 20
-10.0000000003200498
 30
0.0
 11
4.5000000001435261
 21
-10.5657366194566595
 31
0.0
  0
LINE
  5
4771
  8
247
  6
CONTINUOUS
 10
7.5000000000235314
 20
-11.4615384618000196
 30
0.0
 11
7.5000000000235314
 21
-10.8461538464400409
 31
0.0
  0
ARC
  5
4772
  8
247
  6
CONTINUOUS
 10
6.583285135976892
 20
-9.7087912091228912
 30
0.0
 40
2.2526500823422122
 50
202.3594881415291127
 51
254.9932485428460893
  0
ARC
  5
4773
  8
247
  6
CONTINUOUS
 10
5.3083126551980477
 20
-10.3740694792132597
 30
0.0
 40
0.8906723995727782
 50
94.9945893190753168
 51
155.1663289573039037
1001
GENIUS_GENOBJ-N-FIL_13
1002
{
1000
OWNER
1000
GEN
1002
}
1001
GENIUS_GENODEF_13
1002
{
1000
HIER
1070
     0
1002
}
1002
{
1000
MANEDIT
1070
     0
1002
}
1002
{
1000
NOSEL
1070
     0
1002
}
1002
{
1000
BEHIND
1070
     0
1002
}
1002
{
1000
OTHER
1070
     0
1002
}
1002
{
1000
REACTOR
1002
}
  0
ARC
  5
4774
  8
247
  6
CONTINUOUS
 10
6.1601458886713072
 20
-11.22645888621261
 30
0.0
 40
1.392781735586712
 50
15.8460965557808002
 51
82.3251370041690649
  0
ARC
  5
4775
  8
247
  6
CONTINUOUS
 10
6.4592434315308047
 20
-10.6422127258404409
 30
0.0
 40
1.324563662670287
 50
249.7136016704968995
 51
321.7887456564092759
1001
GENIUS_GENOBJ-N-FIL_13
1002
{
1000
OWNER
1000
GEN
1002
}
1001
GENIUS_GENODEF_13
1002
{
1000
HIER
1070
     0
1002
}
1002
{
1000
MANEDIT
1070
     0
1002
}
1002
{
1000
NOSEL
1070
     0
1002
}
1002
{
1000
BEHIND
1070
     0
1002
}
1002
{
1000
OTHER
1070
     0
1002
}
1002
{
1000
REACTOR
1002
}
  0
LINE
  5
4776
  8
247
  6
CONTINUOUS
 10
6.3461538462234994
 20
-10.5384615387600604
 30
0.0
 11
6.3461538462234994
 21
-9.8461538464800622
 31
0.0
  0
LINE
  5
4777
  8
247
  6
CONTINUOUS
 10
4.5000000001434994
 20
-16.2500000000700595
 30
0.0
 11
4.5000000001434994
 21
-15.5769230770200995
 31
0.0
  0
VIEWPORT
  5
22
 67
     1
  8
0
 10
261.517699115044195
 20
148.5
 30
0.0
 40
523.0353982300885036
 41
297.0
 68
     1
 69
     1
1001
ACAD
1000
MVIEW
1002
{
1070
    16
1010
0.0
1020
0.0
1030
0.0
1010
0.0
1020
0.0
1030
1.0
1040
0.0
1040
297.0
1040
261.517699115044195
1040
148.5
1040
50.0
1040
0.0
1040
0.0
1070
     0
1070
   100
1070
     1
1070
     1
1070
     0
1070
     0
1070
     0
1070
     0
1040
0.0
1040
0.0
1040
0.0
1040
1.0
1040
1.0
1040
10.0
1040
10.0
1070
     0
1002
{
1002
}
1002
}
1001
GENIUS_GENODEF_13
1002
{
1000
HIER
1070
     0
1002
}
1002
{
1000
MANEDIT
1070
     0
1002
}
1002
{
1000
NOSEL
1070
     0
1002
}
1002
{
1000
BEHIND
1070
     0
1002
}
1002
{
1000
OTHER
1070
     0
1002
}
1002
{
1000
REACTOR
1002
}
1001
GENIUS_GENOBJ-N-SDF_13
1002
{
1000
OWNER
1000
GEN
1002
}
1001
GENIUS_GENSCREG_15
1000
PF
1040
1.0
1000
DF
1040
1.0
1000
MIN
1011
0.0
1021
0.0
1031
0.0
1021
0.0
1031
0.0
1000
MAX
1011
523.0353982300885036
1021
0.0
1031
0.0
1021
297.0
1031
0.0
1000
FLAGS
1070
     4
  0
ENDSEC
  0
EOF
