  0
SECTION
  2
HEADER
  9
$ACADVER
  1
AC1009
  9
$INSBASE
 10
0.0
 20
0.0
 30
0.0
  9
$EXTMIN
 10
-43.376355894899717
 20
-28.579153447397442
 30
0.0
  9
$EXTMAX
 10
233.0976075996908
 20
61.000000000000007
 30
0.0
  9
$LIMMIN
 10
0.0
 20
0.0
  9
$LIMMAX
 10
297.0
 20
210.0
  9
$ORTHOMODE
 70
     0
  9
$REGENMODE
 70
     1
  9
$FILLMODE
 70
     1
  9
$QTEXTMODE
 70
     0
  9
$MIRRTEXT
 70
     1
  9
$DRAGMODE
 70
     2
  9
$LTSCALE
 40
10.0
  9
$OSMODE
 70
    39
  9
$ATTMODE
 70
     1
  9
$TEXTSIZE
 40
3.0
  9
$TRACEWID
 40
1.0
  9
$TEXTSTYLE
  7
YOKO
  9
$CLAYER
  8
241
  9
$CELTYPE
  6
BYLAYER
  9
$CECOLOR
 62
   256
  9
$DIMSCALE
 40
1.0
  9
$DIMASZ
 40
2.2299999999999991
  9
$DIMEXO
 40
0.5
  9
$DIMDLI
 40
7.0
  9
$DIMRND
 40
0.0
  9
$DIMDLE
 40
0.0
  9
$DIMEXE
 40
1.0
  9
$DIMTP
 40
0.0
  9
$DIMTM
 40
0.01
  9
$DIMTXT
 40
2.7999999999999989
  9
$DIMCEN
 40
0.0
  9
$DIMTSZ
 40
0.0
  9
$DIMTOL
 70
     0
  9
$DIMLIM
 70
     0
  9
$DIMTIH
 70
     0
  9
$DIMTOH
 70
     0
  9
$DIMSE1
 70
     0
  9
$DIMSE2
 70
     0
  9
$DIMTAD
 70
     3
  9
$DIMZIN
 70
     9
  9
$DIMBLK
  1
OPEN
  9
$DIMASO
 70
     1
  9
$DIMSHO
 70
     1
  9
$DIMPOST
  1

  9
$DIMAPOST
  1

  9
$DIMALT
 70
     0
  9
$DIMALTD
 70
     2
  9
$DIMALTF
 40
25.399999999999999
  9
$DIMLFAC
 40
1.0
  9
$DIMTOFL
 70
     1
  9
$DIMTVP
 40
0.0
  9
$DIMTIX
 70
     1
  9
$DIMSOXD
 70
     0
  9
$DIMSAH
 70
     0
  9
$DIMBLK1
  1

  9
$DIMBLK2
  1

  9
$DIMSTYLE
  2
BIGT
  9
$DIMCLRD
 70
   256
  9
$DIMCLRE
 70
   256
  9
$DIMCLRT
 70
    40
  9
$DIMTFAC
 40
1.0
  9
$DIMGAP
 40
1.0
  9
$LUNITS
 70
     2
  9
$LUPREC
 70
     6
  9
$SKETCHINC
 40
1.0
  9
$FILLETRAD
 40
0.0
  9
$AUNITS
 70
     0
  9
$AUPREC
 70
     6
  9
$MENU
  1
.
  9
$ELEVATION
 40
0.0
  9
$PELEVATION
 40
0.0
  9
$THICKNESS
 40
0.0
  9
$LIMCHECK
 70
     0
  9
$BLIPMODE
 70
     0
  9
$CHAMFERA
 40
0.2
  9
$CHAMFERB
 40
0.2
  9
$SKPOLY
 70
     0
  9
$TDCREATE
 40
2457820.6402357868
  9
$TDUPDATE
 40
2457821.471882408
  9
$TDINDWG
 40
0.0063677083
  9
$TDUSRTIMER
 40
0.0063676852
  9
$USRTIMER
 70
     1
  9
$ANGBASE
 50
0.0
  9
$ANGDIR
 70
     0
  9
$PDMODE
 70
     1
  9
$PDSIZE
 40
0.0
  9
$PLINEWID
 40
0.0
  9
$COORDS
 70
     1
  9
$SPLFRAME
 70
     0
  9
$SPLINETYPE
 70
     6
  9
$SPLINESEGS
 70
     4
  9
$ATTDIA
 70
     1
  9
$ATTREQ
 70
     1
  9
$HANDLING
 70
     1
  9
$HANDSEED
  5
470A
  9
$SURFTAB1
 70
     6
  9
$SURFTAB2
 70
     6
  9
$SURFTYPE
 70
     6
  9
$SURFU
 70
     6
  9
$SURFV
 70
     6
  9
$UCSNAME
  2

  9
$UCSORG
 10
0.0
 20
0.0
 30
0.0
  9
$UCSXDIR
 10
1.0
 20
0.0
 30
0.0
  9
$UCSYDIR
 10
0.0
 20
1.0
 30
0.0
  9
$PUCSNAME
  2

  9
$PUCSORG
 10
0.0
 20
0.0
 30
0.0
  9
$PUCSXDIR
 10
1.0
 20
0.0
 30
0.0
  9
$PUCSYDIR
 10
0.0
 20
1.0
 30
0.0
  9
$USERI1
 70
     1
  9
$USERI2
 70
     0
  9
$USERI3
 70
     0
  9
$USERI4
 70
     0
  9
$USERI5
 70
     0
  9
$USERR1
 40
0.0
  9
$USERR2
 40
0.0
  9
$USERR3
 40
0.0
  9
$USERR4
 40
0.0
  9
$USERR5
 40
0.0
  9
$WORLDVIEW
 70
     1
  9
$SHADEDGE
 70
     3
  9
$SHADEDIF
 70
    70
  9
$TILEMODE
 70
     1
  9
$MAXACTVP
 70
    16
  9
$PLIMCHECK
 70
     0
  9
$PEXTMIN
 10
1.0000000000000000E+020
 20
1.0000000000000000E+020
 30
1.0000000000000000E+020
  9
$PEXTMAX
 10
-1.0000000000000000E+020
 20
-1.0000000000000000E+020
 30
-1.0000000000000000E+020
  9
$PLIMMIN
 10
0.0
 20
0.0
  9
$PLIMMAX
 10
420.0
 20
297.0
  9
$UNITMODE
 70
     0
  9
$VISRETAIN
 70
     1
  9
$PLINEGEN
 70
     0
  9
$PSLTSCALE
 70
     1
  0
ENDSEC
  0
SECTION
  2
TABLES
  0
TABLE
  2
VPORT
 70
     1
  0
VPORT
  2
*ACTIVE
 70
     0
 10
0.0
 20
0.0
 11
1.0
 21
1.0
 12
80.345254750690074
 22
32.637622986473247
 13
0.0
 23
0.0
 14
7.0
 24
7.0
 15
7.0
 25
7.0
 16
0.0
 26
0.0
 36
1.0
 17
0.0
 27
0.0
 37
0.0
 40
285.23357693293968
 41
1.506104328523862
 42
50.0
 43
0.0
 44
0.0
 50
0.0
 51
0.0
 71
     0
 72
  2000
 73
     1
 74
     0
 75
     0
 76
     1
 77
     0
 78
     0
  0
ENDTAB
  0
TABLE
  2
LTYPE
 70
    21
  0
LTYPE
  2
CONTINUOUS
 70
     0
  3
Solid line
 72
    65
 73
     0
 40
0.0
  0
LTYPE
  2
CENTER2
 70
     0
  3
___ _ ___ _ ___ _ ___ _ ___ _ ___ _ ___ _ ___ _
 72
    65
 73
     4
 40
1.125
 49
0.75
 49
-0.125
 49
0.125
 49
-0.125
  0
LTYPE
  2
PHANTOM2
 70
     0
  3
___ _ _ ___ _ _ ___ _ _ ___ _ _ ___ _ _ ___ _ _
 72
    65
 73
     6
 40
1.25
 49
0.625
 49
-0.125
 49
0.125
 49
-0.125
 49
0.125
 49
-0.125
  0
LTYPE
  2
AM_ISO02W050
 70
     0
  3
__ __ __ __ __ __ __ __ __ __ __ __ __ __ __
 72
    65
 73
     2
 40
7.5
 49
6.0
 49
-1.5
  0
LTYPE
  2
AMCONSTR
 70
     0
  3
_______________________
 72
    65
 73
     2
 40
9999.0
 49
9999.0
 49
0.0
  0
LTYPE
  2
ACISOWELD
 70
     0
  3
_ _ _ _ _
 72
    65
 73
     2
 40
2.0
 49
2.0
 49
-1.0
  0
LTYPE
  2
ACISOTGB
 70
     0
  3
__ . . __ . .
 72
    65
 73
     6
 40
9.0
 49
4.0
 49
-1.0
 49
1.0
 49
-1.0
 49
1.0
 49
-1.0
  0
LTYPE
  2
ACISOTGL
 70
     0
  3
_ _ _ _ _
 72
    65
 73
     2
 40
3.0
 49
2.0
 49
-1.0
  0
LTYPE
  2
AM_ISO08W050
 70
     0
  3
____ . ____ . ____ . ____ . ____ . ____ . ____
 72
    65
 73
     4
 40
18.0
 49
12.0
 49
-1.5
 49
3.0
 49
-1.5
  0
LTYPE
  2
AM_ISO09W050
 70
     0
  3
_____ . . _____ . . _____ . . ____ .. ____
 72
    65
 73
     6
 40
22.5
 49
12.0
 49
-1.5
 49
3.0
 49
-1.5
 49
3.0
 49
-1.5
  0
LTYPE
  2
AM_ISO08W050X2
 70
     0
  3
__ . __ . __ . __ . __ . __
 72
    65
 73
     4
 40
9.0
 49
6.0
 49
-0.75
 49
1.5
 49
-0.75
  0
LTYPE
  2
AM_ISO02W050X2
 70
     0
  3
 _ _ _ _ _ _ _ _ _ _ _ _
 72
    65
 73
     2
 40
3.75
 49
3.0
 49
-0.75
  0
LTYPE
  2
AMZIGZAG
 70
     0
  3
/\/-/\/-/\/-/\/-/\/-/\/
 72
    65
 73
     2
 40
11.0001
 49
0.0001
 49
-11.0
  0
ENDTAB
  0
TABLE
  2
LAYER
 70
     9
  0
LAYER
  2
0
 70
     0
 62
     7
  6
CONTINUOUS
  0
LAYER
  2
DEFPOINTS
 70
     0
 62
     7
  6
CONTINUOUS
  0
LAYER
  2
245
 70
     0
 62
     2
  6
CENTER2
  0
LAYER
  2
240
 70
     0
 62
     4
  6
CONTINUOUS
  0
LAYER
  2
241
 70
     0
 62
   211
  6
CONTINUOUS
  0
LAYER
  2
242
 70
     0
 62
     3
  6
CONTINUOUS
  0
LAYER
  2
246
 70
     0
 62
     3
  6
PHANTOM2
  0
LAYER
  2
247
 70
     0
 62
    60
  6
CONTINUOUS
  0
LAYER
  2
250
 70
     0
 62
     3
  6
CONTINUOUS
  0
ENDTAB
  0
TABLE
  2
STYLE
 70
     8
  0
STYLE
  2
STANDARD
 70
     0
 40
0.0
 41
1.0
 50
0.0
 71
     0
 42
3.0
  3
romans.shx
  4
extfont.shx
  0
STYLE
  2
ACISOGDT
 70
     0
 40
0.0
 41
1.0
 50
0.0
 71
     0
 42
3.0
  3
amgdt.shx
  4
extfont.shx
  0
STYLE
  2
YOKO
 70
     0
 40
0.0
 41
1.0
 50
0.0
 71
     0
 42
3.0
  3
romans.shx
  4
extfont.shx
  0
STYLE
  2

 70
     1
 40
0.0
 41
1.0
 50
0.0
 71
     0
 42
3.0
  3
genltshp.shx
  4

  0
ENDTAB
  0
TABLE
  2
VIEW
 70
     0
  0
ENDTAB
  0
TABLE
  2
UCS
 70
     0
  0
ENDTAB
  0
TABLE
  2
APPID
 70
    44
  0
APPID
  2
ACAD
 70
     0
  0
APPID
  2
GLOBAL
 70
     0
  0
APPID
  2
DETAIL
 70
     0
  0
APPID
  2
GRPNAME
 70
     0
  0
APPID
  2
GPARA
 70
     0
  0
APPID
  2
MCAD_NO_VIS
 70
     0
  0
APPID
  2
ACAD_TEMP_GRAPHIC
 70
     0
  0
APPID
  2
ACATTRIBSERVICES
 70
     0
  0
APPID
  2
GENIUS_GENSCREG_15
 70
     0
  0
APPID
  2
GENIUS_GENODEF_13
 70
     0
  0
APPID
  2
GENIUS_GENOBJ-N-SDF_13
 70
     0
  0
APPID
  2
GENIUS_GENREC_14
 70
     0
  0
APPID
  2
GENIUS_GENOBJ-N-REC_13
 70
     0
  0
APPID
  2
GENIUS_GENDIMSH_14
 70
     0
  0
APPID
  2
GENIUS_GENOBJ-N-DIM_13
 70
     0
  0
APPID
  2
GENIUS_GENDIM_13
 70
     0
  0
APPID
  2
GENIUS_GENDTOL_13
 70
     0
  0
APPID
  2
GENIUS_GENOLIS_13
 70
     0
  0
APPID
  2
GENIUS_GENOENT_13
 70
     0
  0
APPID
  2
GENIUS_GENOBJ-F-FEM_13
 70
     0
  0
APPID
  2
GENIUS_GENOREF_13
 70
     0
  0
APPID
  2
GENIUS_GEFFEM_13
 70
     0
  0
APPID
  2
GENIUS_GEFFEMP_13
 70
     0
  0
APPID
  2
AD_DRAW
 70
     0
  0
APPID
  2
DESIGNERASSEMBLIES
 70
     0
  0
APPID
  2
ACADM_DIM_EDIT
 70
     0
  0
APPID
  2
AMDT_DM_ADJ
 70
     0
  0
APPID
  2
ITEMNAME
 70
     0
  0
APPID
  2
GENIUS_GENOBJ-N-FIL_13
 70
     0
  0
APPID
  2
GENIUS_GENFIL_13
 70
     0
  0
APPID
  2
GENIUS_GENOBJ-N-CHA_13
 70
     0
  0
APPID
  2
ACAECLAYERSTANDARD
 70
     0
  0
APPID
  2
ACAD_NAV_VCDISPLAY
 70
     0
  0
APPID
  2
ACAD_DSTYLE_DIMJAG
 70
     0
  0
APPID
  2
HATCH_TYPE
 70
     0
  0
APPID
  2
HATCH_DISPLAY
 70
     0
  0
APPID
  2
HATCH_DISTANCE
 70
     0
  0
APPID
  2
ACAD_DSTYLE_DIMBREAK
 70
     0
  0
APPID
  2
ACAD_EXEMPT_FROM_CAD_STANDARDS
 70
     0
  0
APPID
  2
ACAD_MLEADERVER
 70
     0
  0
APPID
  2
ACAD_DSTYLE_DIMARC_LENGTH_
 70
     0
  0
APPID
  2
ACAD_DSTYLE_DIM_LINETYPE
 70
     0
  0
APPID
  2
ACAD_DSTYLE_DIM_EXT1_LINETYPE
 70
     0
  0
APPID
  2
ACAD_DSTYLE_DIM_EXT2_LINETYPE
 70
     0
  0
ENDTAB
  0
TABLE
  2
DIMSTYLE
 70
    29
  0
DIMSTYLE
  2
BIGT
 70
     0
  3

  4

  5
OPEN
  6

  7

 40
1.0
 41
2.2299999999999991
 42
0.5
 43
7.0
 44
1.0
 45
0.0
 46
0.0
 47
0.0
 48
0.01
140
2.7999999999999989
141
0.0
142
0.0
143
25.399999999999999
144
1.0
145
0.0
146
1.0
147
1.0
 71
     0
 72
     0
 73
     0
 74
     0
 75
     0
 76
     0
 77
     3
 78
     9
170
     0
171
     2
172
     1
173
     0
174
     1
175
     0
176
   256
177
   256
178
    40
  0
DIMSTYLE
  2
AM_ISO
 70
     0
  3

  4
"
  5

  6

  7

 40
1.0
 41
2.5
 42
1.0
 43
10.0
 44
1.0
 45
0.0
 46
0.0
 47
0.1
 48
0.1
140
3.5
141
0.0
142
0.0
143
0.0393701
144
1.0
145
0.0
146
0.71
147
1.5
 71
     0
 72
     0
 73
     0
 74
     0
 75
     0
 76
     0
 77
     1
 78
     8
170
     0
171
     2
172
     1
173
     0
174
     0
175
     0
176
   256
177
   256
178
     2
  0
DIMSTYLE
  2
AM_ISO$3
 70
     0
  3

  4
"
  5

  6

  7

 40
1.0
 41
2.5
 42
1.0
 43
10.0
 44
1.0
 45
0.0
 46
0.0
 47
0.1
 48
0.1
140
3.5
141
0.0
142
0.0
143
0.0393701
144
1.0
145
0.0
146
0.71
147
1.5
 71
     0
 72
     0
 73
     0
 74
     1
 75
     0
 76
     0
 77
     1
 78
     8
170
     0
171
     2
172
     0
173
     0
174
     0
175
     0
176
   256
177
   256
178
     2
  0
DIMSTYLE
  2
AM_ISO$4
 70
     0
  3

  4
"
  5

  6

  7

 40
1.0
 41
2.5
 42
1.0
 43
10.0
 44
1.0
 45
0.0
 46
0.0
 47
0.1
 48
0.1
140
3.5
141
0.0
142
0.0
143
0.0393701
144
1.0
145
0.0
146
0.71
147
1.5
 71
     0
 72
     0
 73
     0
 74
     1
 75
     0
 76
     0
 77
     1
 78
     8
170
     0
171
     2
172
     0
173
     0
174
     0
175
     0
176
   256
177
   256
178
     2
  0
DIMSTYLE
  2
AM_ISO$6
 70
     0
  3

  4
"
  5

  6

  7

 40
1.0
 41
2.5
 42
1.0
 43
10.0
 44
1.0
 45
0.0
 46
0.0
 47
0.1
 48
0.1
140
3.5
141
0.0
142
0.0
143
0.0393701
144
1.0
145
0.0
146
0.71
147
1.5
 71
     0
 72
     0
 73
     0
 74
     0
 75
     0
 76
     0
 77
     0
 78
     8
170
     0
171
     2
172
     1
173
     0
174
     0
175
     0
176
   256
177
   256
178
     2
  0
DIMSTYLE
  2
AM_ISO$7
 70
     0
  3

  4
"
  5

  6

  7

 40
1.0
 41
2.5
 42
1.0
 43
10.0
 44
1.0
 45
0.0
 46
0.0
 47
0.1
 48
0.1
140
5.0
141
0.0
142
0.0
143
0.0393701
144
1.0
145
0.0
146
0.71
147
1.5
 71
     0
 72
     0
 73
     0
 74
     0
 75
     0
 76
     0
 77
     1
 78
     8
170
     0
171
     2
172
     1
173
     0
174
     0
175
     0
176
   256
177
   256
178
     2
  0
DIMSTYLE
  2
AM_ISO$SF
 70
     0
  3

  4
"
  5

  6

  7

 40
1.0
 41
2.5
 42
1.0
 43
10.0
 44
1.0
 45
0.0
 46
0.0
 47
0.1
 48
0.1
140
3.5
141
0.0
142
0.0
143
0.0393701
144
1.0
145
0.0
146
0.71
147
1.5
 71
     0
 72
     0
 73
     0
 74
     0
 75
     1
 76
     1
 77
     1
 78
     8
170
     0
171
     2
172
     1
173
     0
174
     0
175
     0
176
   256
177
   256
178
     2
  0
DIMSTYLE
  2
AM_ISO$SH
 70
     0
  3

  4
"
  5

  6
GENAXEH
  7

 40
1.0
 41
2.5
 42
1.0
 43
10.0
 44
1.0
 45
0.0
 46
0.0
 47
0.1
 48
0.1
140
3.5
141
0.0
142
0.0
143
0.0393701
144
2.0
145
0.0
146
0.71
147
1.5
 71
     0
 72
     0
 73
     0
 74
     0
 75
     1
 76
     1
 77
     1
 78
     8
170
     0
171
     2
172
     1
173
     1
174
     0
175
     0
176
   256
177
   256
178
     2
  0
ENDTAB
  0
ENDSEC
  0
SECTION
  2
BLOCKS
  0
BLOCK
  8
0
  2
$MODEL_SPACE
 70
     0
 10
0.0
 20
0.0
 30
0.0
  3
$MODEL_SPACE
  1

  0
ENDBLK
  5
1C
  8
0
  0
BLOCK
 67
     1
  8
0
  2
$PAPER_SPACE
 70
     0
 10
0.0
 20
0.0
 30
0.0
  3
$PAPER_SPACE
  1

  0
ENDBLK
  5
19
 67
     1
  8
0
  0
BLOCK
  8
0
  2
_OPEN
 70
     0
 10
0.0
 20
0.0
 30
0.0
  3
_OPEN
  1

  0
LINE
  5
3E1A
  8
0
  6
BYBLOCK
 62
     0
 10
-1.0
 20
0.1666666666666666
 30
0.0
 11
0.0
 21
0.0
 31
0.0
  0
LINE
  5
3E1B
  8
0
  6
BYBLOCK
 62
     0
 10
-1.0
 20
-0.1666666666666666
 30
0.0
 11
0.0
 21
0.0
 31
0.0
  0
LINE
  5
3E1C
  8
0
  6
BYBLOCK
 62
     0
 10
0.0
 20
0.0
 30
0.0
 11
-1.0
 21
0.0
 31
0.0
  0
ENDBLK
  5
3E1D
  8
0
  0
BLOCK
  8
0
  2
GENAXEH
 70
     0
 10
0.0
 20
0.0
 30
0.0
  3
GENAXEH
  1

  0
LINE
  5
3E45
  8
0
 10
-1.0
 20
0.0
 30
0.0
 11
1.0
 21
0.0
 31
0.0
  0
ENDBLK
  5
3E46
  8
0
  0
BLOCK
  8
0
  2
*U4
 70
     1
 10
0.0
 20
0.0
 30
0.0
  3
*U4
  1

  0
TEXT
  5
4222
  8
250
 10
101.0
 20
43.0
 30
0.0
 40
2.799999999999998
  1
210
  0
ENDBLK
  5
4223
  8
0
  0
ENDSEC
  0
SECTION
  2
ENTITIES
  0
TEXT
  5
43ED
  8
241
  6
CONTINUOUS
 10
-28.0
 20
56.0
 30
0.0
 40
5.0
  1
CKB5-EWN53DP-210
  7
YOKO
 11
-28.0
 21
56.0
 31
0.0
 73
     1
  0
LINE
  5
43EE
  8
250
  6
CONTINUOUS
 10
-26.781399339742389
 20
-28.579153447397442
 30
0.0
 11
-43.376355894899717
 21
-28.579153447397442
 31
0.0
1001
ITEMNAME
1000
LNSP2
  0
LINE
  5
43EF
  8
250
  6
CONTINUOUS
 10
210.52617902826231
 20
46.544072546653403
 30
0.0
 11
233.0976075996908
 21
46.544072546653403
 31
0.0
1001
ITEMNAME
1000
LNSP2
  0
LINE
  5
43F0
  8
250
  6
CONTINUOUS
 10
210.09999999999991
 20
35.0
 30
0.0
 11
224.0686512432016
 21
35.0
 31
0.0
  0
LINE
  5
43F1
  8
250
  6
CONTINUOUS
 10
223.0686512432016
 20
32.77000000000001
 30
0.0
 11
223.0686512432016
 21
-13.914285714285681
 31
0.0
  0
TEXT
  5
43F2
  8
250
  6
CONTINUOUS
 10
212.95475045683369
 20
47.544072546653389
 30
0.0
 40
3.0
  1
ENH5-1
  7
YOKO
1001
ITEMNAME
1000
LNSP3
1001
ACAD
1000
MTEXTBEGIN
1070
    73
1070
     1
1070
    44
1040
1.0
1070
    74
1070
     0
1000
MTEXTEND
  0
TEXT
  5
43F3
  8
250
  6
CONTINUOUS
 10
-40.804927323471126
 20
-27.579153447397449
 30
0.0
 40
3.0
  1
CK5
  7
YOKO
1001
ITEMNAME
1000
LNSP3
1001
ACAD
1000
MTEXTBEGIN
1070
    73
1070
     1
1070
    44
1040
1.0
1070
    74
1070
     0
1000
MTEXTEND
  0
LINE
  5
43F4
  8
250
  6
CONTINUOUS
 10
-19.479121172330562
 20
-15.931236650439271
 30
0.0
 11
-26.464154289997321
 21
-28.029668902789279
 31
0.0
1001
ACAD
1000
DSTYLE
1002
{
1070
     6
1000
OPEN
1070
    78
1070
     8
1070
   140
1040
3.0
1070
   173
1070
     1
1002
}
  0
LINE
  5
43F5
  8
250
  6
CONTINUOUS
 10
-26.464154289997321
 20
-28.029668902789279
 30
0.0
 11
-26.781399339742389
 21
-28.579153447397442
 31
0.0
1001
ACAD
1000
DSTYLE
1002
{
1070
     6
1000
OPEN
1070
    78
1070
     8
1070
   140
1040
3.0
1070
   173
1070
     1
1002
}
  0
LINE
  5
43F6
  8
250
  6
CONTINUOUS
 10
-19.800993947403789
 20
-15.745403317105939
 30
0.0
 11
-18.364121172330581
 21
-13.99999999999998
 31
0.0
  0
LINE
  5
43F7
  8
250
  6
CONTINUOUS
 10
-19.157248397257359
 20
-16.117069983772598
 30
0.0
 11
-18.364121172330581
 21
-13.99999999999998
 31
0.0
  0
LINE
  5
43F8
  8
250
  6
CONTINUOUS
 10
-18.364121172330581
 20
-13.99999999999998
 30
0.0
 11
-19.479121172330562
 21
-15.931236650439271
 31
0.0
  0
TEXT
  5
43F9
  8
250
  6
CONTINUOUS
 10
222.0686512432016
 20
-12.914285714285681
 30
0.0
 40
3.0
  1
üi
 50
90.0
1001
ACAD
1000
MTEXTBEGIN
1070
    73
1070
     1
1070
    44
1040
1.0
1070
    74
1070
     0
1000
MTEXTEND
  0
TEXT
  5
43FA
  8
250
  6
CONTINUOUS
 10
222.0686512432016
 20
-9.3142857142856883
 30
0.0
 40
3.0
  1
\U+2205
 50
90.0
1001
ACAD
1000
MTEXTBEGIN
1070
    73
1070
     1
1070
    44
1040
1.0
1070
    74
1070
     0
1000
MTEXTEND
  0
TEXT
  5
43FB
  8
250
  6
CONTINUOUS
 10
222.0686512432016
 20
-6.599999999999965
 30
0.0
 40
3.0
  1
53ü`
 50
90.0
1001
ACAD
1000
MTEXTBEGIN
1070
    73
1070
     1
1070
    44
1040
1.0
1070
    74
1070
     0
1000
MTEXTEND
  0
TEXT
  5
43FC
  8
250
  6
CONTINUOUS
 10
222.0686512432016
 20
2.7142857142857362
 30
0.0
 40
3.0
  1
\U+2205
 50
90.0
1001
ACAD
1000
MTEXTBEGIN
1070
    73
1070
     1
1070
    44
1040
1.0
1070
    74
1070
     0
1000
MTEXTEND
  0
TEXT
  5
43FD
  8
250
  6
CONTINUOUS
 10
222.0686512432016
 20
5.428571428571459
 30
0.0
 40
3.0
  1
70üj
 50
90.0
1001
ACAD
1000
MTEXTBEGIN
1070
    73
1070
     1
1070
    44
1040
1.0
1070
    74
1070
     0
1000
MTEXTEND
  0
LINE
  5
43FE
  8
250
  6
CONTINUOUS
 10
204.10543369345481
 20
35.423015404306057
 30
0.0
 11
210.52617902826231
 21
46.544072546653403
 31
0.0
1001
ACAD
1000
DSTYLE
1002
{
1070
     6
1000
OPEN
1070
    78
1070
     8
1070
   140
1040
3.0
1070
   173
1070
     1
1002
}
  0
LINE
  5
43FF
  8
250
  6
CONTINUOUS
 10
204.42730646852809
 20
35.237182070972722
 30
0.0
 11
202.9904336934548
 21
33.491778753866761
 31
0.0
  0
LINE
  5
4400
  8
250
  6
CONTINUOUS
 10
203.7835609183816
 20
35.608848737639391
 30
0.0
 11
202.9904336934548
 21
33.491778753866761
 31
0.0
  0
LINE
  5
4401
  8
250
  6
CONTINUOUS
 10
202.9904336934548
 20
33.491778753866761
 30
0.0
 11
204.10543369345481
 21
35.423015404306057
 31
0.0
  0
LINE
  5
4402
  8
250
  6
CONTINUOUS
 10
222.69698457653499
 20
32.77000000000001
 30
0.0
 11
223.0686512432016
 21
35.0
 31
0.0
  0
LINE
  5
4403
  8
250
  6
CONTINUOUS
 10
223.4403179098683
 20
32.77000000000001
 30
0.0
 11
223.0686512432016
 21
35.0
 31
0.0
  0
LINE
  5
4404
  8
250
  6
CONTINUOUS
 10
223.0686512432016
 20
35.0
 30
0.0
 11
223.0686512432016
 21
32.77000000000001
 31
0.0
  0
LINE
  5
4405
  8
240
  6
CONTINUOUS
 10
181.0
 20
20.0
 30
0.0
 11
178.20001524265709
 21
20.0
 31
0.0
  0
LINE
  5
4406
  8
245
  6
CENTER2
 10
208.44888
 20
0.0000000000000142
 30
0.0
 11
-31.7887688307218
 21
0.0
 31
0.0
  0
LINE
  5
4407
  8
241
  6
CONTINUOUS
 10
173.00000786781311
 20
0.0000000000000284
 30
0.0
 11
173.00000786781311
 21
24.500000000000028
 31
0.0
  0
LINE
  5
4408
  8
241
  6
CONTINUOUS
 10
0.0000000000000142
 20
14.0
 30
0.0
 11
-0.0000000000000142
 21
-13.99999999999998
 31
0.0
  0
LINE
  5
4409
  8
240
  6
CONTINUOUS
 10
-30.000000000000028
 20
-13.99999999999998
 30
0.0
 11
-30.000000000000028
 21
14.00000000000003
 31
0.0
  0
LINE
  5
440C
  8
240
  6
CONTINUOUS
 10
-11.59500001626526
 20
-16.5
 30
0.0
 11
-3.4049989837347781
 21
-16.5
 31
0.0
  0
LINE
  5
4410
  8
240
  6
CONTINUOUS
 10
-30.000000000000028
 20
-13.99999999999998
 30
0.0
 11
-13.038374934939061
 21
-13.99999999999998
 31
0.0
  0
LINE
  5
4415
  8
240
  6
CONTINUOUS
 10
-13.038374934939061
 20
-13.99999999999998
 30
0.0
 11
-11.59500001626526
 21
-16.5
 31
0.0
  0
CIRCLE
  5
4418
  8
241
  6
CONTINUOUS
 10
-12.99999999999998
 20
0.0000000000000142
 30
0.0
 40
4.0
  0
CIRCLE
  5
4419
  8
241
  6
CONTINUOUS
 10
-12.99999999999998
 20
0.0000000000000142
 30
0.0
 40
5.0819999999999981
  0
LINE
  5
441A
  8
245
  6
CENTER2
 10
-12.99999999999998
 20
7.9560579999999979
 30
0.0
 11
-12.99999999999998
 21
-7.9273049999999881
 31
0.0
  0
LINE
  5
441B
  8
241
  6
CONTINUOUS
 10
173.00000786781311
 20
0.0000000000000284
 30
0.0
 11
173.00000786781311
 21
-24.499999999999989
 31
0.0
  0
LINE
  5
4438
  8
240
  6
CONTINUOUS
 10
-0.0000000000000033
 20
-25.0
 30
0.0
 11
175.6905999999999
 21
-25.0
 31
0.0
  0
LINE
  5
443A
  8
240
  6
CONTINUOUS
 10
-0.0000000000000033
 20
-25.0
 30
0.0
 11
-0.0000000000001137
 21
-13.99999999999998
 31
0.0
  0
LINE
  5
4445
  8
240
  6
CONTINUOUS
 10
-1.9616240650609771
 20
-13.99999999999998
 30
0.0
 11
-3.4049989837347781
 21
-16.5
 31
0.0
  0
LINE
  5
4447
  8
240
  6
CONTINUOUS
 10
-1.9616240650609771
 20
-13.99999999999998
 30
0.0
 11
-0.0000000000001137
 21
-13.99999999999998
 31
0.0
  0
LINE
  5
4475
  8
240
  6
CONTINUOUS
 10
-11.59499984660415
 20
16.500000000000011
 30
0.0
 11
-3.4049991533958859
 21
16.500000000000011
 31
0.0
  0
LINE
  5
4477
  8
240
  6
CONTINUOUS
 10
-30.000000000000028
 20
14.00000000000002
 30
0.0
 11
-13.038375613583501
 21
13.99999999999998
 31
0.0
  0
LINE
  5
447C
  8
240
  6
CONTINUOUS
 10
-13.038375613583501
 20
13.99999999999998
 30
0.0
 11
-11.59499984660415
 21
16.500000000000011
 31
0.0
  0
LINE
  5
447F
  8
240
  6
CONTINUOUS
 10
-0.0000000000000242
 20
25.000000000000021
 30
0.0
 11
175.31326413154599
 21
25.000000000000021
 31
0.0
  0
LINE
  5
4480
  8
240
  6
CONTINUOUS
 10
-0.0000000000000426
 20
14.000000000000041
 30
0.0
 11
-0.0000000000000242
 21
25.000000000000021
 31
0.0
  0
LINE
  5
4481
  8
240
  6
CONTINUOUS
 10
-1.9616233864165471
 20
14.0
 30
0.0
 11
-3.4049991533958859
 21
16.500000000000011
 31
0.0
  0
LINE
  5
4482
  8
240
  6
CONTINUOUS
 10
-1.9616233864165471
 20
14.0
 30
0.0
 11
-0.0000000000000426
 21
14.000000000000041
 31
0.0
  0
LINE
  5
4485
  8
240
  6
CONTINUOUS
 10
175.31326413154599
 20
25.000000000000021
 30
0.0
 11
178.20001524265709
 21
20.0
 31
0.0
  0
LINE
  5
4486
  8
245
  6
CENTER2
 10
190.99999999999989
 20
34.605739
 30
0.0
 11
190.99999999999989
 21
-26.03911699999999
 31
0.0
  0
LINE
  5
4487
  8
240
  6
CONTINUOUS
 10
206.0
 20
15.80000000000001
 30
0.0
 11
206.0
 21
-20.0
 31
0.0
  0
LINE
  5
4488
  8
240
  6
CONTINUOUS
 10
203.44999999999999
 20
-21.0
 30
0.0
 11
195.01556599999989
 21
-23.259999999999991
 31
0.0
  0
LINE
  5
4489
  8
241
  6
CONTINUOUS
 10
203.44999999999999
 20
-21.0
 30
0.0
 11
178.55000000000001
 21
-21.0
 31
0.0
  0
LINE
  5
448A
  8
240
  6
CONTINUOUS
 10
186.98443499999991
 20
-23.259999999999991
 30
0.0
 11
178.55000000000001
 21
-21.0
 31
0.0
  0
LINE
  5
448B
  8
240
  6
CONTINUOUS
 10
178.0
 20
-21.0
 30
0.0
 11
175.6905999999999
 21
-25.0
 31
0.0
  0
LINE
  5
448C
  8
240
  6
CONTINUOUS
 10
178.55000000000001
 20
-21.0
 30
0.0
 11
178.0
 21
-21.0
 31
0.0
  0
LINE
  5
448D
  8
240
  6
CONTINUOUS
 10
195.01556599999989
 20
-23.259999999999991
 30
0.0
 11
186.98443499999991
 21
-23.259999999999991
 31
0.0
  0
LINE
  5
448E
  8
241
  6
CONTINUOUS
 10
190.99999999999989
 20
2.309401000000022
 30
0.0
 11
188.9999999999998
 21
1.1547010000000171
 31
0.0
  0
LINE
  5
448F
  8
241
  6
CONTINUOUS
 10
192.99999999999989
 20
1.1547010000000171
 30
0.0
 11
190.99999999999989
 21
2.309401000000022
 31
0.0
  0
CIRCLE
  5
4490
  8
241
  6
CONTINUOUS
 10
190.99999999999989
 20
0.0000000000000142
 30
0.0
 40
4.25
  0
CIRCLE
  5
4491
  8
242
  6
CONTINUOUS
 10
190.99999999999989
 20
0.0000000000000142
 30
0.0
 40
4.0
  0
LINE
  5
4492
  8
241
  6
CONTINUOUS
 10
188.9999999999998
 20
-1.1546999999999901
 30
0.0
 11
190.99999999999989
 21
-2.3094009999999781
 31
0.0
  0
LINE
  5
4493
  8
241
  6
CONTINUOUS
 10
188.9999999999998
 20
1.1547010000000171
 30
0.0
 11
188.9999999999998
 21
-1.1546999999999901
 31
0.0
  0
LINE
  5
4494
  8
241
  6
CONTINUOUS
 10
192.99999999999989
 20
-1.1546999999999901
 30
0.0
 11
192.99999999999989
 21
1.1547010000000171
 31
0.0
  0
LINE
  5
4495
  8
241
  6
CONTINUOUS
 10
190.99999999999989
 20
-2.3094009999999781
 30
0.0
 11
192.99999999999989
 21
-1.1546999999999901
 31
0.0
  0
LINE
  5
4496
  8
240
  6
CONTINUOUS
 10
205.0787
 20
-21.0
 30
0.0
 11
203.44999999999999
 21
-21.0
 31
0.0
  0
LINE
  5
4497
  8
240
  6
CONTINUOUS
 10
205.42265
 20
-21.0
 30
0.0
 11
203.44999999999999
 21
-21.0
 31
0.0
  0
LINE
  5
4498
  8
240
  6
CONTINUOUS
 10
206.0
 20
-20.0
 30
0.0
 11
205.42265
 21
-21.0
 31
0.0
  0
LINE
  5
4499
  8
241
  6
CONTINUOUS
 10
193.4999999999996
 20
25.000000000000021
 30
0.0
 11
200.5
 21
25.000000000000021
 31
0.0
  0
LINE
  5
449A
  8
241
  6
CONTINUOUS
 10
190.32538699999989
 20
20.0
 30
0.0
 11
201.0
 21
17.139745999999999
 31
0.0
  0
LINE
  5
449B
  8
241
  6
CONTINUOUS
 10
190.32538699999989
 20
20.0
 30
0.0
 11
181.0
 21
20.0
 31
0.0
  0
LINE
  5
449C
  8
241
  6
CONTINUOUS
 10
181.49999999999989
 20
25.000000000000021
 30
0.0
 11
188.49999999999969
 21
25.000000000000021
 31
0.0
  0
LINE
  5
449D
  8
240
  6
CONTINUOUS
 10
181.0
 20
20.0
 30
0.0
 11
181.0
 21
24.500000000000011
 31
0.0
  0
LINE
  5
449E
  8
240
  6
CONTINUOUS
 10
181.49999999999989
 20
25.000000000000021
 30
0.0
 11
181.0
 21
24.500000000000011
 31
0.0
  0
LINE
  5
449F
  8
241
  6
CONTINUOUS
 10
193.5
 20
25.000000000000021
 30
0.0
 11
193.2322519999999
 21
26.600000000000009
 31
0.0
  0
LINE
  5
44A0
  8
241
  6
CONTINUOUS
 10
188.49999999999989
 20
25.000000000000021
 30
0.0
 11
188.7677489999999
 21
26.600000000000009
 31
0.0
  0
LINE
  5
44A1
  8
241
  6
CONTINUOUS
 10
189.00121699999991
 20
26.800000000000011
 30
0.0
 11
192.99878399999989
 21
26.800000000000011
 31
0.0
  0
LINE
  5
44A2
  8
241
  6
CONTINUOUS
 10
189.00121699999991
 20
26.800000000000011
 30
0.0
 11
188.7682079999999
 21
26.602743000000011
 31
0.0
  0
LINE
  5
44A3
  8
241
  6
CONTINUOUS
 10
193.2317929999999
 20
26.602743000000011
 30
0.0
 11
192.99878399999989
 21
26.800000000000011
 31
0.0
  0
LINE
  5
44A4
  8
240
  6
CONTINUOUS
 10
201.0
 20
17.139745999999999
 30
0.0
 11
201.0
 21
24.500000000000011
 31
0.0
  0
LINE
  5
44A5
  8
240
  6
CONTINUOUS
 10
201.0
 20
17.139745999999999
 30
0.0
 11
206.0
 21
15.80000000000001
 31
0.0
  0
LINE
  5
44A6
  8
240
  6
CONTINUOUS
 10
200.5
 20
25.000000000000021
 30
0.0
 11
201.0
 21
24.500000000000011
 31
0.0
  0
POLYLINE
  5
44A9
  8
241
  6
CONTINUOUS
 66
     1
 10
0.0
 20
0.0
 30
0.0
 70
     8
  0
VERTEX
  5
44AA
  8
241
  6
CONTINUOUS
 10
182.512
 20
20.016999999999999
 30
0.0
 70
    32
  0
VERTEX
  5
44AB
  8
241
  6
CONTINUOUS
 10
182.40700000000001
 20
19.9419
 30
0.0
 70
    32
  0
VERTEX
  5
44AC
  8
241
  6
CONTINUOUS
 10
182.30799999999999
 20
19.8657
 30
0.0
 70
    32
  0
VERTEX
  5
44AD
  8
241
  6
CONTINUOUS
 10
182.214
 20
19.788499999999999
 30
0.0
 70
    32
  0
VERTEX
  5
44AE
  8
241
  6
CONTINUOUS
 10
182.125
 20
19.7105
 30
0.0
 70
    32
  0
VERTEX
  5
44AF
  8
241
  6
CONTINUOUS
 10
182.04300000000001
 20
19.631599999999999
 30
0.0
 70
    32
  0
VERTEX
  5
44B0
  8
241
  6
CONTINUOUS
 10
181.96600000000001
 20
19.5519
 30
0.0
 70
    32
  0
VERTEX
  5
44B1
  8
241
  6
CONTINUOUS
 10
181.89400000000001
 20
19.471399999999999
 30
0.0
 70
    32
  0
VERTEX
  5
44B2
  8
241
  6
CONTINUOUS
 10
181.82900000000001
 20
19.3903
 30
0.0
 70
    32
  0
VERTEX
  5
44B3
  8
241
  6
CONTINUOUS
 10
181.76900000000001
 20
19.308599999999998
 30
0.0
 70
    32
  0
VERTEX
  5
44B4
  8
241
  6
CONTINUOUS
 10
181.71600000000001
 20
19.226199999999999
 30
0.0
 70
    32
  0
VERTEX
  5
44B5
  8
241
  6
CONTINUOUS
 10
181.66800000000001
 20
19.1434
 30
0.0
 70
    32
  0
VERTEX
  5
44B6
  8
241
  6
CONTINUOUS
 10
181.62599999999989
 20
19.060199999999998
 30
0.0
 70
    32
  0
VERTEX
  5
44B7
  8
241
  6
CONTINUOUS
 10
181.59
 20
18.976500000000001
 30
0.0
 70
    32
  0
VERTEX
  5
44B8
  8
241
  6
CONTINUOUS
 10
181.56099999999989
 20
18.892499999999998
 30
0.0
 70
    32
  0
VERTEX
  5
44B9
  8
241
  6
CONTINUOUS
 10
181.53700000000001
 20
18.808299999999999
 30
0.0
 70
    32
  0
VERTEX
  5
44BA
  8
241
  6
CONTINUOUS
 10
181.52000000000001
 20
18.723800000000001
 30
0.0
 70
    32
  0
VERTEX
  5
44BB
  8
241
  6
CONTINUOUS
 10
181.50800000000001
 20
18.639199999999999
 30
0.0
 70
    32
  0
VERTEX
  5
44BC
  8
241
  6
CONTINUOUS
 10
181.50299999999999
 20
18.554600000000001
 30
0.0
 70
    32
  0
VERTEX
  5
44BD
  8
241
  6
CONTINUOUS
 10
181.50299999999999
 20
18.469899999999999
 30
0.0
 70
    32
  0
VERTEX
  5
44BE
  8
241
  6
CONTINUOUS
 10
181.50999999999999
 20
18.385200000000001
 30
0.0
 70
    32
  0
VERTEX
  5
44BF
  8
241
  6
CONTINUOUS
 10
181.523
 20
18.300599999999999
 30
0.0
 70
    32
  0
VERTEX
  5
44C0
  8
241
  6
CONTINUOUS
 10
181.542
 20
18.216200000000001
 30
0.0
 70
    32
  0
VERTEX
  5
44C1
  8
241
  6
CONTINUOUS
 10
181.56700000000001
 20
18.132000000000001
 30
0.0
 70
    32
  0
VERTEX
  5
44C2
  8
241
  6
CONTINUOUS
 10
181.59800000000001
 20
18.048100000000002
 30
0.0
 70
    32
  0
VERTEX
  5
44C3
  8
241
  6
CONTINUOUS
 10
181.63499999999999
 20
17.964500000000001
 30
0.0
 70
    32
  0
VERTEX
  5
44C4
  8
241
  6
CONTINUOUS
 10
181.678
 20
17.881399999999999
 30
0.0
 70
    32
  0
VERTEX
  5
44C5
  8
241
  6
CONTINUOUS
 10
181.727
 20
17.7987
 30
0.0
 70
    32
  0
VERTEX
  5
44C6
  8
241
  6
CONTINUOUS
 10
181.78200000000001
 20
17.7165
 30
0.0
 70
    32
  0
VERTEX
  5
44C7
  8
241
  6
CONTINUOUS
 10
181.84299999999999
 20
17.634899999999998
 30
0.0
 70
    32
  0
VERTEX
  5
44C8
  8
241
  6
CONTINUOUS
 10
181.91
 20
17.553899999999999
 30
0.0
 70
    32
  0
VERTEX
  5
44C9
  8
241
  6
CONTINUOUS
 10
181.982
 20
17.473600000000001
 30
0.0
 70
    32
  0
VERTEX
  5
44CA
  8
241
  6
CONTINUOUS
 10
182.06100000000001
 20
17.394100000000002
 30
0.0
 70
    32
  0
VERTEX
  5
44CB
  8
241
  6
CONTINUOUS
 10
182.14500000000001
 20
17.315300000000001
 30
0.0
 70
    32
  0
VERTEX
  5
44CC
  8
241
  6
CONTINUOUS
 10
182.23400000000001
 20
17.237500000000001
 30
0.0
 70
    32
  0
VERTEX
  5
44CD
  8
241
  6
CONTINUOUS
 10
182.33000000000001
 20
17.160599999999999
 30
0.0
 70
    32
  0
VERTEX
  5
44CE
  8
241
  6
CONTINUOUS
 10
182.43000000000001
 20
17.084599999999998
 30
0.0
 70
    32
  0
VERTEX
  5
44CF
  8
241
  6
CONTINUOUS
 10
182.536
 20
17.009699999999999
 30
0.0
 70
    32
  0
VERTEX
  5
44D0
  8
241
  6
CONTINUOUS
 10
182.648
 20
16.9358
 30
0.0
 70
    32
  0
VERTEX
  5
44D1
  8
241
  6
CONTINUOUS
 10
182.76499999999999
 20
16.863099999999999
 30
0.0
 70
    32
  0
VERTEX
  5
44D2
  8
241
  6
CONTINUOUS
 10
182.887
 20
16.791599999999999
 30
0.0
 70
    32
  0
VERTEX
  5
44D3
  8
241
  6
CONTINUOUS
 10
183.01400000000001
 20
16.721299999999999
 30
0.0
 70
    32
  0
VERTEX
  5
44D4
  8
241
  6
CONTINUOUS
 10
183.14599999999999
 20
16.6524
 30
0.0
 70
    32
  0
VERTEX
  5
44D5
  8
241
  6
CONTINUOUS
 10
183.28299999999999
 20
16.584700000000002
 30
0.0
 70
    32
  0
VERTEX
  5
44D6
  8
241
  6
CONTINUOUS
 10
183.42400000000001
 20
16.5185
 30
0.0
 70
    32
  0
VERTEX
  5
44D7
  8
241
  6
CONTINUOUS
 10
183.571
 20
16.453700000000001
 30
0.0
 70
    32
  0
VERTEX
  5
44D8
  8
241
  6
CONTINUOUS
 10
183.72200000000001
 20
16.3903
 30
0.0
 70
    32
  0
VERTEX
  5
44D9
  8
241
  6
CONTINUOUS
 10
183.87799999999999
 20
16.328499999999998
 30
0.0
 70
    32
  0
VERTEX
  5
44DA
  8
241
  6
CONTINUOUS
 10
184.03800000000001
 20
16.2683
 30
0.0
 70
    32
  0
VERTEX
  5
44DB
  8
241
  6
CONTINUOUS
 10
184.202
 20
16.209700000000002
 30
0.0
 70
    32
  0
VERTEX
  5
44DC
  8
241
  6
CONTINUOUS
 10
184.37
 20
16.152799999999999
 30
0.0
 70
    32
  0
VERTEX
  5
44DD
  8
241
  6
CONTINUOUS
 10
184.54300000000001
 20
16.0975
 30
0.0
 70
    32
  0
VERTEX
  5
44DE
  8
241
  6
CONTINUOUS
 10
184.71899999999999
 20
16.044
 30
0.0
 70
    32
  0
VERTEX
  5
44DF
  8
241
  6
CONTINUOUS
 10
184.899
 20
15.9923
 30
0.0
 70
    32
  0
VERTEX
  5
44E0
  8
241
  6
CONTINUOUS
 10
185.083
 20
15.942399999999999
 30
0.0
 70
    32
  0
VERTEX
  5
44E1
  8
241
  6
CONTINUOUS
 10
185.27099999999999
 20
15.894299999999999
 30
0.0
 70
    32
  0
VERTEX
  5
44E2
  8
241
  6
CONTINUOUS
 10
185.46100000000001
 20
15.848100000000001
 30
0.0
 70
    32
  0
VERTEX
  5
44E3
  8
241
  6
CONTINUOUS
 10
185.655
 20
15.803900000000001
 30
0.0
 70
    32
  0
VERTEX
  5
44E4
  8
241
  6
CONTINUOUS
 10
185.85300000000001
 20
15.7616
 30
0.0
 70
    32
  0
VERTEX
  5
44E5
  8
241
  6
CONTINUOUS
 10
186.053
 20
15.7212
 30
0.0
 70
    32
  0
VERTEX
  5
44E6
  8
241
  6
CONTINUOUS
 10
186.256
 20
15.6829
 30
0.0
 70
    32
  0
VERTEX
  5
44E7
  8
241
  6
CONTINUOUS
 10
186.46100000000001
 20
15.646599999999999
 30
0.0
 70
    32
  0
VERTEX
  5
44E8
  8
241
  6
CONTINUOUS
 10
186.66900000000001
 20
15.612399999999999
 30
0.0
 70
    32
  0
VERTEX
  5
44E9
  8
241
  6
CONTINUOUS
 10
186.88
 20
15.580299999999999
 30
0.0
 70
    32
  0
VERTEX
  5
44EA
  8
241
  6
CONTINUOUS
 10
187.09299999999999
 20
15.5503
 30
0.0
 70
    32
  0
VERTEX
  5
44EB
  8
241
  6
CONTINUOUS
 10
187.30799999999999
 20
15.522399999999999
 30
0.0
 70
    32
  0
VERTEX
  5
44EC
  8
241
  6
CONTINUOUS
 10
187.524
 20
15.496700000000001
 30
0.0
 70
    32
  0
VERTEX
  5
44ED
  8
241
  6
CONTINUOUS
 10
187.74299999999999
 20
15.473100000000001
 30
0.0
 70
    32
  0
VERTEX
  5
44EE
  8
241
  6
CONTINUOUS
 10
187.96299999999999
 20
15.451700000000001
 30
0.0
 70
    32
  0
VERTEX
  5
44EF
  8
241
  6
CONTINUOUS
 10
188.185
 20
15.432600000000001
 30
0.0
 70
    32
  0
VERTEX
  5
44F0
  8
241
  6
CONTINUOUS
 10
188.40799999999999
 20
15.4156
 30
0.0
 70
    32
  0
VERTEX
  5
44F1
  8
241
  6
CONTINUOUS
 10
188.63200000000001
 20
15.4009
 30
0.0
 70
    32
  0
VERTEX
  5
44F2
  8
241
  6
CONTINUOUS
 10
188.857
 20
15.388400000000001
 30
0.0
 70
    32
  0
VERTEX
  5
44F3
  8
241
  6
CONTINUOUS
 10
189.083
 20
15.3782
 30
0.0
 70
    32
  0
VERTEX
  5
44F4
  8
241
  6
CONTINUOUS
 10
189.309
 20
15.370200000000001
 30
0.0
 70
    32
  0
VERTEX
  5
44F5
  8
241
  6
CONTINUOUS
 10
189.53599999999989
 20
15.3645
 30
0.0
 70
    32
  0
VERTEX
  5
44F6
  8
241
  6
CONTINUOUS
 10
189.76400000000001
 20
15.361000000000001
 30
0.0
 70
    32
  0
VERTEX
  5
44F7
  8
241
  6
CONTINUOUS
 10
189.99100000000001
 20
15.3598
 30
0.0
 70
    32
  0
VERTEX
  5
44F8
  8
241
  6
CONTINUOUS
 10
190.21899999999999
 20
15.360900000000001
 30
0.0
 70
    32
  0
VERTEX
  5
44F9
  8
241
  6
CONTINUOUS
 10
190.446
 20
15.3643
 30
0.0
 70
    32
  0
VERTEX
  5
44FA
  8
241
  6
CONTINUOUS
 10
190.673
 20
15.369899999999999
 30
0.0
 70
    32
  0
VERTEX
  5
44FB
  8
241
  6
CONTINUOUS
 10
190.90000000000001
 20
15.377700000000001
 30
0.0
 70
    32
  0
VERTEX
  5
44FC
  8
241
  6
CONTINUOUS
 10
191.126
 20
15.3879
 30
0.0
 70
    32
  0
VERTEX
  5
44FD
  8
241
  6
CONTINUOUS
 10
191.351
 20
15.4003
 30
0.0
 70
    32
  0
VERTEX
  5
44FE
  8
241
  6
CONTINUOUS
 10
191.57499999999999
 20
15.414899999999999
 30
0.0
 70
    32
  0
VERTEX
  5
44FF
  8
241
  6
CONTINUOUS
 10
191.798
 20
15.431800000000001
 30
0.0
 70
    32
  0
VERTEX
  5
4500
  8
241
  6
CONTINUOUS
 10
192.02000000000001
 20
15.450799999999999
 30
0.0
 70
    32
  0
VERTEX
  5
4501
  8
241
  6
CONTINUOUS
 10
192.24000000000001
 20
15.472099999999999
 30
0.0
 70
    32
  0
VERTEX
  5
4502
  8
241
  6
CONTINUOUS
 10
192.459
 20
15.4956
 30
0.0
 70
    32
  0
VERTEX
  5
4503
  8
241
  6
CONTINUOUS
 10
192.67500000000001
 20
15.5212
 30
0.0
 70
    32
  0
VERTEX
  5
4504
  8
241
  6
CONTINUOUS
 10
192.88999999999999
 20
15.548999999999999
 30
0.0
 70
    32
  0
VERTEX
  5
4505
  8
241
  6
CONTINUOUS
 10
193.10299999999989
 20
15.578900000000001
 30
0.0
 70
    32
  0
VERTEX
  5
4506
  8
241
  6
CONTINUOUS
 10
193.31399999999999
 20
15.610900000000001
 30
0.0
 70
    32
  0
VERTEX
  5
4507
  8
241
  6
CONTINUOUS
 10
193.52199999999999
 20
15.645099999999999
 30
0.0
 70
    32
  0
VERTEX
  5
4508
  8
241
  6
CONTINUOUS
 10
193.72800000000001
 20
15.6813
 30
0.0
 70
    32
  0
VERTEX
  5
4509
  8
241
  6
CONTINUOUS
 10
193.93100000000001
 20
15.7195
 30
0.0
 70
    32
  0
VERTEX
  5
450A
  8
241
  6
CONTINUOUS
 10
194.131
 20
15.7597
 30
0.0
 70
    32
  0
VERTEX
  5
450B
  8
241
  6
CONTINUOUS
 10
194.32900000000001
 20
15.8019
 30
0.0
 70
    32
  0
VERTEX
  5
450C
  8
241
  6
CONTINUOUS
 10
194.523
 20
15.8461
 30
0.0
 70
    32
  0
VERTEX
  5
450D
  8
241
  6
CONTINUOUS
 10
194.714
 20
15.892200000000001
 30
0.0
 70
    32
  0
VERTEX
  5
450E
  8
241
  6
CONTINUOUS
 10
194.90100000000001
 20
15.940200000000001
 30
0.0
 70
    32
  0
VERTEX
  5
450F
  8
241
  6
CONTINUOUS
 10
195.08500000000001
 20
15.99
 30
0.0
 70
    32
  0
VERTEX
  5
4510
  8
241
  6
CONTINUOUS
 10
195.26499999999999
 20
16.041699999999999
 30
0.0
 70
    32
  0
VERTEX
  5
4511
  8
241
  6
CONTINUOUS
 10
195.44200000000001
 20
16.095099999999999
 30
0.0
 70
    32
  0
VERTEX
  5
4512
  8
241
  6
CONTINUOUS
 10
195.61500000000001
 20
16.150300000000001
 30
0.0
 70
    32
  0
VERTEX
  5
4513
  8
241
  6
CONTINUOUS
 10
195.78299999999999
 20
16.207100000000001
 30
0.0
 70
    32
  0
VERTEX
  5
4514
  8
241
  6
CONTINUOUS
 10
195.94800000000001
 20
16.265699999999999
 30
0.0
 70
    32
  0
VERTEX
  5
4515
  8
241
  6
CONTINUOUS
 10
196.108
 20
16.325800000000001
 30
0.0
 70
    32
  0
VERTEX
  5
4516
  8
241
  6
CONTINUOUS
 10
196.26400000000001
 20
16.387499999999999
 30
0.0
 70
    32
  0
VERTEX
  5
4517
  8
241
  6
CONTINUOUS
 10
196.41499999999999
 20
16.450800000000001
 30
0.0
 70
    32
  0
VERTEX
  5
4518
  8
241
  6
CONTINUOUS
 10
196.56200000000001
 20
16.515599999999999
 30
0.0
 70
    32
  0
VERTEX
  5
4519
  8
241
  6
CONTINUOUS
 10
196.70400000000001
 20
16.581700000000001
 30
0.0
 70
    32
  0
VERTEX
  5
451A
  8
241
  6
CONTINUOUS
 10
196.84100000000001
 20
16.6493
 30
0.0
 70
    32
  0
VERTEX
  5
451B
  8
241
  6
CONTINUOUS
 10
196.97300000000001
 20
16.7182
 30
0.0
 70
    32
  0
VERTEX
  5
451C
  8
241
  6
CONTINUOUS
 10
197.101
 20
16.788399999999999
 30
0.0
 70
    32
  0
VERTEX
  5
451D
  8
241
  6
CONTINUOUS
 10
197.22300000000001
 20
16.8599
 30
0.0
 70
    32
  0
VERTEX
  5
451E
  8
241
  6
CONTINUOUS
 10
197.34
 20
16.932600000000001
 30
0.0
 70
    32
  0
VERTEX
  5
451F
  8
241
  6
CONTINUOUS
 10
197.452
 20
17.006399999999999
 30
0.0
 70
    32
  0
VERTEX
  5
4520
  8
241
  6
CONTINUOUS
 10
197.55799999999999
 20
17.081199999999999
 30
0.0
 70
    32
  0
VERTEX
  5
4521
  8
241
  6
CONTINUOUS
 10
197.65899999999999
 20
17.1571
 30
0.0
 70
    32
  0
VERTEX
  5
4522
  8
241
  6
CONTINUOUS
 10
197.75399999999999
 20
17.234000000000002
 30
0.0
 70
    32
  0
VERTEX
  5
4523
  8
241
  6
CONTINUOUS
 10
197.84399999999999
 20
17.311900000000001
 30
0.0
 70
    32
  0
VERTEX
  5
4524
  8
241
  6
CONTINUOUS
 10
197.928
 20
17.390499999999999
 30
0.0
 70
    32
  0
VERTEX
  5
4525
  8
241
  6
CONTINUOUS
 10
198.00700000000001
 20
17.469999999999999
 30
0.0
 70
    32
  0
VERTEX
  5
4526
  8
241
  6
CONTINUOUS
 10
198.08000000000001
 20
17.5503
 30
0.0
 70
    32
  0
VERTEX
  5
4527
  8
241
  6
CONTINUOUS
 10
198.14699999999999
 20
17.6312
 30
0.0
 70
    32
  0
VERTEX
  5
4528
  8
241
  6
CONTINUOUS
 10
198.208
 20
17.712800000000001
 30
0.0
 70
    32
  0
VERTEX
  5
4529
  8
241
  6
CONTINUOUS
 10
198.26300000000001
 20
17.795000000000002
 30
0.0
 70
    32
  0
VERTEX
  5
452A
  8
241
  6
CONTINUOUS
 10
198.31299999999999
 20
17.877700000000001
 30
0.0
 70
    32
  0
SEQEND
  5
452B
  8
241
  6
CONTINUOUS
  0
LINE
  5
452C
  8
240
  6
CONTINUOUS
 10
190.99999999999989
 20
32.500000000000021
 30
0.0
 11
193.5
 21
32.500000000000021
 31
0.0
  0
LINE
  5
452D
  8
240
  6
CONTINUOUS
 10
188.8514194790709
 20
27.100000000000041
 30
0.0
 11
193.1485805209289
 21
27.100000000000041
 31
0.0
1001
GRPNAME
1000
PASTMD1Y
  0
POLYLINE
  5
452E
  8
241
  6
CONTINUOUS
 66
     1
 10
0.0
 20
0.0
 30
0.0
 70
     8
  0
VERTEX
  5
452F
  8
241
  6
CONTINUOUS
 10
187.73831200000001
 20
32.295906999999993
 30
0.0
 70
    32
  0
VERTEX
  5
4530
  8
241
  6
CONTINUOUS
 10
189.369156
 20
32.126477000000008
 30
0.0
 70
    32
  0
VERTEX
  5
4531
  8
241
  6
CONTINUOUS
 10
190.99999999999989
 20
32.070000000000007
 30
0.0
 70
    32
  0
VERTEX
  5
4532
  8
241
  6
CONTINUOUS
 10
192.63084499999999
 20
32.126477000000008
 30
0.0
 70
    32
  0
VERTEX
  5
4533
  8
241
  6
CONTINUOUS
 10
194.2616889999999
 20
32.295906999999993
 30
0.0
 70
    32
  0
SEQEND
  5
4534
  8
241
  6
CONTINUOUS
  0
LINE
  5
4535
  8
240
  6
CONTINUOUS
 10
188.56693704363261
 20
25.399999999999991
 30
0.0
 11
188.8514194790709
 21
27.100000000000041
 31
0.0
1001
GRPNAME
1000
PASTMD1Y
  0
LINE
  5
4536
  8
240
  6
CONTINUOUS
 10
181.49999999999989
 20
25.000000000000021
 30
0.0
 11
181.49999999999989
 21
30.500000000000021
 31
0.0
  0
LINE
  5
4537
  8
240
  6
CONTINUOUS
 10
181.49999999999989
 20
25.000000000000021
 30
0.0
 11
188.16693704362959
 21
25.000000000000021
 31
0.0
  0
LINE
  5
4538
  8
240
  6
CONTINUOUS
 10
188.1669370436324
 20
25.000000000000021
 30
0.0
 11
188.56693704363261
 21
25.399999999999991
 31
0.0
1001
GRPNAME
1000
PASTMD1Y
  0
LINE
  5
4539
  8
240
  6
CONTINUOUS
 10
183.49999999999989
 20
32.500000000000021
 30
0.0
 11
186.5
 21
32.500000000000021
 31
0.0
  0
ARC
  5
453A
  8
240
  6
CONTINUOUS
 10
183.49999999999989
 20
30.500000000000021
 30
0.0
 40
2.0
 50
90.0
 51
180.0
  0
LINE
  5
453B
  8
240
  6
CONTINUOUS
 10
190.99999999999989
 20
32.500000000000021
 30
0.0
 11
188.49999999999989
 21
32.500000000000021
 31
0.0
  0
POLYLINE
  5
453C
  8
240
  6
CONTINUOUS
 66
     1
 10
0.0
 20
0.0
 30
0.0
 70
     8
  0
VERTEX
  5
453D
  8
240
  6
CONTINUOUS
 10
186.5
 20
32.500000000000021
 30
0.0
 70
    32
  0
VERTEX
  5
453E
  8
240
  6
CONTINUOUS
 10
186.8095779999999
 20
32.442872000000008
 30
0.0
 70
    32
  0
VERTEX
  5
453F
  8
240
  6
CONTINUOUS
 10
187.119156
 20
32.389813000000011
 30
0.0
 70
    32
  0
VERTEX
  5
4540
  8
240
  6
CONTINUOUS
 10
187.42873399999999
 20
32.340825000000009
 30
0.0
 70
    32
  0
VERTEX
  5
4541
  8
240
  6
CONTINUOUS
 10
187.73831200000001
 20
32.295906999999993
 30
0.0
 70
    32
  0
SEQEND
  5
4542
  8
240
  6
CONTINUOUS
  0
LINE
  5
4543
  8
240
  6
CONTINUOUS
 10
188.49999999999989
 20
32.500000000000021
 30
0.0
 11
187.73831200000001
 21
32.295906999999993
 31
0.0
  0
LINE
  5
4544
  8
241
  6
CONTINUOUS
 10
209.99945199999999
 20
34.579065999999997
 30
0.0
 11
209.496353
 21
24.979358000000001
 31
0.0
  0
LINE
  5
4545
  8
241
  6
CONTINUOUS
 10
199.2272419999999
 20
25.000000000000021
 30
0.0
 11
199.2272419999999
 21
32.363095000000001
 31
0.0
  0
LINE
  5
4546
  8
240
  6
CONTINUOUS
 10
193.43306295636739
 20
25.399999999999991
 30
0.0
 11
193.1485805209289
 21
27.100000000000041
 31
0.0
1001
GRPNAME
1000
PASTMD1Y
  0
LINE
  5
4547
  8
241
  6
CONTINUOUS
 10
200.81700399999991
 20
29.900375000000011
 30
0.0
 11
208.87904499999999
 21
24.664824000000021
 31
0.0
  0
LINE
  5
4548
  8
240
  6
CONTINUOUS
 10
193.8330629563749
 20
25.000000000000089
 30
0.0
 11
208.36292
 21
25.000000000000021
 31
0.0
  0
LINE
  5
4549
  8
240
  6
CONTINUOUS
 10
193.8330629563749
 20
25.000000000000089
 30
0.0
 11
193.43306295636739
 21
25.399999999999991
 31
0.0
1001
GRPNAME
1000
PASTMD1Y
  0
ARC
  5
454A
  8
241
  6
CONTINUOUS
 10
209.096901
 20
25.00029300000001
 30
0.0
 40
0.4
 50
237.00000000000031
 51
357.00000000000011
  0
LINE
  5
454B
  8
241
  6
CONTINUOUS
 10
200.853264
 20
30.592245999999999
 30
0.0
 11
209.41840400000001
 21
34.956403000000009
 31
0.0
  0
CIRCLE
  5
454C
  8
246
  6
PHANTOM2
 10
206.57725400000001
 20
29.94537900000002
 30
0.0
 40
3.174999999999998
  0
LINE
  5
454D
  8
240
  6
CONTINUOUS
 10
201.535178
 20
33.235178000000012
 30
0.0
 11
208.42440400000001
 21
34.449933999999999
 31
0.0
  0
LINE
  5
454E
  8
240
  6
CONTINUOUS
 10
195.5
 20
32.500000000000021
 30
0.0
 11
200.80000000000001
 21
32.500000000000021
 31
0.0
  0
POLYLINE
  5
454F
  8
240
  6
CONTINUOUS
 66
     1
 10
0.0
 20
0.0
 30
0.0
 70
     8
  0
VERTEX
  5
4550
  8
240
  6
CONTINUOUS
 10
194.2616889999999
 20
32.295906999999993
 30
0.0
 70
    32
  0
VERTEX
  5
4551
  8
240
  6
CONTINUOUS
 10
194.57126699999989
 20
32.340825000000009
 30
0.0
 70
    32
  0
VERTEX
  5
4552
  8
240
  6
CONTINUOUS
 10
194.88084499999999
 20
32.389813000000011
 30
0.0
 70
    32
  0
VERTEX
  5
4553
  8
240
  6
CONTINUOUS
 10
195.19042200000001
 20
32.442872000000008
 30
0.0
 70
    32
  0
VERTEX
  5
4554
  8
240
  6
CONTINUOUS
 10
195.5
 20
32.500000000000021
 30
0.0
 70
    32
  0
SEQEND
  5
4555
  8
240
  6
CONTINUOUS
  0
LINE
  5
4556
  8
240
  6
CONTINUOUS
 10
193.5
 20
32.500000000000021
 30
0.0
 11
194.2616889999999
 21
32.295906999999993
 31
0.0
  0
LINE
  5
4557
  8
240
  6
CONTINUOUS
 10
200.80000000000001
 20
32.500000000000021
 30
0.0
 11
201.535178
 21
33.235178000000012
 31
0.0
  0
ARC
  5
4558
  8
241
  6
CONTINUOUS
 10
201.0348599999999
 20
30.235842999999999
 30
0.0
 40
0.4
 50
116.9999999999999
 51
237.00000000000031
  0
ARC
  5
4559
  8
241
  6
CONTINUOUS
 10
198.49999999999989
 20
30.500000000000021
 30
0.0
 40
2.0
 50
68.67727900000078
 51
90.0
  0
ARC
  5
455A
  8
241
  6
CONTINUOUS
 10
209.59999999999999
 20
34.600000000000009
 30
0.0
 40
0.4
 50
357.00000000000011
 51
116.9999999999999
  0
LINE
  5
455B
  8
250
  6
CONTINUOUS
 10
-0.0000000000000258
 20
25.500000000000021
 30
0.0
 11
-0.0000000000000247
 21
43.0
 31
0.0
  0
LINE
  5
455C
  8
250
  6
CONTINUOUS
 10
210.0
 20
35.100000000000009
 30
0.0
 11
210.0
 21
43.0
 31
0.0
  0
LINE
  5
455D
  8
250
  6
CONTINUOUS
 10
2.2299999999999751
 20
42.0
 30
0.0
 11
207.77000000000001
 21
42.0
 31
0.0
  0
INSERT
  5
455E
  8
250
  6
CONTINUOUS
  2
*U4
 10
0.0
 20
0.0
 30
0.0
  0
LINE
  5
455F
  8
250
  6
CONTINUOUS
 10
2.2299999999999751
 20
41.62833333333333
 30
0.0
 11
-0.0000000000000248
 21
42.0
 31
0.0
  0
LINE
  5
4560
  8
250
  6
CONTINUOUS
 10
2.2299999999999751
 20
42.371666666666663
 30
0.0
 11
-0.0000000000000248
 21
42.0
 31
0.0
  0
LINE
  5
4561
  8
250
  6
CONTINUOUS
 10
-0.0000000000000248
 20
42.0
 30
0.0
 11
2.2299999999999751
 21
42.0
 31
0.0
  0
LINE
  5
4562
  8
250
  6
CONTINUOUS
 10
207.77000000000001
 20
42.371666666666663
 30
0.0
 11
210.0
 21
42.0
 31
0.0
  0
LINE
  5
4563
  8
250
  6
CONTINUOUS
 10
207.77000000000001
 20
41.62833333333333
 30
0.0
 11
210.0
 21
42.0
 31
0.0
  0
LINE
  5
4564
  8
250
  6
CONTINUOUS
 10
210.0
 20
42.0
 30
0.0
 11
207.77000000000001
 21
42.0
 31
0.0
  0
LINE
  5
45C3
  8
241
  6
CONTINUOUS
 10
-13.038375613583501
 20
13.99999999999998
 30
0.0
 11
-1.9616233864165571
 21
14.00000000000002
 31
0.0
  0
LINE
  5
45C4
  8
241
  6
CONTINUOUS
 10
-1.9616240650609771
 20
-13.99999999999998
 30
0.0
 11
-13.038374934939061
 21
-13.99999999999998
 31
0.0
  0
LINE
  5
45EE
  8
247
  6
CONTINUOUS
 10
5.4999999999999432
 20
-15.75
 30
0.0
 11
5.5
 21
-11.11538461566999
 31
0.0
  0
LINE
  5
45EF
  8
247
  6
CONTINUOUS
 10
3.0
 20
-14.954893499987911
 30
0.0
 11
5.0999999999160082
 21
-15.557058810057351
 31
0.0
  0
LINE
  5
45F0
  8
247
  6
CONTINUOUS
 10
3.996153846113998
 20
-14.32515140351904
 30
0.0
 11
3.996153846113998
 21
-15.240536018867029
 31
0.0
  0
ARC
  5
45F1
  8
247
  6
CONTINUOUS
 10
3.3847190672940992
 20
-14.08726340194675
 30
0.0
 40
0.3876715809326743
 50
72.99788967529301
 51
172.92416621851351
  0
ARC
  5
45F2
  8
247
  6
CONTINUOUS
 10
3.305223131028014
 20
-14.382477556804069
 30
0.0
 40
0.6933047965358766
 50
4.7429368522022131
 51
73.849226273266765
1001
GENIUS_GENOBJ-N-FIL_13
1002
{
1000
OWNER
1000
GEN
1002
}
1001
GENIUS_GENODEF_13
1002
{
1000
HIER
1070
     0
1002
}
1002
{
1000
MANEDIT
1070
     0
1002
}
1002
{
1000
NOSEL
1070
     0
1002
}
1002
{
1000
BEHIND
1070
     0
1002
}
1002
{
1000
OTHER
1070
     0
1002
}
1002
{
1000
REACTOR
1002
}
  0
LINE
  5
45F3
  8
247
  6
CONTINUOUS
 10
5.0999999999160082
 20
-14.64167419470936
 30
0.0
 11
5.0999999999160082
 21
-15.557058810057351
 31
0.0
  0
LINE
  5
45F4
  8
247
  6
CONTINUOUS
 10
3.0
 20
-14.954893499987911
 30
0.0
 11
3.0
 21
-14.039508884639931
 31
0.0
  0
ARC
  5
45F5
  8
247
  6
CONTINUOUS
 10
4.3874169627678716
 20
-14.3783064762668
 30
0.0
 40
0.394857301075386
 50
65.990941652528875
 51
172.26344345906909
  0
ARC
  5
45F6
  8
247
  6
CONTINUOUS
 10
4.3912003273325686
 20
-14.71244661042692
 30
0.0
 40
0.7123241612361686
 50
5.701985164256504
 51
77.277338436822006
1001
GENIUS_GENOBJ-N-FIL_13
1002
{
1000
OWNER
1000
GEN
1002
}
1001
GENIUS_GENODEF_13
1002
{
1000
HIER
1070
     0
1002
}
1002
{
1000
MANEDIT
1070
     0
1002
}
1002
{
1000
NOSEL
1070
     0
1002
}
1002
{
1000
BEHIND
1070
     0
1002
}
1002
{
1000
OTHER
1070
     0
1002
}
1002
{
1000
REACTOR
1002
}
  0
LINE
  5
45F7
  8
247
  6
CONTINUOUS
 10
5.0999999999160082
 20
-13.683981887063339
 30
0.0
 11
3.0
 21
-13.081816576993949
 31
0.0
  0
LINE
  5
45F8
  8
247
  6
CONTINUOUS
 10
3.0
 20
-11.58566273090792
 30
0.0
 11
3.0
 21
-11.981678364303541
 31
0.0
  0
LINE
  5
45F9
  8
247
  6
CONTINUOUS
 10
5.0999999999160082
 20
-12.60873965394393
 30
0.0
 11
5.0999999999160082
 21
-12.17797042319193
 31
0.0
  0
ARC
  5
45FA
  8
247
  6
CONTINUOUS
 10
4.4582995950833597
 20
-11.381816577069911
 30
0.0
 40
1.5768550576395479
 50
202.35948814152931
 51
254.99324854284691
  0
ARC
  5
45FB
  8
247
  6
CONTINUOUS
 10
3.5658188585381358
 20
-11.847511366133171
 30
0.0
 40
0.6234706797009447
 50
94.994589319075317
 51
155.1663289573041
1001
GENIUS_GENOBJ-N-FIL_13
1002
{
1000
OWNER
1000
GEN
1002
}
1001
GENIUS_GENODEF_13
1002
{
1000
HIER
1070
     0
1002
}
1002
{
1000
MANEDIT
1070
     0
1002
}
1002
{
1000
NOSEL
1070
     0
1002
}
1002
{
1000
BEHIND
1070
     0
1002
}
1002
{
1000
OTHER
1070
     0
1002
}
1002
{
1000
REACTOR
1002
}
  0
ARC
  5
45FC
  8
247
  6
CONTINUOUS
 10
4.162102121969439
 20
-12.44418395103275
 30
0.0
 40
0.9749472149106983
 50
15.846096555780679
 51
82.325137004169278
  0
ARC
  5
45FD
  8
247
  6
CONTINUOUS
 10
4.3714704019710657
 20
-12.03521163877218
 30
0.0
 40
0.9271945638692009
 50
249.7136016704969
 51
321.78874565641098
1001
GENIUS_GENOBJ-N-FIL_13
1002
{
1000
OWNER
1000
GEN
1002
}
1001
GENIUS_GENODEF_13
1002
{
1000
HIER
1070
     0
1002
}
1002
{
1000
MANEDIT
1070
     0
1002
}
1002
{
1000
NOSEL
1070
     0
1002
}
1002
{
1000
BEHIND
1070
     0
1002
}
1002
{
1000
OTHER
1070
     0
1002
}
1002
{
1000
REACTOR
1002
}
  0
LINE
  5
45FE
  8
247
  6
CONTINUOUS
 10
4.2923076922559744
 20
-11.962585807815911
 30
0.0
 11
4.2923076922559744
 21
-11.47797042321997
 31
0.0
  0
ARC
  5
45FF
  8
247
  6
CONTINUOUS
 10
4.25
 20
-15.75
 30
0.0
 40
1.25
 50
180.0
 51
0.0
  0
LINE
  5
4600
  8
247
  6
CONTINUOUS
 10
3.0
 20
-15.75
 30
0.0
 11
3.0
 21
-15.30384615391398
 31
0.0
  0
ARC
  5
4601
  8
247
  6
CONTINUOUS
 10
4.25
 20
-11.11538461566999
 30
0.0
 40
1.25
 50
0.0
 51
180.0
  0
VIEWPORT
  5
22
 67
     1
  8
0
 10
261.51769911504419
 20
148.5
 30
0.0
 40
523.0353982300885
 41
297.0
 68
     1
 69
     1
1001
ACAD
1000
MVIEW
1002
{
1070
    16
1010
0.0
1020
0.0
1030
0.0
1010
0.0
1020
0.0
1030
1.0
1040
0.0
1040
297.0
1040
261.51769911504419
1040
148.5
1040
50.0
1040
0.0
1040
0.0
1070
     0
1070
   100
1070
     1
1070
     1
1070
     0
1070
     0
1070
     0
1070
     0
1040
0.0
1040
0.0
1040
0.0
1040
1.0
1040
1.0
1040
10.0
1040
10.0
1070
     0
1002
{
1002
}
1002
}
1001
GENIUS_GENODEF_13
1002
{
1000
HIER
1070
     0
1002
}
1002
{
1000
MANEDIT
1070
     0
1002
}
1002
{
1000
NOSEL
1070
     0
1002
}
1002
{
1000
BEHIND
1070
     0
1002
}
1002
{
1000
OTHER
1070
     0
1002
}
1002
{
1000
REACTOR
1002
}
1001
GENIUS_GENOBJ-N-SDF_13
1002
{
1000
OWNER
1000
GEN
1002
}
1001
GENIUS_GENSCREG_15
1000
PF
1040
1.0
1000
DF
1040
1.0
1000
MIN
1011
0.0
1021
0.0
1031
0.0
1021
0.0
1031
0.0
1000
MAX
1011
523.0353982300885
1021
0.0
1031
0.0
1021
297.0
1031
0.0
1000
FLAGS
1070
     4
  0
ENDSEC
  0
EOF
