  0
SECTION
  2
HEADER
  9
$ACADVER
  1
AC1009
  9
$INSBASE
 10
0.0
 20
0.0
 30
0.0
  9
$EXTMIN
 10
-33.7615771299999992
 20
-19.5
 30
0.0
  9
$EXTMAX
 10
137.9635998100343102
 20
54.0
 30
0.0
  9
$LIMMIN
 10
0.0
 20
0.0
  9
$LIMMAX
 10
297.0
 20
210.0
  9
$ORTHOMODE
 70
     0
  9
$REGENMODE
 70
     1
  9
$FILLMODE
 70
     1
  9
$QTEXTMODE
 70
     0
  9
$MIRRTEXT
 70
     1
  9
$DRAGMODE
 70
     2
  9
$LTSCALE
 40
10.0
  9
$OSMODE
 70
   807
  9
$ATTMODE
 70
     1
  9
$TEXTSIZE
 40
3.0
  9
$TRACEWID
 40
1.0
  9
$TEXTSTYLE
  7
YOKO
  9
$CLAYER
  8
240
  9
$CELTYPE
  6
BYLAYER
  9
$CECOLOR
 62
   256
  9
$DIMSCALE
 40
1.0
  9
$DIMASZ
 40
2.2299999999999991
  9
$DIMEXO
 40
0.5
  9
$DIMDLI
 40
7.0
  9
$DIMRND
 40
0.0
  9
$DIMDLE
 40
0.0
  9
$DIMEXE
 40
1.0
  9
$DIMTP
 40
0.0
  9
$DIMTM
 40
0.01
  9
$DIMTXT
 40
2.799999999999998
  9
$DIMCEN
 40
0.0
  9
$DIMTSZ
 40
0.0
  9
$DIMTOL
 70
     0
  9
$DIMLIM
 70
     0
  9
$DIMTIH
 70
     0
  9
$DIMTOH
 70
     0
  9
$DIMSE1
 70
     0
  9
$DIMSE2
 70
     0
  9
$DIMTAD
 70
     3
  9
$DIMZIN
 70
     9
  9
$DIMBLK
  1
OPEN
  9
$DIMASO
 70
     1
  9
$DIMSHO
 70
     1
  9
$DIMPOST
  1

  9
$DIMAPOST
  1

  9
$DIMALT
 70
     0
  9
$DIMALTD
 70
     2
  9
$DIMALTF
 40
25.3999999999999986
  9
$DIMLFAC
 40
1.0
  9
$DIMTOFL
 70
     1
  9
$DIMTVP
 40
0.0
  9
$DIMTIX
 70
     1
  9
$DIMSOXD
 70
     0
  9
$DIMSAH
 70
     0
  9
$DIMBLK1
  1

  9
$DIMBLK2
  1

  9
$DIMSTYLE
  2
BIGT
  9
$DIMCLRD
 70
   256
  9
$DIMCLRE
 70
   256
  9
$DIMCLRT
 70
    40
  9
$DIMTFAC
 40
1.0
  9
$DIMGAP
 40
1.0
  9
$LUNITS
 70
     2
  9
$LUPREC
 70
     6
  9
$SKETCHINC
 40
1.0
  9
$FILLETRAD
 40
0.0
  9
$AUNITS
 70
     0
  9
$AUPREC
 70
     6
  9
$MENU
  1
.
  9
$ELEVATION
 40
0.0
  9
$PELEVATION
 40
0.0
  9
$THICKNESS
 40
0.0
  9
$LIMCHECK
 70
     0
  9
$BLIPMODE
 70
     0
  9
$CHAMFERA
 40
0.2
  9
$CHAMFERB
 40
0.2
  9
$SKPOLY
 70
     0
  9
$TDCREATE
 40
2457820.4960763892158866
  9
$TDUPDATE
 40
2458292.6418287041597068
  9
$TDINDWG
 40
0.0671367824
  9
$TDUSRTIMER
 40
0.0671367593
  9
$USRTIMER
 70
     1
  9
$ANGBASE
 50
0.0
  9
$ANGDIR
 70
     0
  9
$PDMODE
 70
     1
  9
$PDSIZE
 40
0.0
  9
$PLINEWID
 40
0.0
  9
$COORDS
 70
     1
  9
$SPLFRAME
 70
     0
  9
$SPLINETYPE
 70
     6
  9
$SPLINESEGS
 70
     4
  9
$ATTDIA
 70
     1
  9
$ATTREQ
 70
     1
  9
$HANDLING
 70
     1
  9
$HANDSEED
  5
4798
  9
$SURFTAB1
 70
     6
  9
$SURFTAB2
 70
     6
  9
$SURFTYPE
 70
     6
  9
$SURFU
 70
     6
  9
$SURFV
 70
     6
  9
$UCSNAME
  2

  9
$UCSORG
 10
0.0
 20
0.0
 30
0.0
  9
$UCSXDIR
 10
1.0
 20
0.0
 30
0.0
  9
$UCSYDIR
 10
0.0
 20
1.0
 30
0.0
  9
$PUCSNAME
  2

  9
$PUCSORG
 10
0.0
 20
0.0
 30
0.0
  9
$PUCSXDIR
 10
1.0
 20
0.0
 30
0.0
  9
$PUCSYDIR
 10
0.0
 20
1.0
 30
0.0
  9
$USERI1
 70
     1
  9
$USERI2
 70
     0
  9
$USERI3
 70
     0
  9
$USERI4
 70
     0
  9
$USERI5
 70
     0
  9
$USERR1
 40
0.0
  9
$USERR2
 40
0.0
  9
$USERR3
 40
0.0
  9
$USERR4
 40
0.0
  9
$USERR5
 40
0.0
  9
$WORLDVIEW
 70
     1
  9
$SHADEDGE
 70
     3
  9
$SHADEDIF
 70
    70
  9
$TILEMODE
 70
     1
  9
$MAXACTVP
 70
    16
  9
$PLIMCHECK
 70
     0
  9
$PEXTMIN
 10
1.0000000000000000E+20
 20
1.0000000000000000E+20
 30
1.0000000000000000E+20
  9
$PEXTMAX
 10
-1.0000000000000000E+20
 20
-1.0000000000000000E+20
 30
-1.0000000000000000E+20
  9
$PLIMMIN
 10
0.0
 20
0.0
  9
$PLIMMAX
 10
420.0
 20
297.0
  9
$UNITMODE
 70
     0
  9
$VISRETAIN
 70
     1
  9
$PLINEGEN
 70
     0
  9
$PSLTSCALE
 70
     1
  0
ENDSEC
  0
SECTION
  2
TABLES
  0
TABLE
  2
VPORT
 70
     1
  0
VPORT
  2
*ACTIVE
 70
     0
 10
0.0
 20
0.0
 11
1.0
 21
1.0
 12
71.2999709893605029
 22
16.2744253923700484
 13
0.0
 23
0.0
 14
7.0
 24
7.0
 15
7.0
 25
7.0
 16
0.0
 26
0.0
 36
1.0
 17
0.0
 27
0.0
 37
0.0
 40
175.2379564849906899
 41
1.887387387387387
 42
50.0
 43
0.0
 44
0.0
 50
0.0
 51
0.0
 71
     0
 72
  2000
 73
     1
 74
     0
 75
     0
 76
     1
 77
     0
 78
     0
  0
ENDTAB
  0
TABLE
  2
LTYPE
 70
    20
  0
LTYPE
  2
CONTINUOUS
 70
     0
  3
Solid line
 72
    65
 73
     0
 40
0.0
  0
LTYPE
  2
CENTER2
 70
     0
  3
___ _ ___ _ ___ _ ___ _ ___ _ ___ _ ___ _ ___ _
 72
    65
 73
     4
 40
1.125
 49
0.75
 49
-0.125
 49
0.125
 49
-0.125
  0
LTYPE
  2
HIDDEN2
 70
     0
  3
_ _ _ _ _ _ _ _ _ _ _ _ _ _ _ _ _ _ _ _ _ _ _ _
 72
    65
 73
     2
 40
0.1875
 49
0.125
 49
-0.0625
  0
LTYPE
  2
AMCONSTR
 70
     0
  3
_______________________
 72
    65
 73
     2
 40
9999.0
 49
9999.0
 49
0.0
  0
LTYPE
  2
HIDDEN
 70
     0
  3
Hidden __ __ __ __ __ __ __ __ __ __ __ __ __ _
 72
    65
 73
     2
 40
0.375
 49
0.25
 49
-0.125
  0
LTYPE
  2
PHANTOM2
 70
     0
  3
Phantom (.5x) ___ _ _ ___ _ _ ___ _ _ ___ _ _
 72
    65
 73
     6
 40
1.25
 49
0.625
 49
-0.125
 49
0.125
 49
-0.125
 49
0.125
 49
-0.125
  0
LTYPE
  2
CENTER
 70
     0
  3
Center ____ _ ____ _ ____ _ ____ _ ____ _ ____
 72
    65
 73
     4
 40
2.0
 49
1.25
 49
-0.25
 49
0.25
 49
-0.25
  0
LTYPE
  2
AMZIGZAG2
 70
     0
  3
/\/-/\/-/\/-/\/-/\/-/\/
 72
    65
 73
     2
 40
0.4401
 49
0.0001
 49
-0.4400000000000001
  0
LTYPE
  2
ACANSTGB
 70
     0
  3
__ . . __ . .
 72
    65
 73
     6
 40
0.35433070866
 49
0.15748031496
 49
-0.03937007874
 49
0.03937007874
 49
-0.03937007874
 49
0.03937007874
 49
-0.03937007874
  0
LTYPE
  2
ACANSTGL
 70
     0
  3
_ _ _ _ _
 72
    65
 73
     2
 40
0.11811023622
 49
0.07874015748
 49
-0.03937007874
  0
ENDTAB
  0
TABLE
  2
LAYER
 70
     9
  0
LAYER
  2
0
 70
     0
 62
     7
  6
CONTINUOUS
  0
LAYER
  2
240
 70
     0
 62
     4
  6
CONTINUOUS
  0
LAYER
  2
DEFPOINTS
 70
     0
 62
     7
  6
CONTINUOUS
  0
LAYER
  2
245
 70
     0
 62
     2
  6
CENTER2
  0
LAYER
  2
241
 70
     0
 62
   211
  6
CONTINUOUS
  0
LAYER
  2
242
 70
     0
 62
     3
  6
CONTINUOUS
  0
LAYER
  2
250
 70
     0
 62
     3
  6
CONTINUOUS
  0
LAYER
  2
243
 70
     0
 62
   211
  6
HIDDEN2
  0
LAYER
  2
247
 70
     0
 62
    60
  6
CONTINUOUS
  0
ENDTAB
  0
TABLE
  2
STYLE
 70
     7
  0
STYLE
  2
STANDARD
 70
     0
 40
0.0
 41
1.0
 50
0.0
 71
     0
 42
3.0
  3
romans.shx
  4
extfont.shx
  0
STYLE
  2
YOKO
 70
     0
 40
0.0
 41
1.0
 50
0.0
 71
     0
 42
3.0
  3
romans.shx
  4
extfont.shx
  0
STYLE
  2

 70
     1
 40
0.0
 41
1.0
 50
0.0
 71
     0
 42
3.0
  3
genltshp.shx
  4

  0
STYLE
  2
ACANSGDT
 70
     0
 40
0.0
 41
1.0
 50
0.0
 71
     0
 42
3.0
  3
amgdt.shx
  4

  0
ENDTAB
  0
TABLE
  2
VIEW
 70
     0
  0
ENDTAB
  0
TABLE
  2
UCS
 70
     0
  0
ENDTAB
  0
TABLE
  2
APPID
 70
    43
  0
APPID
  2
ACAD
 70
     0
  0
APPID
  2
ACADANNOTATIVE
 70
     0
  0
APPID
  2
GLOBAL
 70
     0
  0
APPID
  2
DETAIL
 70
     0
  0
APPID
  2
GRPNAME
 70
     0
  0
APPID
  2
GPARA
 70
     0
  0
APPID
  2
MCAD_NO_VIS
 70
     0
  0
APPID
  2
ACAD_TEMP_GRAPHIC
 70
     0
  0
APPID
  2
ACATTRIBSERVICES
 70
     0
  0
APPID
  2
GENIUS_GENSCREG_15
 70
     0
  0
APPID
  2
GENIUS_GENODEF_13
 70
     0
  0
APPID
  2
GENIUS_GENOBJ-N-SDF_13
 70
     0
  0
APPID
  2
GENIUS_GENREC_14
 70
     0
  0
APPID
  2
GENIUS_GENOBJ-N-REC_13
 70
     0
  0
APPID
  2
GENIUS_GENDIMSH_14
 70
     0
  0
APPID
  2
GENIUS_GENOBJ-N-DIM_13
 70
     0
  0
APPID
  2
GENIUS_GENDIM_13
 70
     0
  0
APPID
  2
GENIUS_GENDTOL_13
 70
     0
  0
APPID
  2
GENIUS_GENOLIS_13
 70
     0
  0
APPID
  2
GENIUS_GENOENT_13
 70
     0
  0
APPID
  2
GENIUS_GENOBJ-F-FEM_13
 70
     0
  0
APPID
  2
GENIUS_GENOREF_13
 70
     0
  0
APPID
  2
GENIUS_GEFFEM_13
 70
     0
  0
APPID
  2
GENIUS_GEFFEMP_13
 70
     0
  0
APPID
  2
AD_DRAW
 70
     0
  0
APPID
  2
DESIGNERASSEMBLIES
 70
     0
  0
APPID
  2
ACADM_DIM_EDIT
 70
     0
  0
APPID
  2
AMDT_DM_ADJ
 70
     0
  0
APPID
  2
ITEMNAME
 70
     0
  0
APPID
  2
GENIUS_GENOBJ-N-FIL_13
 70
     0
  0
APPID
  2
GENIUS_GENFIL_13
 70
     0
  0
APPID
  2
GENIUS_GENOBJ-N-CHA_13
 70
     0
  0
APPID
  2
ACAECLAYERSTANDARD
 70
     0
  0
APPID
  2
ACAD_NAV_VCDISPLAY
 70
     0
  0
APPID
  2
ACAD_DSTYLE_DIMJAG
 70
     0
  0
APPID
  2
ACAD_DSTYLE_DIMBREAK
 70
     0
  0
APPID
  2
ACAD_DSTYLE_DIMINSPECT
 70
     0
  0
APPID
  2
ACAD_MLEADERVER
 70
     0
  0
APPID
  2
ACAD_DSTYLE_DIMARC_LENGTH_
 70
     0
  0
APPID
  2
ACAD_DSTYLE_DIM_LINETYPE
 70
     0
  0
APPID
  2
ACAD_DSTYLE_DIM_EXT1_LINETYPE
 70
     0
  0
APPID
  2
ACAD_DSTYLE_DIM_EXT2_LINETYPE
 70
     0
  0
APPID
  2
ACAD_EXEMPT_FROM_CAD_STANDARDS
 70
     0
  0
ENDTAB
  0
TABLE
  2
DIMSTYLE
 70
    16
  0
DIMSTYLE
  2
STANDARD
 70
     0
  3

  4

  5

  6

  7

 40
1.0
 41
0.18
 42
0.0625
 43
0.38
 44
0.18
 45
0.0
 46
0.0
 47
0.0
 48
0.0
140
0.18
141
0.09
142
0.0
143
25.3999999999999986
144
1.0
145
0.0
146
1.0
147
0.09
 71
     0
 72
     0
 73
     1
 74
     1
 75
     0
 76
     0
 77
     0
 78
     0
170
     0
171
     2
172
     0
173
     0
174
     0
175
     0
176
     0
177
     0
178
     0
  0
DIMSTYLE
  2
BIGT
 70
     0
  3

  4

  5

  6

  7

 40
1.0
 41
2.2299999999999991
 42
0.5
 43
7.0
 44
1.0
 45
0.0
 46
0.0
 47
0.0
 48
0.01
140
2.799999999999998
141
0.0
142
0.0
143
25.3999999999999986
144
1.0
145
0.0
146
1.0
147
1.0
 71
     0
 72
     0
 73
     0
 74
     0
 75
     0
 76
     0
 77
     3
 78
     9
170
     0
171
     2
172
     1
173
     0
174
     1
175
     0
176
   256
177
   256
178
    40
  0
DIMSTYLE
  2
AM_ANSI
 70
     0
  3

  4
mm
  5

  6

  7

 40
1.0
 41
0.12
 42
0.05
 43
0.5
 44
0.1
 45
0.0
 46
0.0
 47
0.1
 48
0.1
140
0.12
141
0.0
142
0.0
143
25.3999999999999986
144
1.0
145
0.0
146
0.71
147
0.06
 71
     0
 72
     0
 73
     1
 74
     1
 75
     0
 76
     0
 77
     0
 78
     7
170
     0
171
     2
172
     0
173
     0
174
     0
175
     0
176
   256
177
   256
178
     2
  0
DIMSTYLE
  2
AM_ANSI$3
 70
     0
  3

  4
mm
  5

  6

  7

 40
1.0
 41
0.12
 42
0.05
 43
0.5
 44
0.1
 45
0.0
 46
0.0
 47
0.1
 48
0.1
140
0.12
141
0.0
142
0.0
143
25.3999999999999986
144
1.0
145
0.0
146
0.71
147
0.06
 71
     0
 72
     0
 73
     1
 74
     1
 75
     0
 76
     0
 77
     0
 78
     7
170
     0
171
     2
172
     0
173
     0
174
     0
175
     0
176
   256
177
   256
178
     2
  0
DIMSTYLE
  2
AM_ANSI$4
 70
     0
  3

  4
mm
  5

  6

  7

 40
1.0
 41
0.12
 42
0.05
 43
0.5
 44
0.1
 45
0.0
 46
0.0
 47
0.1
 48
0.1
140
0.12
141
0.0
142
0.0
143
25.3999999999999986
144
1.0
145
0.0
146
0.71
147
0.06
 71
     0
 72
     0
 73
     1
 74
     1
 75
     0
 76
     0
 77
     0
 78
     7
170
     0
171
     2
172
     0
173
     0
174
     0
175
     0
176
   256
177
   256
178
     2
  0
DIMSTYLE
  2
AM_ANSI$7
 70
     0
  3

  4
mm
  5

  6

  7

 40
1.0
 41
0.12
 42
0.05
 43
0.5
 44
0.1
 45
0.0
 46
0.0
 47
0.1
 48
0.1
140
0.12
141
0.0
142
0.0
143
25.3999999999999986
144
1.0
145
0.0
146
0.71
147
0.06
 71
     0
 72
     0
 73
     1
 74
     1
 75
     0
 76
     0
 77
     0
 78
     7
170
     0
171
     2
172
     0
173
     0
174
     0
175
     0
176
   256
177
   256
178
     2
  0
DIMSTYLE
  2
AM_ANSI$SF
 70
     0
  3

  4
mm
  5

  6

  7

 40
1.0
 41
0.12
 42
0.05
 43
0.5
 44
0.1
 45
0.0
 46
0.0
 47
0.1
 48
0.1
140
0.12
141
0.0
142
0.0
143
25.3999999999999986
144
1.0
145
0.0
146
0.71
147
0.06
 71
     0
 72
     0
 73
     1
 74
     1
 75
     1
 76
     1
 77
     0
 78
     7
170
     0
171
     2
172
     0
173
     0
174
     0
175
     0
176
   256
177
   256
178
     2
  0
DIMSTYLE
  2
AM_ANSI$SH
 70
     0
  3

  4
mm
  5

  6
GENAXEH
  7

 40
1.0
 41
0.12
 42
0.05
 43
0.5
 44
0.1
 45
0.0
 46
0.0
 47
0.1
 48
0.1
140
0.12
141
0.0
142
0.0
143
25.3999999999999986
144
1.0
145
0.0
146
0.71
147
0.06
 71
     0
 72
     0
 73
     1
 74
     1
 75
     1
 76
     1
 77
     0
 78
     7
170
     0
171
     2
172
     0
173
     1
174
     0
175
     0
176
   256
177
   256
178
     2
  0
ENDTAB
  0
ENDSEC
  0
SECTION
  2
BLOCKS
  0
BLOCK
  8
0
  2
$MODEL_SPACE
 70
     0
 10
0.0
 20
0.0
 30
0.0
  3
$MODEL_SPACE
  1

  0
ENDBLK
  5
4669
  8
0
  0
BLOCK
 67
     1
  8
0
  2
$PAPER_SPACE
 70
     0
 10
0.0
 20
0.0
 30
0.0
  3
$PAPER_SPACE
  1

  0
ENDBLK
  5
4665
 67
     1
  8
0
  0
BLOCK
  8
0
  2
_OPEN
 70
     0
 10
0.0
 20
0.0
 30
0.0
  3
_OPEN
  1

  0
LINE
  5
3E1A
  8
0
  6
BYBLOCK
 62
     0
 10
-1.0
 20
0.1666666666666666
 30
0.0
 11
0.0
 21
0.0
 31
0.0
  0
LINE
  5
3E1B
  8
0
  6
BYBLOCK
 62
     0
 10
-1.0
 20
-0.1666666666666666
 30
0.0
 11
0.0
 21
0.0
 31
0.0
  0
LINE
  5
3E1C
  8
0
  6
BYBLOCK
 62
     0
 10
0.0
 20
0.0
 30
0.0
 11
-1.0
 21
0.0
 31
0.0
  0
ENDBLK
  5
3E1D
  8
0
  0
BLOCK
  8
0
  2
GENAXEH
 70
     0
 10
0.0
 20
0.0
 30
0.0
  3
GENAXEH
  1

  0
LINE
  5
3E45
  8
0
 10
-1.0
 20
0.0
 30
0.0
 11
1.0
 21
0.0
 31
0.0
  0
ENDBLK
  5
3E46
  8
0
  0
BLOCK
  8
0
  2
_ACMFILLEDHALF
 70
     0
 10
0.0
 20
0.0
 30
0.0
  3
_ACMFILLEDHALF
  1

  0
TRACE
  5
4718
  8
240
 62
     0
 10
-0.8
 20
0.0
 30
0.0
 11
-1.0
 21
0.166666666
 31
0.0
 12
0.0
 22
0.0
 32
0.0
 13
0.0
 23
0.0
 33
0.0
  0
LINE
  5
4719
  8
240
 62
     0
 10
-1.0
 20
0.0
 30
0.0
 11
-0.8
 21
0.0
 31
0.0
  0
ENDBLK
  5
4717
  8
0
  0
ENDSEC
  0
SECTION
  2
ENTITIES
  0
LINE
  5
42DE
  8
250
  6
CONTINUOUS
 10
124.7635998100342931
 20
33.9622410899999991
 30
0.0
 11
137.9635998100343102
 21
33.9622410899999991
 31
0.0
1001
ITEMNAME
1000
LNSP2
  0
LINE
  5
42E1
  8
250
  6
CONTINUOUS
 10
-20.5615771299999999
 20
-18.0894796299999996
 30
0.0
 11
-33.7615771299999992
 21
-18.0894796299999996
 31
0.0
1001
ITEMNAME
1000
LNSP2
  0
TEXT
  5
42E2
  8
241
  6
CONTINUOUS
 10
-28.0
 20
49.0
 30
0.0
 40
5.0
  1
CKB44DP-120
  7
YOKO
 11
-28.0
 21
49.0
 31
0.0
 73
     1
  0
LINE
  5
42E3
  8
243
  6
HIDDEN2
 10
94.0
 20
11.0
 30
0.0
 11
120.0
 21
11.0
 31
0.0
  0
LINE
  5
42E4
  8
240
  6
CONTINUOUS
 10
120.0
 20
19.5
 30
0.0
 11
0.0
 21
19.5
 31
0.0
  0
LINE
  5
42E5
  8
240
  6
CONTINUOUS
 10
120.0
 20
-19.5
 30
0.0
 11
0.0
 21
-19.5
 31
0.0
  0
LINE
  5
42E6
  8
245
  6
CENTER2
 10
-25.0
 20
0.0
 30
0.0
 11
121.0
 21
0.0
 31
0.0
  0
LINE
  5
42E9
  8
240
  6
CONTINUOUS
 10
-10.3334718599999995
 20
-11.0
 30
0.0
 11
-24.0
 21
-11.0
 31
0.0
  0
LINE
  5
42EA
  8
240
  6
CONTINUOUS
 10
-24.0
 20
-11.0
 30
0.0
 11
-24.0
 21
11.0
 31
0.0
  0
LINE
  5
42EB
  8
241
  6
CONTINUOUS
 10
0.0
 20
-11.0
 30
0.0
 11
0.0
 21
11.0
 31
0.0
  0
LINE
  5
42EC
  8
240
  6
CONTINUOUS
 10
-1.66652814
 20
-11.0
 30
0.0
 11
-2.98
 21
-13.2750000000000004
 31
0.0
  0
LINE
  5
42ED
  8
241
  6
CONTINUOUS
 10
-1.66652814
 20
-11.0
 30
0.0
 11
-10.3334718599999995
 21
-11.0
 31
0.0
  0
LINE
  5
42EE
  8
240
  6
CONTINUOUS
 10
-9.0199999999999996
 20
-13.2750000000000004
 30
0.0
 11
-2.98
 21
-13.2750000000000004
 31
0.0
  0
LINE
  5
42EF
  8
240
  6
CONTINUOUS
 10
-10.3334718599999995
 20
-11.0
 30
0.0
 11
-9.0199999999999996
 21
-13.2750000000000004
 31
0.0
  0
LINE
  5
42F0
  8
240
  6
CONTINUOUS
 10
0.0
 20
-19.5
 30
0.0
 11
0.0
 21
-11.0
 31
0.0
  0
LINE
  5
42F1
  8
240
  6
CONTINUOUS
 10
0.0
 20
-11.0
 30
0.0
 11
-1.66652814
 21
-11.0
 31
0.0
  0
CIRCLE
  5
42F2
  8
241
  6
CONTINUOUS
 10
-10.0
 20
0.0
 30
0.0
 40
3.0
  0
CIRCLE
  5
42F3
  8
241
  6
CONTINUOUS
 10
-10.0
 20
0.0
 30
0.0
 40
4.0
  0
LINE
  5
42F4
  8
245
  6
CENTER2
 10
-10.0
 20
5.0
 30
0.0
 11
-10.0
 21
-5.0
 31
0.0
  0
LINE
  5
42F5
  8
240
  6
CONTINUOUS
 10
-24.0
 20
11.0
 30
0.0
 11
-10.3334718599999995
 21
11.0
 31
0.0
  0
LINE
  5
42F6
  8
240
  6
CONTINUOUS
 10
-1.66652814
 20
11.0
 30
0.0
 11
-2.98
 21
13.2750000000000004
 31
0.0
  0
LINE
  5
42F7
  8
241
  6
CONTINUOUS
 10
-1.66652814
 20
11.0
 30
0.0
 11
-10.3334718599999995
 21
11.0
 31
0.0
  0
LINE
  5
42F8
  8
240
  6
CONTINUOUS
 10
-9.0199999999999996
 20
13.2750000000000004
 30
0.0
 11
-2.98
 21
13.2750000000000004
 31
0.0
  0
LINE
  5
42F9
  8
240
  6
CONTINUOUS
 10
-10.3334718599999995
 20
11.0
 30
0.0
 11
-9.0199999999999996
 21
13.2750000000000004
 31
0.0
  0
LINE
  5
42FA
  8
240
  6
CONTINUOUS
 10
0.0
 20
11.0
 30
0.0
 11
0.0
 21
19.5
 31
0.0
  0
LINE
  5
42FB
  8
240
  6
CONTINUOUS
 10
0.0
 20
11.0
 30
0.0
 11
-1.66652814
 21
11.0
 31
0.0
  0
LINE
  5
42FC
  8
245
  6
CENTER2
 10
110.0
 20
5.0
 30
0.0
 11
110.0
 21
-5.0
 31
0.0
1001
GRPNAME
1000
PASTMD1U
  0
CIRCLE
  5
42FD
  8
242
  6
CONTINUOUS
 10
110.0
 20
0.0
 30
0.0
 40
3.649999999999999
  0
CIRCLE
  5
42FE
  8
241
  6
CONTINUOUS
 10
110.0
 20
0.0
 30
0.0
 40
4.0
  0
POLYLINE
  5
42FF
  8
241
  6
CONTINUOUS
 66
     1
 10
0.0
 20
0.0
 30
0.0
 70
     1
  0
VERTEX
  5
4300
  8
241
  6
CONTINUOUS
 10
108.0
 20
-1.1547005400000001
 30
0.0
  0
VERTEX
  5
4301
  8
241
  6
CONTINUOUS
 10
110.0
 20
-2.3094010800000002
 30
0.0
  0
VERTEX
  5
4302
  8
241
  6
CONTINUOUS
 10
112.0
 20
-1.1547005400000001
 30
0.0
  0
VERTEX
  5
4303
  8
241
  6
CONTINUOUS
 10
112.0
 20
1.1547005400000001
 30
0.0
  0
VERTEX
  5
4304
  8
241
  6
CONTINUOUS
 10
110.0
 20
2.3094010800000002
 30
0.0
  0
VERTEX
  5
4305
  8
241
  6
CONTINUOUS
 10
108.0
 20
1.1547005400000001
 30
0.0
  0
SEQEND
  5
4306
  8
241
  6
CONTINUOUS
  0
LINE
  5
4308
  8
240
  6
CONTINUOUS
 10
120.0
 20
-19.5
 30
0.0
 11
120.0
 21
19.5
 31
0.0
  0
LINE
  5
4309
  8
243
  6
HIDDEN2
 10
94.0
 20
-11.0
 30
0.0
 11
120.0
 21
-11.0
 31
0.0
  0
TEXT
  5
43DA
  8
250
  6
CONTINUOUS
 10
-31.3615771300000006
 20
-17.0894796299999996
 30
0.0
 40
2.799999999999998
  1
CK4
  7
YOKO
  0
LINE
  5
43E0
  8
250
  6
CONTINUOUS
 10
-17.5834641514720502
 20
-12.93123664958941
 30
0.0
 11
-20.5615771299999999
 21
-18.0894796299999996
 31
0.0
  0
LINE
  5
43E1
  8
250
  6
CONTINUOUS
 10
-17.9053369264036206
 20
-12.7454033160107301
 30
0.0
 11
-16.4684641499999991
 21
-11.0
 31
0.0
  0
LINE
  5
43E2
  8
250
  6
CONTINUOUS
 10
-17.2615913765404905
 20
-13.1170699831680793
 30
0.0
 11
-16.4684641499999991
 21
-11.0
 31
0.0
  0
LINE
  5
43E3
  8
250
  6
CONTINUOUS
 10
-16.4684641499999991
 20
-11.0
 30
0.0
 11
-17.5834641514720502
 21
-12.9312366495893993
 31
0.0
  0
LINE
  5
43E4
  8
250
  6
CONTINUOUS
 10
0.0
 20
20.0
 30
0.0
 11
0.000000000000001
 21
36.0
 31
0.0
  0
LINE
  5
43E5
  8
250
  6
CONTINUOUS
 10
120.0
 20
20.0
 30
0.0
 11
120.0
 21
36.0
 31
0.0
  0
LINE
  5
43E6
  8
250
  6
CONTINUOUS
 10
2.2299999999999991
 20
35.0
 30
0.0
 11
117.769999999999996
 21
35.0
 31
0.0
  0
TEXT
  5
43EA
  8
250
  6
CONTINUOUS
 10
127.1635998100342988
 20
34.9622410899999991
 30
0.0
 40
2.799999999999998
  1
CK4
  7
YOKO
  0
POLYLINE
  5
43EC
  8
250
  6
CONTINUOUS
 66
     1
 10
0.0
 20
0.0
 30
0.0
  0
VERTEX
  5
43ED
  8
250
  6
CONTINUOUS
 10
117.5288210203950996
 20
21.4312366502309501
 30
0.0
  0
VERTEX
  5
43EE
  8
250
  6
CONTINUOUS
 10
124.7635998100342931
 20
33.9622410899999991
 30
0.0
  0
SEQEND
  5
43EF
  8
250
  6
CONTINUOUS
  0
LINE
  5
43F0
  8
250
  6
CONTINUOUS
 10
120.5
 20
-19.5
 30
0.0
 11
133.799374720000003
 21
-19.5
 31
0.0
  0
LINE
  5
43F1
  8
250
  6
CONTINUOUS
 10
120.5
 20
19.5
 30
0.0
 11
133.799374720000003
 21
19.5
 31
0.0
  0
LINE
  5
43F2
  8
250
  6
CONTINUOUS
 10
132.799374720000003
 20
-17.2699999999999996
 30
0.0
 11
132.799374720000003
 21
17.2699999999999996
 31
0.0
  0
TEXT
  5
43F6
  8
250
  6
CONTINUOUS
 10
131.799374720000003
 20
-3.8666666666666432
 30
0.0
 40
2.799999999999998
  1
\U+220539
 50
90.0
  0
LINE
  5
43F7
  8
250
  6
CONTINUOUS
 10
132.4277080533333049
 20
17.2699999999999996
 30
0.0
 11
132.799374720000003
 21
19.5
 31
0.0
  0
LINE
  5
43F8
  8
250
  6
CONTINUOUS
 10
133.1710413866665874
 20
17.2699999999999996
 30
0.0
 11
132.799374720000003
 21
19.5
 31
0.0
  0
LINE
  5
43F9
  8
250
  6
CONTINUOUS
 10
132.799374720000003
 20
19.5
 30
0.0
 11
132.799374720000003
 21
17.2699999999999996
 31
0.0
  0
LINE
  5
43FA
  8
250
  6
CONTINUOUS
 10
133.1710413866665874
 20
-17.2699999999999996
 30
0.0
 11
132.799374720000003
 21
-19.5
 31
0.0
  0
LINE
  5
43FB
  8
250
  6
CONTINUOUS
 10
132.4277080533333049
 20
-17.2699999999999996
 30
0.0
 11
132.799374720000003
 21
-19.5
 31
0.0
  0
LINE
  5
43FC
  8
250
  6
CONTINUOUS
 10
132.799374720000003
 20
-19.5
 30
0.0
 11
132.799374720000003
 21
-17.2699999999999996
 31
0.0
  0
LINE
  5
43FD
  8
250
  6
CONTINUOUS
 10
117.8506937954336991
 20
21.2454033168374714
 30
0.0
 11
116.4138210200343053
 21
19.5
 31
0.0
  0
LINE
  5
43FE
  8
250
  6
CONTINUOUS
 10
117.2069482453566991
 20
21.6170699836244289
 30
0.0
 11
116.4138210200343053
 21
19.5
 31
0.0
  0
LINE
  5
43FF
  8
250
  6
CONTINUOUS
 10
116.4138210200343053
 20
19.5
 30
0.0
 11
117.5288210203951991
 21
21.4312366502309501
 31
0.0
  0
TEXT
  5
4400
  8
250
  6
CONTINUOUS
 10
55.7999999999999972
 20
36.0
 30
0.0
 40
2.799999999999998
  1
120
  0
LINE
  5
4401
  8
250
  6
CONTINUOUS
 10
117.769999999999996
 20
35.3716666666666697
 30
0.0
 11
120.0
 21
35.0
 31
0.0
  0
LINE
  5
4402
  8
250
  6
CONTINUOUS
 10
117.769999999999996
 20
34.6283333333333303
 30
0.0
 11
120.0
 21
35.0
 31
0.0
  0
LINE
  5
4403
  8
250
  6
CONTINUOUS
 10
120.0
 20
35.0
 30
0.0
 11
117.769999999999996
 21
35.0
 31
0.0
  0
LINE
  5
4404
  8
250
  6
CONTINUOUS
 10
2.2299999999999991
 20
34.6283333333333303
 30
0.0
 11
0.0000000000000009
 21
35.0
 31
0.0
  0
LINE
  5
4405
  8
250
  6
CONTINUOUS
 10
2.2299999999999991
 20
35.3716666666666697
 30
0.0
 11
0.0000000000000009
 21
35.0
 31
0.0
  0
LINE
  5
4406
  8
250
  6
CONTINUOUS
 10
0.0000000000000009
 20
35.0
 30
0.0
 11
2.2299999999999991
 21
35.0
 31
0.0
  0
LINE
  5
44F1
  8
247
  6
CONTINUOUS
 10
5.4999999999999432
 20
-13.75
 30
0.0
 11
5.5
 21
-9.1153846156699974
 31
0.0
  0
LINE
  5
44F2
  8
247
  6
CONTINUOUS
 10
3.0
 20
-12.9548934999879197
 30
0.0
 11
5.0999999999160082
 21
-13.5570588100573506
 31
0.0
  0
LINE
  5
44F3
  8
247
  6
CONTINUOUS
 10
3.996153846113998
 20
-12.3251514035190404
 30
0.0
 11
3.996153846113998
 21
-13.2405360188670294
 31
0.0
  0
ARC
  5
44F4
  8
247
  6
CONTINUOUS
 10
3.3847190672940992
 20
-12.0872634019467498
 30
0.0
 40
0.3876715809326743
 50
72.9978896752930098
 51
172.9241662185135056
  0
ARC
  5
44F5
  8
247
  6
CONTINUOUS
 10
3.305223131028014
 20
-12.3824775568040693
 30
0.0
 40
0.6933047965358767
 50
4.7429368522022122
 51
73.8492262732667513
1001
GENIUS_GENOBJ-N-FIL_13
1002
{
1000
OWNER
1000
GEN
1002
}
1001
GENIUS_GENODEF_13
1002
{
1000
HIER
1070
     0
1002
}
1002
{
1000
MANEDIT
1070
     0
1002
}
1002
{
1000
NOSEL
1070
     0
1002
}
1002
{
1000
BEHIND
1070
     0
1002
}
1002
{
1000
OTHER
1070
     0
1002
}
1002
{
1000
REACTOR
1002
}
  0
LINE
  5
44F6
  8
247
  6
CONTINUOUS
 10
5.0999999999160082
 20
-12.6416741947093598
 30
0.0
 11
5.0999999999160082
 21
-13.5570588100573506
 31
0.0
  0
LINE
  5
44F7
  8
247
  6
CONTINUOUS
 10
3.0
 20
-12.9548934999879197
 30
0.0
 11
3.0
 21
-12.0395088846399307
 31
0.0
  0
ARC
  5
44F8
  8
247
  6
CONTINUOUS
 10
4.3874169627678707
 20
-12.3783064762668005
 30
0.0
 40
0.394857301075386
 50
65.990941652528889
 51
172.2634434590690944
  0
ARC
  5
44F9
  8
247
  6
CONTINUOUS
 10
4.3912003273325677
 20
-12.7124466104269196
 30
0.0
 40
0.7123241612361686
 50
5.701985164256504
 51
77.2773384368220064
1001
GENIUS_GENOBJ-N-FIL_13
1002
{
1000
OWNER
1000
GEN
1002
}
1001
GENIUS_GENODEF_13
1002
{
1000
HIER
1070
     0
1002
}
1002
{
1000
MANEDIT
1070
     0
1002
}
1002
{
1000
NOSEL
1070
     0
1002
}
1002
{
1000
BEHIND
1070
     0
1002
}
1002
{
1000
OTHER
1070
     0
1002
}
1002
{
1000
REACTOR
1002
}
  0
LINE
  5
44FA
  8
247
  6
CONTINUOUS
 10
5.0999999999160082
 20
-11.6839818870633394
 30
0.0
 11
3.0
 21
-11.0818165769939601
 31
0.0
  0
LINE
  5
44FB
  8
247
  6
CONTINUOUS
 10
3.0
 20
-9.5856627309079272
 30
0.0
 11
3.0
 21
-9.9816783643035496
 31
0.0
  0
LINE
  5
44FC
  8
247
  6
CONTINUOUS
 10
5.0999999999160082
 20
-10.60873965394393
 30
0.0
 11
5.0999999999160082
 21
-10.1779704231919297
 31
0.0
  0
ARC
  5
44FD
  8
247
  6
CONTINUOUS
 10
4.4582995950833588
 20
-9.3818165770699125
 30
0.0
 40
1.576855057639547
 50
202.3594881415293969
 51
254.9932485428469136
  0
ARC
  5
44FE
  8
247
  6
CONTINUOUS
 10
3.565818858538135
 20
-9.8475113661331761
 30
0.0
 40
0.6234706797009447
 50
94.9945893190753168
 51
155.1663289573041027
1001
GENIUS_GENOBJ-N-FIL_13
1002
{
1000
OWNER
1000
GEN
1002
}
1001
GENIUS_GENODEF_13
1002
{
1000
HIER
1070
     0
1002
}
1002
{
1000
MANEDIT
1070
     0
1002
}
1002
{
1000
NOSEL
1070
     0
1002
}
1002
{
1000
BEHIND
1070
     0
1002
}
1002
{
1000
OTHER
1070
     0
1002
}
1002
{
1000
REACTOR
1002
}
  0
ARC
  5
44FF
  8
247
  6
CONTINUOUS
 10
4.1621021219694381
 20
-10.4441839510327501
 30
0.0
 40
0.9749472149106982
 50
15.8460965557806794
 51
82.325137004169278
  0
ARC
  5
4500
  8
247
  6
CONTINUOUS
 10
4.3714704019710648
 20
-10.0352116387721804
 30
0.0
 40
0.9271945638692008
 50
249.7136016704968995
 51
321.7887456564109243
1001
GENIUS_GENOBJ-N-FIL_13
1002
{
1000
OWNER
1000
GEN
1002
}
1001
GENIUS_GENODEF_13
1002
{
1000
HIER
1070
     0
1002
}
1002
{
1000
MANEDIT
1070
     0
1002
}
1002
{
1000
NOSEL
1070
     0
1002
}
1002
{
1000
BEHIND
1070
     0
1002
}
1002
{
1000
OTHER
1070
     0
1002
}
1002
{
1000
REACTOR
1002
}
  0
LINE
  5
4501
  8
247
  6
CONTINUOUS
 10
4.2923076922559744
 20
-9.9625858078159126
 30
0.0
 11
4.2923076922559744
 21
-9.4779704232199702
 31
0.0
  0
ARC
  5
4502
  8
247
  6
CONTINUOUS
 10
4.25
 20
-13.75
 30
0.0
 40
1.25
 50
180.0
 51
0.0
  0
LINE
  5
4503
  8
247
  6
CONTINUOUS
 10
3.0
 20
-13.75
 30
0.0
 11
3.0
 21
-13.3038461539139803
 31
0.0
  0
ARC
  5
4504
  8
247
  6
CONTINUOUS
 10
4.25
 20
-9.1153846156699974
 30
0.0
 40
1.25
 50
0.0
 51
180.0
  0
VIEWPORT
  5
22
 67
     1
  8
0
 10
261.517699115044195
 20
148.5
 30
0.0
 40
523.0353982300885036
 41
297.0
 68
     1
 69
     1
1001
ACAD
1000
MVIEW
1002
{
1070
    16
1010
0.0
1020
0.0
1030
0.0
1010
0.0
1020
0.0
1030
1.0
1040
0.0
1040
297.0
1040
261.517699115044195
1040
148.5
1040
50.0
1040
0.0
1040
0.0
1070
     0
1070
   100
1070
     1
1070
     1
1070
     0
1070
     0
1070
     0
1070
     0
1040
0.0
1040
0.0
1040
0.0
1040
1.0
1040
1.0
1040
10.0
1040
10.0
1070
     0
1002
{
1002
}
1002
}
1001
GENIUS_GENODEF_13
1002
{
1000
HIER
1070
     0
1002
}
1002
{
1000
MANEDIT
1070
     0
1002
}
1002
{
1000
NOSEL
1070
     0
1002
}
1002
{
1000
BEHIND
1070
     0
1002
}
1002
{
1000
OTHER
1070
     0
1002
}
1002
{
1000
REACTOR
1002
}
1001
GENIUS_GENOBJ-N-SDF_13
1002
{
1000
OWNER
1000
GEN
1002
}
1001
GENIUS_GENSCREG_15
1000
PF
1040
1.0
1000
DF
1040
1.0
1000
MIN
1011
0.0
1021
0.0
1031
0.0
1021
0.0
1031
0.0
1000
MAX
1011
523.0353982300885036
1021
0.0
1031
0.0
1021
297.0
1031
0.0
1000
FLAGS
1070
     4
  0
ENDSEC
  0
EOF
