  0
SECTION
  2
HEADER
  9
$ACADVER
  1
AC1009
  9
$INSBASE
 10
0.0
 20
0.0
 30
0.0
  9
$EXTMIN
 10
-33.7615771299999992
 20
-19.5
 30
0.0
  9
$EXTMAX
 10
60.9993737200000012
 20
50.4999999999999929
 30
0.0
  9
$LIMMIN
 10
0.0
 20
0.0
  9
$LIMMAX
 10
420.0
 20
297.0
  9
$ORTHOMODE
 70
     1
  9
$REGENMODE
 70
     1
  9
$FILLMODE
 70
     1
  9
$QTEXTMODE
 70
     0
  9
$MIRRTEXT
 70
     1
  9
$DRAGMODE
 70
     2
  9
$LTSCALE
 40
10.0
  9
$OSMODE
 70
   807
  9
$ATTMODE
 70
     1
  9
$TEXTSIZE
 40
3.0
  9
$TRACEWID
 40
1.0
  9
$TEXTSTYLE
  7
YOKO
  9
$CLAYER
  8
240
  9
$CELTYPE
  6
BYLAYER
  9
$CECOLOR
 62
   256
  9
$DIMSCALE
 40
1.0
  9
$DIMASZ
 40
2.2299999999999991
  9
$DIMEXO
 40
0.5
  9
$DIMDLI
 40
2.5
  9
$DIMRND
 40
0.0
  9
$DIMDLE
 40
0.0
  9
$DIMEXE
 40
1.0
  9
$DIMTP
 40
0.0
  9
$DIMTM
 40
0.0
  9
$DIMTXT
 40
2.799999999999998
  9
$DIMCEN
 40
0.0
  9
$DIMTSZ
 40
0.0
  9
$DIMTOL
 70
     0
  9
$DIMLIM
 70
     0
  9
$DIMTIH
 70
     0
  9
$DIMTOH
 70
     0
  9
$DIMSE1
 70
     0
  9
$DIMSE2
 70
     0
  9
$DIMTAD
 70
     3
  9
$DIMZIN
 70
     8
  9
$DIMBLK
  1

  9
$DIMASO
 70
     1
  9
$DIMSHO
 70
     1
  9
$DIMPOST
  1

  9
$DIMAPOST
  1

  9
$DIMALT
 70
     0
  9
$DIMALTD
 70
     2
  9
$DIMALTF
 40
25.3999999999999986
  9
$DIMLFAC
 40
1.0
  9
$DIMTOFL
 70
     1
  9
$DIMTVP
 40
0.0
  9
$DIMTIX
 70
     1
  9
$DIMSOXD
 70
     0
  9
$DIMSAH
 70
     1
  9
$DIMBLK1
  1
OPEN
  9
$DIMBLK2
  1
OPEN
  9
$DIMSTYLE
  2
BIGT
  9
$DIMCLRD
 70
   256
  9
$DIMCLRE
 70
   256
  9
$DIMCLRT
 70
    40
  9
$DIMTFAC
 40
1.0
  9
$DIMGAP
 40
1.0
  9
$LUNITS
 70
     2
  9
$LUPREC
 70
     2
  9
$SKETCHINC
 40
1.0
  9
$FILLETRAD
 40
0.0
  9
$AUNITS
 70
     0
  9
$AUPREC
 70
     3
  9
$MENU
  1
.
  9
$ELEVATION
 40
0.0
  9
$PELEVATION
 40
0.0
  9
$THICKNESS
 40
0.0
  9
$LIMCHECK
 70
     0
  9
$BLIPMODE
 70
     0
  9
$CHAMFERA
 40
10.0
  9
$CHAMFERB
 40
10.0
  9
$SKPOLY
 70
     0
  9
$TDCREATE
 40
2455447.6481712968088686
  9
$TDUPDATE
 40
2458295.6462500002235174
  9
$TDINDWG
 40
0.0117908796
  9
$TDUSRTIMER
 40
0.0117908681
  9
$USRTIMER
 70
     1
  9
$ANGBASE
 50
0.0
  9
$ANGDIR
 70
     0
  9
$PDMODE
 70
     1
  9
$PDSIZE
 40
-5.0
  9
$PLINEWID
 40
0.0
  9
$COORDS
 70
     1
  9
$SPLFRAME
 70
     0
  9
$SPLINETYPE
 70
     6
  9
$SPLINESEGS
 70
     8
  9
$ATTDIA
 70
     1
  9
$ATTREQ
 70
     1
  9
$HANDLING
 70
     1
  9
$HANDSEED
  5
EF8
  9
$SURFTAB1
 70
     6
  9
$SURFTAB2
 70
     6
  9
$SURFTYPE
 70
     6
  9
$SURFU
 70
     6
  9
$SURFV
 70
     6
  9
$UCSNAME
  2

  9
$UCSORG
 10
0.0
 20
0.0
 30
0.0
  9
$UCSXDIR
 10
1.0
 20
0.0
 30
0.0
  9
$UCSYDIR
 10
0.0
 20
1.0
 30
0.0
  9
$PUCSNAME
  2

  9
$PUCSORG
 10
0.0
 20
0.0
 30
0.0
  9
$PUCSXDIR
 10
1.0
 20
0.0
 30
0.0
  9
$PUCSYDIR
 10
0.0
 20
1.0
 30
0.0
  9
$USERI1
 70
     1
  9
$USERI2
 70
     0
  9
$USERI3
 70
     0
  9
$USERI4
 70
     0
  9
$USERI5
 70
     0
  9
$USERR1
 40
0.0
  9
$USERR2
 40
0.0
  9
$USERR3
 40
0.0
  9
$USERR4
 40
0.0
  9
$USERR5
 40
0.0
  9
$WORLDVIEW
 70
     1
  9
$SHADEDGE
 70
     3
  9
$SHADEDIF
 70
    70
  9
$TILEMODE
 70
     1
  9
$MAXACTVP
 70
    16
  9
$PLIMCHECK
 70
     0
  9
$PEXTMIN
 10
1.0000000000000000E+20
 20
1.0000000000000000E+20
 30
1.0000000000000000E+20
  9
$PEXTMAX
 10
-1.0000000000000000E+20
 20
-1.0000000000000000E+20
 30
-1.0000000000000000E+20
  9
$PLIMMIN
 10
0.0
 20
0.0
  9
$PLIMMAX
 10
420.0
 20
297.0
  9
$UNITMODE
 70
     0
  9
$VISRETAIN
 70
     0
  9
$PLINEGEN
 70
     0
  9
$PSLTSCALE
 70
     1
  0
ENDSEC
  0
SECTION
  2
TABLES
  0
TABLE
  2
VPORT
 70
     1
  0
VPORT
  2
*ACTIVE
 70
     0
 10
0.0
 20
0.0
 11
1.0
 21
1.0
 12
34.6612230632423888
 22
12.1975535061195295
 13
0.0
 23
0.0
 14
7.0
 24
7.0
 15
7.0
 25
7.0
 16
0.0
 26
0.0
 36
1.0
 17
0.0
 27
0.0
 37
0.0
 40
111.9935308835077024
 41
1.887387387387387
 42
50.0
 43
0.0
 44
0.0
 50
0.0
 51
0.0
 71
     0
 72
  2000
 73
     1
 74
     0
 75
     0
 76
     0
 77
     0
 78
     0
  0
ENDTAB
  0
TABLE
  2
LTYPE
 70
    22
  0
LTYPE
  2
CONTINUOUS
 70
     0
  3
Solid line
 72
    65
 73
     0
 40
0.0
  0
LTYPE
  2
CENTER2
 70
     0
  3
___ _ ___ _ ___ _ ___ _ ___ _ ___ _ ___ _ ___ _
 72
    65
 73
     4
 40
1.125
 49
0.75
 49
-0.125
 49
0.125
 49
-0.125
  0
LTYPE
  2
HIDDEN2
 70
     0
  3
_ _ _ _ _ _ _ _ _ _ _ _ _ _ _ _ _ _ _ _ _ _ _ _
 72
    65
 73
     2
 40
0.1875
 49
0.125
 49
-0.0625
  0
LTYPE
  2
HIDDEN
 70
     0
  3
Hidden __ __ __ __ __ __ __ __ __ __ __ __ __ _
 72
    65
 73
     2
 40
9.5249999999999986
 49
6.3499999999999979
 49
-3.174999999999998
  0
LTYPE
  2
PHANTOM2
 70
     0
  3
Phantom (.5x) ___ _ _ ___ _ _ ___ _ _ ___ _ _
 72
    65
 73
     6
 40
31.75
 49
15.875
 49
-3.174999999999998
 49
3.174999999999998
 49
-3.174999999999998
 49
3.174999999999998
 49
-3.174999999999998
  0
LTYPE
  2
CENTER
 70
     0
  3
Center ____ _ ____ _ ____ _ ____ _ ____ _ ____
 72
    65
 73
     4
 40
50.7999999999999972
 49
31.75
 49
-6.3499999999999979
 49
6.3499999999999979
 49
-6.3499999999999979
  0
LTYPE
  2
AMCONSTR
 70
     0
  3
_______________________
 72
    65
 73
     2
 40
9999.0
 49
9999.0
 49
0.0
  0
LTYPE
  2
AMZIGZAG2
 70
     0
  3
/\/-/\/-/\/-/\/-/\/-/\/
 72
    65
 73
     2
 40
0.4401
 49
0.0001
 49
-0.4400000000000003
  0
LTYPE
  2
ACANSTGB
 70
     0
  3
__ . . __ . .
 72
    65
 73
     6
 40
0.35433070866
 49
0.15748031496
 49
-0.03937007874
 49
0.03937007874
 49
-0.03937007874
 49
0.03937007874
 49
-0.03937007874
  0
LTYPE
  2
ACANSTGL
 70
     0
  3
_ _ _ _ _
 72
    65
 73
     2
 40
0.11811023622
 49
0.07874015748
 49
-0.03937007874
  0
ENDTAB
  0
TABLE
  2
LAYER
 70
     9
  0
LAYER
  2
0
 70
     0
 62
     7
  6
CONTINUOUS
  0
LAYER
  2
240
 70
     0
 62
     4
  6
CONTINUOUS
  0
LAYER
  2
241
 70
     0
 62
   211
  6
CONTINUOUS
  0
LAYER
  2
242
 70
     0
 62
     3
  6
CONTINUOUS
  0
LAYER
  2
245
 70
     0
 62
     2
  6
CENTER2
  0
LAYER
  2
250
 70
     0
 62
     3
  6
CONTINUOUS
  0
LAYER
  2
DEFPOINTS
 70
     0
 62
     7
  6
CONTINUOUS
  0
LAYER
  2
247
 70
     0
 62
    60
  6
CONTINUOUS
  0
LAYER
  2
243
 70
     0
 62
   211
  6
HIDDEN2
  0
ENDTAB
  0
TABLE
  2
STYLE
 70
     9
  0
STYLE
  2
STANDARD
 70
     0
 40
0.0
 41
1.0
 50
0.0
 71
     0
 42
3.0
  3
romans.shx
  4
BIGFONT.SHX
  0
STYLE
  2
YOKO
 70
     0
 40
0.0
 41
1.0
 50
0.0
 71
     0
 42
3.0
  3
romans.shx
  4
extfont.shx
  0
STYLE
  2
ACANSGDT
 70
     0
 40
0.0
 41
1.0
 50
0.0
 71
     0
 42
3.0
  3
amgdt.shx
  4

  0
ENDTAB
  0
TABLE
  2
VIEW
 70
     0
  0
ENDTAB
  0
TABLE
  2
UCS
 70
     0
  0
ENDTAB
  0
TABLE
  2
APPID
 70
    26
  0
APPID
  2
ACAD
 70
     0
  0
APPID
  2
ACADANNOTATIVE
 70
     0
  0
APPID
  2
GLOBAL
 70
     0
  0
APPID
  2
DETAIL
 70
     0
  0
APPID
  2
GRPNAME
 70
     0
  0
APPID
  2
GPARA
 70
     0
  0
APPID
  2
DCO15
 70
     0
  0
APPID
  2
ITEMNAME
 70
     0
  0
APPID
  2
GRADE_0
 70
     0
  0
APPID
  2
CONTENTBLOCKICON
 70
     0
  0
APPID
  2
MCAD_NO_VIS
 70
     0
  0
APPID
  2
ACAD_TEMP_GRAPHIC
 70
     0
  0
APPID
  2
ACATTRIBSERVICES
 70
     0
  0
APPID
  2
DESIGNERASSEMBLIES
 70
     0
  0
APPID
  2
ACAD_DSTYLE_DIMJAG
 70
     0
  0
APPID
  2
ACAD_DSTYLE_DIMBREAK
 70
     0
  0
APPID
  2
GENIUS_GENSCREG_15
 70
     0
  0
APPID
  2
GENIUS_GENOBJ-N-SDF_13
 70
     0
  0
APPID
  2
GENIUS_GENODEF_13
 70
     0
  0
APPID
  2
ACAD_NAV_VCDISPLAY
 70
     0
  0
APPID
  2
ACAECLAYERSTANDARD
 70
     0
  0
APPID
  2
GENIUS_GENDTOL_13
 70
     0
  0
APPID
  2
ACAD_DSTYLE_DIMINSPECT
 70
     0
  0
APPID
  2
GENIUS_GENOBJ-N-FIL_13
 70
     0
  0
APPID
  2
ACAD_MLEADERVER
 70
     0
  0
APPID
  2
ACAD_EXEMPT_FROM_CAD_STANDARDS
 70
     0
  0
ENDTAB
  0
TABLE
  2
DIMSTYLE
 70
    24
  0
DIMSTYLE
  2
STANDARD
 70
     0
  3

  4

  5

  6

  7

 40
1.0
 41
0.18
 42
0.0625
 43
0.38
 44
0.18
 45
0.0
 46
0.0
 47
0.0
 48
0.0
140
0.18
141
0.09
142
0.0
143
25.3999999999999986
144
1.0
145
0.0
146
1.0
147
0.09
 71
     0
 72
     0
 73
     1
 74
     1
 75
     0
 76
     0
 77
     0
 78
     0
170
     0
171
     2
172
     0
173
     0
174
     0
175
     0
176
     0
177
     0
178
     0
  0
DIMSTYLE
  2
BIGT
 70
     0
  3

  4

  5

  6

  7

 40
1.0
 41
2.2299999999999991
 42
0.5
 43
2.5
 44
1.0
 45
0.0
 46
0.0
 47
0.0
 48
0.0
140
2.799999999999998
141
0.0
142
0.0
143
25.3999999999999986
144
1.0
145
0.0
146
1.0
147
1.0
 71
     0
 72
     0
 73
     0
 74
     0
 75
     0
 76
     0
 77
     3
 78
     8
170
     0
171
     2
172
     1
173
     1
174
     1
175
     0
176
   256
177
   256
178
    40
  0
DIMSTYLE
  2
AM_ANSI
 70
     0
  3

  4
mm
  5

  6

  7

 40
1.0
 41
0.1
 42
0.05
 43
0.5
 44
0.1
 45
0.0
 46
0.0
 47
0.1
 48
0.1
140
0.12
141
0.0
142
0.0
143
25.3999999999999986
144
1.0
145
0.0
146
0.71
147
0.06
 71
     0
 72
     0
 73
     1
 74
     1
 75
     0
 76
     0
 77
     0
 78
     7
170
     0
171
     2
172
     0
173
     0
174
     0
175
     0
176
   256
177
   256
178
     2
  0
DIMSTYLE
  2
AM_ANSI$3
 70
     0
  3

  4
mm
  5

  6

  7

 40
1.0
 41
0.1
 42
0.05
 43
0.5
 44
0.1
 45
0.0
 46
0.0
 47
0.1
 48
0.1
140
0.12
141
0.0
142
0.0
143
25.3999999999999986
144
1.0
145
0.0
146
0.71
147
0.06
 71
     0
 72
     0
 73
     1
 74
     1
 75
     0
 76
     0
 77
     0
 78
     7
170
     0
171
     2
172
     0
173
     0
174
     0
175
     0
176
   256
177
   256
178
     2
  0
DIMSTYLE
  2
AM_ANSI$4
 70
     0
  3

  4
mm
  5

  6

  7

 40
1.0
 41
0.1
 42
0.05
 43
0.5
 44
0.1
 45
0.0
 46
0.0
 47
0.1
 48
0.1
140
0.12
141
0.0
142
0.0
143
25.3999999999999986
144
1.0
145
0.0
146
0.71
147
0.06
 71
     0
 72
     0
 73
     1
 74
     1
 75
     0
 76
     0
 77
     0
 78
     7
170
     0
171
     2
172
     0
173
     0
174
     0
175
     0
176
   256
177
   256
178
     2
  0
DIMSTYLE
  2
AM_ANSI$7
 70
     0
  3

  4
mm
  5

  6

  7

 40
1.0
 41
0.1
 42
0.05
 43
0.5
 44
0.1
 45
0.0
 46
0.0
 47
0.1
 48
0.1
140
0.24
141
0.0
142
0.0
143
25.3999999999999986
144
1.0
145
0.0
146
0.71
147
0.06
 71
     0
 72
     0
 73
     1
 74
     1
 75
     0
 76
     0
 77
     0
 78
     7
170
     0
171
     2
172
     0
173
     0
174
     0
175
     0
176
   256
177
   256
178
     2
  0
DIMSTYLE
  2
AM_ANSI$SF
 70
     0
  3

  4
mm
  5

  6

  7

 40
1.0
 41
0.1
 42
0.05
 43
0.5
 44
0.1
 45
0.0
 46
0.0
 47
0.1
 48
0.1
140
0.12
141
0.0
142
0.0
143
25.3999999999999986
144
1.0
145
0.0
146
0.71
147
0.06
 71
     0
 72
     0
 73
     1
 74
     1
 75
     1
 76
     1
 77
     0
 78
     7
170
     0
171
     2
172
     0
173
     0
174
     0
175
     0
176
   256
177
   256
178
     2
  0
DIMSTYLE
  2
AM_ANSI$SH
 70
     0
  3

  4
mm
  5

  6

  7

 40
1.0
 41
0.1
 42
0.05
 43
0.5
 44
0.1
 45
0.0
 46
0.0
 47
0.1
 48
0.1
140
0.12
141
0.0
142
0.0
143
25.3999999999999986
144
1.0
145
0.0
146
0.71
147
0.06
 71
     0
 72
     0
 73
     1
 74
     1
 75
     1
 76
     1
 77
     0
 78
     7
170
     0
171
     2
172
     0
173
     1
174
     0
175
     0
176
   256
177
   256
178
     2
  0
ENDTAB
  0
ENDSEC
  0
SECTION
  2
BLOCKS
  0
BLOCK
  8
0
  2
$MODEL_SPACE
 70
     0
 10
0.0
 20
0.0
 30
0.0
  3
$MODEL_SPACE
  1

  0
ENDBLK
  5
DCB
  8
0
  0
BLOCK
 67
     1
  8
0
  2
$PAPER_SPACE
 70
     0
 10
0.0
 20
0.0
 30
0.0
  3
$PAPER_SPACE
  1

  0
ENDBLK
  5
DC7
 67
     1
  8
0
  0
BLOCK
  8
0
  2
_OPEN
 70
     0
 10
0.0
 20
0.0
 30
0.0
  3
_OPEN
  1

  0
LINE
  5
595
  8
0
  6
BYBLOCK
 62
     0
 10
-1.0
 20
0.16666667
 30
0.0
 11
0.0
 21
0.0
 31
0.0
  0
LINE
  5
596
  8
0
  6
BYBLOCK
 62
     0
 10
-1.0
 20
-0.16666667
 30
0.0
 11
0.0
 21
0.0
 31
0.0
  0
LINE
  5
597
  8
0
  6
BYBLOCK
 62
     0
 10
0.0
 20
0.0
 30
0.0
 11
-1.0
 21
0.0
 31
0.0
  0
ENDBLK
  5
599
  8
0
  0
BLOCK
  8
0
  2
矢印なし
 70
     0
 10
0.0
 20
0.0
 30
0.0
  3
矢印なし
  1

  0
ENDBLK
  5
6E5
  8
0
  0
BLOCK
  8
0
  2
_ACMFILLEDHALF
 70
     0
 10
0.0
 20
0.0
 30
0.0
  3
_ACMFILLEDHALF
  1

  0
TRACE
  5
E78
  8
240
 62
     0
 10
-0.8
 20
0.0
 30
0.0
 11
-1.0
 21
0.166666666
 31
0.0
 12
0.0
 22
0.0
 32
0.0
 13
0.0
 23
0.0
 33
0.0
  0
LINE
  5
E79
  8
240
 62
     0
 10
-1.0
 20
0.0
 30
0.0
 11
-0.8
 21
0.0
 31
0.0
  0
ENDBLK
  5
E77
  8
0
  0
ENDSEC
  0
SECTION
  2
ENTITIES
  0
INSERT
  5
6E6
  8
245
  2
矢印なし
 10
175.6238269700000103
 20
90.551235719999994
 30
0.0
  0
LINE
  5
8D6
  8
250
  6
CONTINUOUS
 10
47.7993737199999984
 20
33.9622410899999991
 30
0.0
 11
60.9993737200000012
 21
33.9622410899999991
 31
0.0
1001
ITEMNAME
1000
LNSP2
  0
LINE
  5
91D
  8
250
  6
CONTINUOUS
 10
-20.5615771299999999
 20
-18.0894796299999996
 30
0.0
 11
-33.7615771299999992
 21
-18.0894796299999996
 31
0.0
1001
ITEMNAME
1000
LNSP2
  0
TEXT
  5
928
  8
241
  6
CONTINUOUS
 10
-24.0
 20
45.4999999999999929
 30
0.0
 40
5.0
  1
CKB44-45
  7
YOKO
 11
-24.0
 21
45.4999999999999929
 31
0.0
 73
     1
  0
LINE
  5
B68
  8
245
  6
CENTER2
 10
-25.0
 20
0.0
 30
0.0
 11
46.0
 21
0.0
 31
0.0
  0
LINE
  5
B69
  8
240
  6
CONTINUOUS
 10
-24.0
 20
11.0
 30
0.0
 11
-10.3334718599999995
 21
11.0
 31
0.0
  0
LINE
  5
B6A
  8
240
  6
CONTINUOUS
 10
-10.3334718599999995
 20
-11.0
 30
0.0
 11
-24.0
 21
-11.0
 31
0.0
  0
LINE
  5
B6D
  8
240
  6
CONTINUOUS
 10
-24.0
 20
-11.0
 30
0.0
 11
-24.0
 21
11.0
 31
0.0
  0
LINE
  5
B6F
  8
240
  6
CONTINUOUS
 10
45.0
 20
-19.5
 30
0.0
 11
45.0
 21
19.5
 31
0.0
  0
LINE
  5
B70
  8
241
  6
CONTINUOUS
 10
0.0
 20
-11.0
 30
0.0
 11
0.0
 21
11.0
 31
0.0
  0
LINE
  5
B71
  8
240
  6
CONTINUOUS
 10
45.0
 20
-19.5
 30
0.0
 11
0.0
 21
-19.5
 31
0.0
  0
LINE
  5
B72
  8
241
  6
CONTINUOUS
 10
-1.66652814
 20
-11.0
 30
0.0
 11
-10.3334718599999995
 21
-11.0
 31
0.0
  0
LINE
  5
B73
  8
240
  6
CONTINUOUS
 10
-1.66652814
 20
-11.0
 30
0.0
 11
-2.98
 21
-13.2750000000000004
 31
0.0
  0
LINE
  5
B74
  8
240
  6
CONTINUOUS
 10
-9.0199999999999996
 20
-13.2750000000000004
 30
0.0
 11
-2.98
 21
-13.2750000000000004
 31
0.0
  0
LINE
  5
B75
  8
240
  6
CONTINUOUS
 10
-10.3334718599999995
 20
-11.0
 30
0.0
 11
-9.0199999999999996
 21
-13.2750000000000004
 31
0.0
  0
LINE
  5
B76
  8
240
  6
CONTINUOUS
 10
0.0
 20
-19.5
 30
0.0
 11
0.0
 21
-11.0
 31
0.0
  0
LINE
  5
B77
  8
240
  6
CONTINUOUS
 10
0.0
 20
-11.0
 30
0.0
 11
-1.66652814
 21
-11.0
 31
0.0
  0
LINE
  5
B78
  8
240
  6
CONTINUOUS
 10
45.0
 20
19.5
 30
0.0
 11
0.0
 21
19.5
 31
0.0
  0
LINE
  5
B79
  8
240
  6
CONTINUOUS
 10
0.0
 20
11.0
 30
0.0
 11
0.0
 21
19.5
 31
0.0
  0
LINE
  5
B7A
  8
241
  6
CONTINUOUS
 10
-1.66652814
 20
11.0
 30
0.0
 11
-10.3334718599999995
 21
11.0
 31
0.0
  0
LINE
  5
B7B
  8
240
  6
CONTINUOUS
 10
-1.66652814
 20
11.0
 30
0.0
 11
-2.98
 21
13.2750000000000004
 31
0.0
  0
LINE
  5
B7D
  8
245
  6
CENTER2
 10
-10.0
 20
5.0
 30
0.0
 11
-10.0
 21
-5.0
 31
0.0
  0
CIRCLE
  5
B7E
  8
241
  6
CONTINUOUS
 10
-10.0
 20
0.0
 30
0.0
 40
4.0
  0
CIRCLE
  5
B7F
  8
241
  6
CONTINUOUS
 10
-10.0
 20
0.0
 30
0.0
 40
3.0
  0
LINE
  5
B81
  8
240
  6
CONTINUOUS
 10
-9.0199999999999996
 20
13.2750000000000004
 30
0.0
 11
-2.98
 21
13.2750000000000004
 31
0.0
  0
LINE
  5
B82
  8
240
  6
CONTINUOUS
 10
-10.3334718599999995
 20
11.0
 30
0.0
 11
-9.0199999999999996
 21
13.2750000000000004
 31
0.0
  0
LINE
  5
B84
  8
240
  6
CONTINUOUS
 10
0.0
 20
11.0
 30
0.0
 11
-1.66652814
 21
11.0
 31
0.0
  0
LINE
  5
B87
  8
243
  6
HIDDEN2
 10
19.0
 20
11.0
 30
0.0
 11
45.0
 21
11.0
 31
0.0
  0
CIRCLE
  5
B88
  8
242
  6
CONTINUOUS
 10
35.0
 20
0.0
 30
0.0
 40
3.649999999999999
  0
CIRCLE
  5
B89
  8
241
  6
CONTINUOUS
 10
35.0
 20
0.0
 30
0.0
 40
4.0
  0
LINE
  5
B8B
  8
245
  6
CENTER2
 10
35.0
 20
5.0
 30
0.0
 11
35.0
 21
-5.0
 31
0.0
1001
GRPNAME
1000
PASTMD1U
  0
TEXT
  5
B8D
  8
250
  6
CONTINUOUS
 10
-31.3615771300000006
 20
-17.0894796299999996
 30
0.0
 40
2.799999999999998
  1
CK4
  7
YOKO
1001
ITEMNAME
1000
LNSP3
1001
ACAD
1000
MTEXTBEGIN
1070
    73
1070
     1
1070
    44
1040
1.0
1070
    74
1070
     0
1000
MTEXTEND
1000
MTEXTBEGIN
1070
    73
1070
     1
1070
    44
1040
1.0
1070
    74
1070
     0
1000
MTEXTEND
  0
TEXT
  5
B90
  8
250
  6
CONTINUOUS
 10
50.1993737200000112
 20
34.9622410899999991
 30
0.0
 40
2.799999999999998
  1
CK4
  7
YOKO
1001
ITEMNAME
1000
LNSP3
1001
ACAD
1000
MTEXTBEGIN
1070
    73
1070
     1
1070
    44
1040
1.0
1070
    74
1070
     0
1000
MTEXTEND
1000
MTEXTBEGIN
1070
    73
1070
     1
1070
    44
1040
1.0
1070
    74
1070
     0
1000
MTEXTEND
  0
LINE
  5
B93
  8
250
  6
CONTINUOUS
 10
0.0
 20
20.0
 30
0.0
 11
0.0
 21
32.5
 31
0.0
  0
LINE
  5
B94
  8
250
  6
CONTINUOUS
 10
45.0
 20
20.0
 30
0.0
 11
45.0
 21
32.5
 31
0.0
  0
LINE
  5
B95
  8
250
  6
CONTINUOUS
 10
2.2299999999999991
 20
31.5
 30
0.0
 11
42.7700000000000031
 21
31.5
 31
0.0
  0
LINE
  5
B99
  8
250
  6
CONTINUOUS
 10
45.4999999999999929
 20
-19.5
 30
0.0
 11
58.0
 21
-19.5
 31
0.0
  0
LINE
  5
B9A
  8
250
  6
CONTINUOUS
 10
45.4999999999999929
 20
19.5
 30
0.0
 11
58.0
 21
19.5
 31
0.0
  0
LINE
  5
B9B
  8
250
  6
CONTINUOUS
 10
57.0
 20
-17.2699999999999996
 30
0.0
 11
57.0
 21
17.2699999999999996
 31
0.0
  0
LINE
  5
B9F
  8
241
  6
CONTINUOUS
 10
33.0
 20
-1.1547005400000001
 30
0.0
 11
35.0
 21
-2.3094010800000002
 31
0.0
  0
LINE
  5
BA0
  8
241
  6
CONTINUOUS
 10
35.0
 20
-2.3094010800000002
 30
0.0
 11
37.0
 21
-1.1547005400000001
 31
0.0
  0
LINE
  5
BA1
  8
241
  6
CONTINUOUS
 10
37.0
 20
-1.1547005400000001
 30
0.0
 11
37.0
 21
1.1547005400000001
 31
0.0
  0
LINE
  5
BA2
  8
241
  6
CONTINUOUS
 10
37.0
 20
1.1547005400000001
 30
0.0
 11
35.0
 21
2.3094010800000002
 31
0.0
  0
LINE
  5
BA3
  8
241
  6
CONTINUOUS
 10
35.0
 20
2.3094010800000002
 30
0.0
 11
33.0
 21
1.1547005400000001
 31
0.0
  0
LINE
  5
BA4
  8
241
  6
CONTINUOUS
 10
33.0
 20
1.1547005400000001
 30
0.0
 11
33.0
 21
-1.1547005400000001
 31
0.0
  0
LINE
  5
BA5
  8
250
  6
CONTINUOUS
 10
-17.5834641514720502
 20
-12.93123664958941
 30
0.0
 11
-20.5615771299999999
 21
-18.0894796299999996
 31
0.0
1001
ACAD
1000
DSTYLE
1002
{
1070
     6
1000
OPEN
1070
   343
1005
594
1002
}
  0
LINE
  5
BA6
  8
250
  6
CONTINUOUS
 10
-17.905336932841081
 20
-12.7454033122940604
 30
0.0
 11
-16.4684641499999991
 21
-11.0
 31
0.0
  0
LINE
  5
BA7
  8
250
  6
CONTINUOUS
 10
-17.2615913701030301
 20
-13.1170699868847507
 30
0.0
 11
-16.4684641499999991
 21
-11.0
 31
0.0
  0
LINE
  5
BA8
  8
250
  6
CONTINUOUS
 10
-16.4684641499999991
 20
-11.0
 30
0.0
 11
-17.5834641514720609
 21
-12.93123664958941
 31
0.0
  0
LINE
  5
BA9
  8
250
  6
CONTINUOUS
 10
40.5645949303608617
 20
21.4312366502309501
 30
0.0
 11
47.7993737199999984
 21
33.9622410899999991
 31
0.0
1001
ACAD
1000
DSTYLE
1002
{
1070
     6
1000
OPEN
1070
   343
1005
594
1002
}
  0
LINE
  5
BAA
  8
250
  6
CONTINUOUS
 10
40.886467711836822
 20
21.2454033131208
 30
0.0
 11
39.4495949300000106
 21
19.5
 31
0.0
  0
LINE
  5
BAB
  8
250
  6
CONTINUOUS
 10
40.2427221488849298
 20
21.6170699873410896
 30
0.0
 11
39.4495949300000106
 21
19.5
 31
0.0
  0
LINE
  5
BAC
  8
250
  6
CONTINUOUS
 10
39.4495949300000106
 20
19.5
 30
0.0
 11
40.5645949303608617
 21
21.4312366502309501
 31
0.0
  0
TEXT
  5
BAD
  8
250
  6
CONTINUOUS
 10
19.8333333333333286
 20
32.5
 30
0.0
 40
2.799999999999998
  1
45
1001
ACAD
1000
MTEXTBEGIN
1070
    73
1070
     1
1070
    44
1040
1.0
1070
    74
1070
     0
1000
MTEXTEND
  0
LINE
  5
BAE
  8
250
  6
CONTINUOUS
 10
42.7700000000000031
 20
31.8716666740999983
 30
0.0
 11
45.0
 21
31.5
 31
0.0
  0
LINE
  5
BAF
  8
250
  6
CONTINUOUS
 10
42.7700000000000031
 20
31.1283333259000017
 30
0.0
 11
45.0
 21
31.5
 31
0.0
  0
LINE
  5
BB0
  8
250
  6
CONTINUOUS
 10
45.0
 20
31.5
 30
0.0
 11
42.7700000000000031
 21
31.5
 31
0.0
  0
LINE
  5
BB1
  8
250
  6
CONTINUOUS
 10
2.2299999999999991
 20
31.1283333259000017
 30
0.0
 11
0.0
 21
31.5
 31
0.0
  0
LINE
  5
BB2
  8
250
  6
CONTINUOUS
 10
2.2299999999999991
 20
31.8716666740999983
 30
0.0
 11
0.0
 21
31.5
 31
0.0
  0
LINE
  5
BB3
  8
250
  6
CONTINUOUS
 10
0.0
 20
31.5
 30
0.0
 11
2.2299999999999991
 21
31.5
 31
0.0
  0
TEXT
  5
BB4
  8
250
  6
CONTINUOUS
 10
56.0
 20
-3.8666666666666649
 30
0.0
 40
2.799999999999998
  1
\U+220539
 50
90.0
1001
ACAD
1000
MTEXTBEGIN
1070
    73
1070
     1
1070
    44
1040
1.0
1070
    74
1070
     0
1000
MTEXTEND
  0
LINE
  5
BB5
  8
250
  6
CONTINUOUS
 10
56.6283333259000017
 20
17.2699999999999996
 30
0.0
 11
57.0
 21
19.5
 31
0.0
  0
LINE
  5
BB6
  8
250
  6
CONTINUOUS
 10
57.3716666740999983
 20
17.2699999999999996
 30
0.0
 11
57.0
 21
19.5
 31
0.0
  0
LINE
  5
BB7
  8
250
  6
CONTINUOUS
 10
57.0
 20
19.5
 30
0.0
 11
57.0
 21
17.2699999999999996
 31
0.0
  0
LINE
  5
BB8
  8
250
  6
CONTINUOUS
 10
57.3716666740999983
 20
-17.2699999999999996
 30
0.0
 11
57.0
 21
-19.5
 31
0.0
  0
LINE
  5
BB9
  8
250
  6
CONTINUOUS
 10
56.6283333259000017
 20
-17.2699999999999996
 30
0.0
 11
57.0
 21
-19.5
 31
0.0
  0
LINE
  5
BBA
  8
250
  6
CONTINUOUS
 10
57.0
 20
-19.5
 30
0.0
 11
57.0
 21
-17.2699999999999996
 31
0.0
  0
LINE
  5
BBB
  8
243
  6
HIDDEN2
 10
19.0
 20
-11.0
 30
0.0
 11
45.0
 21
-11.0
 31
0.0
  0
LINE
  5
C96
  8
247
  6
CONTINUOUS
 10
6.0000000000002451
 20
-14.2500000000000195
 30
0.0
 11
6.000000000000302
 21
-9.6153846156700418
 31
0.0
  0
LINE
  5
C97
  8
247
  6
CONTINUOUS
 10
3.5000000000003002
 20
-13.4548934999879606
 30
0.0
 11
5.599999999916311
 21
-14.0570588100573701
 31
0.0
  0
LINE
  5
C98
  8
247
  6
CONTINUOUS
 10
4.4961538461143
 20
-12.8251514035190404
 30
0.0
 11
4.4961538461143
 21
-13.7405360188670507
 31
0.0
  0
ARC
  5
C99
  8
247
  6
CONTINUOUS
 10
3.884719067294403
 20
-12.5872634019468101
 30
0.0
 40
0.3876715809326743
 50
72.9978896752920008
 51
172.9241662185123118
  0
ARC
  5
C9A
  8
247
  6
CONTINUOUS
 10
3.8052231310283191
 20
-12.8824775568041208
 30
0.0
 40
0.6933047965358772
 50
4.7429368522013933
 51
73.8492262732663391
1001
GENIUS_GENOBJ-N-FIL_13
1002
{
1000
OWNER
1000
GEN
1002
}
1001
GENIUS_GENODEF_13
1002
{
1000
HIER
1070
     0
1002
}
1002
{
1000
MANEDIT
1070
     0
1002
}
1002
{
1000
NOSEL
1070
     0
1002
}
1002
{
1000
BEHIND
1070
     0
1002
}
1002
{
1000
OTHER
1070
     0
1002
}
1002
{
1000
REACTOR
1002
}
  0
LINE
  5
C9B
  8
247
  6
CONTINUOUS
 10
5.599999999916311
 20
-13.1416741947093705
 30
0.0
 11
5.599999999916311
 21
-14.0570588100573701
 31
0.0
  0
LINE
  5
C9C
  8
247
  6
CONTINUOUS
 10
3.5000000000003002
 20
-13.4548934999879606
 30
0.0
 11
3.5000000000003002
 21
-12.5395088846399592
 31
0.0
  0
ARC
  5
C9D
  8
247
  6
CONTINUOUS
 10
4.8874169627681772
 20
-12.8783064762668396
 30
0.0
 40
0.394857301075386
 50
65.990941652528889
 51
172.2634434590694923
  0
ARC
  5
C9E
  8
247
  6
CONTINUOUS
 10
4.8912003273328732
 20
-13.2124466104269196
 30
0.0
 40
0.7123241612361686
 50
5.701985164258037
 51
77.2773384368222622
1001
GENIUS_GENOBJ-N-FIL_13
1002
{
1000
OWNER
1000
GEN
1002
}
1001
GENIUS_GENODEF_13
1002
{
1000
HIER
1070
     0
1002
}
1002
{
1000
MANEDIT
1070
     0
1002
}
1002
{
1000
NOSEL
1070
     0
1002
}
1002
{
1000
BEHIND
1070
     0
1002
}
1002
{
1000
OTHER
1070
     0
1002
}
1002
{
1000
REACTOR
1002
}
  0
LINE
  5
C9F
  8
247
  6
CONTINUOUS
 10
5.599999999916311
 20
-12.1839818870633803
 30
0.0
 11
3.5000000000003042
 21
-11.5818165769939707
 31
0.0
  0
LINE
  5
CA0
  8
247
  6
CONTINUOUS
 10
3.5000000000003042
 20
-10.0856627309079698
 30
0.0
 11
3.5000000000003042
 21
-10.4816783643035905
 31
0.0
  0
LINE
  5
CA1
  8
247
  6
CONTINUOUS
 10
5.599999999916311
 20
-11.1087396539439691
 30
0.0
 11
5.599999999916311
 21
-10.6779704231919794
 31
0.0
  0
ARC
  5
CA2
  8
247
  6
CONTINUOUS
 10
4.9582995950836644
 20
-9.8818165770699729
 30
0.0
 40
1.576855057639547
 50
202.3594881415272937
 51
254.9932485428460041
  0
ARC
  5
CA3
  8
247
  6
CONTINUOUS
 10
4.0658188585384414
 20
-10.3475113661332205
 30
0.0
 40
0.6234706797009447
 50
94.9945893190753736
 51
155.1663289573035911
1001
GENIUS_GENOBJ-N-FIL_13
1002
{
1000
OWNER
1000
GEN
1002
}
1001
GENIUS_GENODEF_13
1002
{
1000
HIER
1070
     0
1002
}
1002
{
1000
MANEDIT
1070
     0
1002
}
1002
{
1000
NOSEL
1070
     0
1002
}
1002
{
1000
BEHIND
1070
     0
1002
}
1002
{
1000
OTHER
1070
     0
1002
}
1002
{
1000
REACTOR
1002
}
  0
ARC
  5
CA4
  8
247
  6
CONTINUOUS
 10
4.6621021219697454
 20
-10.9441839510327803
 30
0.0
 40
0.9749472149106982
 50
15.8460965557799707
 51
82.3251370041691644
  0
ARC
  5
CA5
  8
247
  6
CONTINUOUS
 10
4.8714704019713722
 20
-10.5352116387722301
 30
0.0
 40
0.9271945638692008
 50
249.7136016704970132
 51
321.7887456564096169
1001
GENIUS_GENOBJ-N-FIL_13
1002
{
1000
OWNER
1000
GEN
1002
}
1001
GENIUS_GENODEF_13
1002
{
1000
HIER
1070
     0
1002
}
1002
{
1000
MANEDIT
1070
     0
1002
}
1002
{
1000
NOSEL
1070
     0
1002
}
1002
{
1000
BEHIND
1070
     0
1002
}
1002
{
1000
OTHER
1070
     0
1002
}
1002
{
1000
REACTOR
1002
}
  0
LINE
  5
CA6
  8
247
  6
CONTINUOUS
 10
4.7923076922562791
 20
-10.4625858078159606
 30
0.0
 11
4.7923076922562791
 21
-9.9779704232199755
 31
0.0
  0
ARC
  5
CA7
  8
247
  6
CONTINUOUS
 10
4.7500000000003011
 20
-14.2500000000000195
 30
0.0
 40
1.25
 50
180.0
 51
0.0
  0
LINE
  5
CA8
  8
247
  6
CONTINUOUS
 10
3.5000000000003002
 20
-14.2500000000000195
 30
0.0
 11
3.5000000000003002
 21
-13.8038461539140105
 31
0.0
  0
ARC
  5
CA9
  8
247
  6
CONTINUOUS
 10
4.7500000000003011
 20
-9.6153846156700293
 30
0.0
 40
1.25
 50
0.0
 51
180.0
  0
VIEWPORT
  5
22
 67
     1
  8
0
 10
261.5176991199999748
 20
148.5
 30
0.0
 40
523.0353982300000553
 41
297.0
 68
     1
 69
     1
1001
ACAD
1000
MVIEW
1002
{
1070
    16
1010
0.0
1020
0.0
1030
0.0
1010
0.0
1020
0.0
1030
1.0
1040
0.0
1040
297.0
1040
261.5176991199999748
1040
148.5
1040
50.0
1040
0.0
1040
0.0
1070
     0
1070
   100
1070
     1
1070
     1
1070
     0
1070
     0
1070
     0
1070
     0
1040
0.0
1040
0.0
1040
0.0
1040
1.0
1040
1.0
1040
10.0
1040
10.0
1070
     0
1002
{
1002
}
1002
}
1001
GENIUS_GENOBJ-N-SDF_13
1002
{
1000
OWNER
1000
GEN
1002
}
1001
GENIUS_GENODEF_13
1002
{
1000
HIER
1070
     0
1002
}
1002
{
1000
MANEDIT
1070
     0
1002
}
1002
{
1000
NOSEL
1070
     0
1002
}
1002
{
1000
BEHIND
1070
     0
1002
}
1002
{
1000
OTHER
1070
     0
1002
}
1002
{
1000
REACTOR
1002
}
1001
GENIUS_GENSCREG_15
1000
PF
1040
1.0
1000
DF
1040
1.0
1000
MIN
1011
0.0000000049999471
1021
0.0
1031
0.0
1021
0.0
1031
0.0
1000
MAX
1011
523.0353982350000024
1021
0.0
1031
0.0
1021
297.0
1031
0.0
1000
FLAGS
1070
     4
  0
ENDSEC
  0
EOF
