  0
SECTION
  2
HEADER
  9
$ACADVER
  1
AC1009
  9
$INSBASE
 10
0.0
 20
0.0
 30
0.0
  9
$EXTMIN
 10
-26.8708370600004294
 20
-21.0782751099999999
 30
0.0
  9
$EXTMAX
 10
80.4543616899972136
 20
54.0000000000000213
 30
0.0
  9
$LIMMIN
 10
0.0
 20
0.0
  9
$LIMMAX
 10
297.0
 20
210.0
  9
$ORTHOMODE
 70
     0
  9
$REGENMODE
 70
     1
  9
$FILLMODE
 70
     1
  9
$QTEXTMODE
 70
     0
  9
$MIRRTEXT
 70
     1
  9
$DRAGMODE
 70
     2
  9
$LTSCALE
 40
10.0
  9
$OSMODE
 70
   807
  9
$ATTMODE
 70
     1
  9
$TEXTSIZE
 40
3.0
  9
$TRACEWID
 40
1.0
  9
$TEXTSTYLE
  7
YOKO
  9
$CLAYER
  8
240
  9
$CELTYPE
  6
BYLAYER
  9
$CECOLOR
 62
   256
  9
$DIMSCALE
 40
1.0
  9
$DIMASZ
 40
2.2299999999999991
  9
$DIMEXO
 40
0.5
  9
$DIMDLI
 40
7.0
  9
$DIMRND
 40
0.0
  9
$DIMDLE
 40
0.0
  9
$DIMEXE
 40
1.0
  9
$DIMTP
 40
0.0
  9
$DIMTM
 40
0.01
  9
$DIMTXT
 40
2.799999999999998
  9
$DIMCEN
 40
0.0
  9
$DIMTSZ
 40
0.0
  9
$DIMTOL
 70
     0
  9
$DIMLIM
 70
     0
  9
$DIMTIH
 70
     0
  9
$DIMTOH
 70
     0
  9
$DIMSE1
 70
     0
  9
$DIMSE2
 70
     0
  9
$DIMTAD
 70
     3
  9
$DIMZIN
 70
     9
  9
$DIMBLK
  1
OPEN
  9
$DIMASO
 70
     1
  9
$DIMSHO
 70
     1
  9
$DIMPOST
  1

  9
$DIMAPOST
  1

  9
$DIMALT
 70
     0
  9
$DIMALTD
 70
     2
  9
$DIMALTF
 40
25.3999999999999986
  9
$DIMLFAC
 40
1.0
  9
$DIMTOFL
 70
     1
  9
$DIMTVP
 40
0.0
  9
$DIMTIX
 70
     1
  9
$DIMSOXD
 70
     0
  9
$DIMSAH
 70
     0
  9
$DIMBLK1
  1

  9
$DIMBLK2
  1

  9
$DIMSTYLE
  2
BIGT
  9
$DIMCLRD
 70
   256
  9
$DIMCLRE
 70
   256
  9
$DIMCLRT
 70
    40
  9
$DIMTFAC
 40
1.0
  9
$DIMGAP
 40
1.0
  9
$LUNITS
 70
     2
  9
$LUPREC
 70
     6
  9
$SKETCHINC
 40
1.0
  9
$FILLETRAD
 40
0.0
  9
$AUNITS
 70
     0
  9
$AUPREC
 70
     6
  9
$MENU
  1
.
  9
$ELEVATION
 40
0.0
  9
$PELEVATION
 40
0.0
  9
$THICKNESS
 40
0.0
  9
$LIMCHECK
 70
     0
  9
$BLIPMODE
 70
     0
  9
$CHAMFERA
 40
0.2
  9
$CHAMFERB
 40
0.2
  9
$SKPOLY
 70
     0
  9
$TDCREATE
 40
2457745.6302314819768071
  9
$TDUPDATE
 40
2458296.6782175931148231
  9
$TDINDWG
 40
0.0456745139
  9
$TDUSRTIMER
 40
0.0456744792
  9
$USRTIMER
 70
     1
  9
$ANGBASE
 50
0.0
  9
$ANGDIR
 70
     0
  9
$PDMODE
 70
     1
  9
$PDSIZE
 40
0.0
  9
$PLINEWID
 40
0.0
  9
$COORDS
 70
     1
  9
$SPLFRAME
 70
     0
  9
$SPLINETYPE
 70
     6
  9
$SPLINESEGS
 70
     4
  9
$ATTDIA
 70
     1
  9
$ATTREQ
 70
     1
  9
$HANDLING
 70
     1
  9
$HANDSEED
  5
4B59
  9
$SURFTAB1
 70
     6
  9
$SURFTAB2
 70
     6
  9
$SURFTYPE
 70
     6
  9
$SURFU
 70
     6
  9
$SURFV
 70
     6
  9
$UCSNAME
  2

  9
$UCSORG
 10
0.0
 20
0.0
 30
0.0
  9
$UCSXDIR
 10
1.0
 20
0.0
 30
0.0
  9
$UCSYDIR
 10
0.0
 20
1.0
 30
0.0
  9
$PUCSNAME
  2

  9
$PUCSORG
 10
0.0
 20
0.0
 30
0.0
  9
$PUCSXDIR
 10
1.0
 20
0.0
 30
0.0
  9
$PUCSYDIR
 10
0.0
 20
1.0
 30
0.0
  9
$USERI1
 70
     1
  9
$USERI2
 70
     0
  9
$USERI3
 70
     0
  9
$USERI4
 70
     0
  9
$USERI5
 70
     0
  9
$USERR1
 40
0.0
  9
$USERR2
 40
0.0
  9
$USERR3
 40
0.0
  9
$USERR4
 40
0.0
  9
$USERR5
 40
0.0
  9
$WORLDVIEW
 70
     1
  9
$SHADEDGE
 70
     3
  9
$SHADEDIF
 70
    70
  9
$TILEMODE
 70
     1
  9
$MAXACTVP
 70
    16
  9
$PLIMCHECK
 70
     0
  9
$PEXTMIN
 10
1.0000000000000000E+20
 20
1.0000000000000000E+20
 30
1.0000000000000000E+20
  9
$PEXTMAX
 10
-1.0000000000000000E+20
 20
-1.0000000000000000E+20
 30
-1.0000000000000000E+20
  9
$PLIMMIN
 10
0.0
 20
0.0
  9
$PLIMMAX
 10
420.0
 20
297.0
  9
$UNITMODE
 70
     0
  9
$VISRETAIN
 70
     1
  9
$PLINEGEN
 70
     0
  9
$PSLTSCALE
 70
     1
  0
ENDSEC
  0
SECTION
  2
TABLES
  0
TABLE
  2
VPORT
 70
     1
  0
VPORT
  2
*ACTIVE
 70
     0
 10
0.0
 20
0.0
 11
1.0
 21
1.0
 12
48.9346118022532011
 22
11.5381318017254895
 13
0.0
 23
0.0
 14
7.0
 24
7.0
 15
7.0
 25
7.0
 16
0.0
 26
0.0
 36
1.0
 17
0.0
 27
0.0
 37
0.0
 40
119.2931550650952062
 41
1.887387387387387
 42
50.0
 43
0.0
 44
0.0
 50
0.0
 51
0.0
 71
     0
 72
  2000
 73
     1
 74
     0
 75
     0
 76
     1
 77
     0
 78
     0
  0
ENDTAB
  0
TABLE
  2
LTYPE
 70
    22
  0
LTYPE
  2
CONTINUOUS
 70
     0
  3
Solid line
 72
    65
 73
     0
 40
0.0
  0
LTYPE
  2
CENTER2
 70
     0
  3
___ _ ___ _ ___ _ ___ _ ___ _ ___ _ ___ _ ___ _
 72
    65
 73
     4
 40
1.125
 49
0.75
 49
-0.125
 49
0.125
 49
-0.125
  0
LTYPE
  2
HIDDEN2
 70
     0
  3
_ _ _ _ _ _ _ _ _ _ _ _ _ _ _ _ _ _ _ _ _ _ _ _
 72
    65
 73
     2
 40
0.1875
 49
0.125
 49
-0.0625
  0
LTYPE
  2
PHANTOM2
 70
     0
  3
___ _ _ ___ _ _ ___ _ _ ___ _ _ ___ _ _ ___ _ _
 72
    65
 73
     6
 40
1.25
 49
0.625
 49
-0.125
 49
0.125
 49
-0.125
 49
0.125
 49
-0.125
  0
LTYPE
  2
AMCONSTR
 70
     0
  3
_______________________
 72
    65
 73
     2
 40
9999.0
 49
9999.0
 49
0.0
  0
LTYPE
  2
HIDDEN
 70
     0
  3
Hidden __ __ __ __ __ __ __ __ __ __ __ __ __ _
 72
    65
 73
     2
 40
0.375
 49
0.25
 49
-0.125
  0
LTYPE
  2
CENTER
 70
     0
  3
Center ____ _ ____ _ ____ _ ____ _ ____ _ ____
 72
    65
 73
     4
 40
2.0
 49
1.25
 49
-0.25
 49
0.25
 49
-0.25
  0
LTYPE
  2
AMZIGZAG2
 70
     0
  3
/\/-/\/-/\/-/\/-/\/-/\/
 72
    65
 73
     2
 40
0.4401
 49
0.0001
 49
-0.4400000000000001
  0
LTYPE
  2
ACANSTGB
 70
     0
  3
__ . . __ . .
 72
    65
 73
     6
 40
0.35433070866
 49
0.15748031496
 49
-0.03937007874
 49
0.03937007874
 49
-0.03937007874
 49
0.03937007874
 49
-0.03937007874
  0
LTYPE
  2
ACANSTGL
 70
     0
  3
_ _ _ _ _
 72
    65
 73
     2
 40
0.11811023622
 49
0.07874015748
 49
-0.03937007874
  0
ENDTAB
  0
TABLE
  2
LAYER
 70
     8
  0
LAYER
  2
0
 70
     0
 62
     7
  6
CONTINUOUS
  0
LAYER
  2
240
 70
     0
 62
     4
  6
CONTINUOUS
  0
LAYER
  2
DEFPOINTS
 70
     0
 62
     7
  6
CONTINUOUS
  0
LAYER
  2
245
 70
     0
 62
     2
  6
CENTER2
  0
LAYER
  2
241
 70
     0
 62
   211
  6
CONTINUOUS
  0
LAYER
  2
243
 70
     0
 62
   211
  6
HIDDEN2
  0
LAYER
  2
250
 70
     0
 62
     3
  6
CONTINUOUS
  0
LAYER
  2
247
 70
     0
 62
    60
  6
CONTINUOUS
  0
ENDTAB
  0
TABLE
  2
STYLE
 70
    10
  0
STYLE
  2
STANDARD
 70
     0
 40
0.0
 41
1.0
 50
0.0
 71
     0
 42
3.0
  3
romans.shx
  4
extfont.shx
  0
STYLE
  2
YOKO
 70
     0
 40
0.0
 41
1.0
 50
0.0
 71
     0
 42
3.0
  3
romans.shx
  4
extfont.shx
  0
STYLE
  2

 70
     1
 40
0.0
 41
1.0
 50
0.0
 71
     0
 42
3.0
  3
genltshp.shx
  4

  0
STYLE
  2
ACANSGDT
 70
     0
 40
0.0
 41
1.0
 50
0.0
 71
     0
 42
3.0
  3
amgdt.shx
  4

  0
ENDTAB
  0
TABLE
  2
VIEW
 70
     0
  0
ENDTAB
  0
TABLE
  2
UCS
 70
     0
  0
ENDTAB
  0
TABLE
  2
APPID
 70
    47
  0
APPID
  2
ACAD
 70
     0
  0
APPID
  2
ACADANNOTATIVE
 70
     0
  0
APPID
  2
GLOBAL
 70
     0
  0
APPID
  2
DETAIL
 70
     0
  0
APPID
  2
GRPNAME
 70
     0
  0
APPID
  2
GPARA
 70
     0
  0
APPID
  2
MCAD_NO_VIS
 70
     0
  0
APPID
  2
ACAD_TEMP_GRAPHIC
 70
     0
  0
APPID
  2
ACATTRIBSERVICES
 70
     0
  0
APPID
  2
GENIUS_GENSCREG_15
 70
     0
  0
APPID
  2
GENIUS_GENODEF_13
 70
     0
  0
APPID
  2
GENIUS_GENOBJ-N-SDF_13
 70
     0
  0
APPID
  2
GENIUS_GENREC_14
 70
     0
  0
APPID
  2
GENIUS_GENOBJ-N-REC_13
 70
     0
  0
APPID
  2
GENIUS_GENDIMSH_14
 70
     0
  0
APPID
  2
GENIUS_GENOBJ-N-DIM_13
 70
     0
  0
APPID
  2
GENIUS_GENDIM_13
 70
     0
  0
APPID
  2
GENIUS_GENDTOL_13
 70
     0
  0
APPID
  2
GENIUS_GENOLIS_13
 70
     0
  0
APPID
  2
GENIUS_GENOENT_13
 70
     0
  0
APPID
  2
GENIUS_GENOBJ-F-FEM_13
 70
     0
  0
APPID
  2
GENIUS_GENOREF_13
 70
     0
  0
APPID
  2
GENIUS_GEFFEM_13
 70
     0
  0
APPID
  2
GENIUS_GEFFEMP_13
 70
     0
  0
APPID
  2
AD_DRAW
 70
     0
  0
APPID
  2
DESIGNERASSEMBLIES
 70
     0
  0
APPID
  2
ACADM_DIM_EDIT
 70
     0
  0
APPID
  2
AMDT_DM_ADJ
 70
     0
  0
APPID
  2
ITEMNAME
 70
     0
  0
APPID
  2
GENIUS_GENOBJ-N-FIL_13
 70
     0
  0
APPID
  2
GENIUS_GENFIL_13
 70
     0
  0
APPID
  2
GENIUS_GENOBJ-N-CHA_13
 70
     0
  0
APPID
  2
ACAD_NAV_VCDISPLAY
 70
     0
  0
APPID
  2
GENIUS_GENOBJ-N-CRS_13
 70
     0
  0
APPID
  2
ACAD_PSEXT
 70
     0
  0
APPID
  2
GENIUS_GENOBJ-N-HTC_13
 70
     0
  0
APPID
  2
GENIUS_GENHATCH_13
 70
     0
  0
APPID
  2
ACAD_EXEMPT_FROM_CAD_STANDARDS
 70
     0
  0
APPID
  2
ACAD_DSTYLE_DIMJAG
 70
     0
  0
APPID
  2
ACAD_DSTYLE_DIMBREAK
 70
     0
  0
APPID
  2
ACAECLAYERSTANDARD
 70
     0
  0
APPID
  2
ACAD_DSTYLE_DIMINSPECT
 70
     0
  0
APPID
  2
ACAD_MLEADERVER
 70
     0
  0
APPID
  2
ACAD_DSTYLE_DIMARC_LENGTH_
 70
     0
  0
APPID
  2
ACAD_DSTYLE_DIM_LINETYPE
 70
     0
  0
APPID
  2
ACAD_DSTYLE_DIM_EXT1_LINETYPE
 70
     0
  0
APPID
  2
ACAD_DSTYLE_DIM_EXT2_LINETYPE
 70
     0
  0
ENDTAB
  0
TABLE
  2
DIMSTYLE
 70
    31
  0
DIMSTYLE
  2
STANDARD
 70
     0
  3

  4

  5

  6

  7

 40
1.0
 41
0.18
 42
0.0625
 43
0.38
 44
0.18
 45
0.0
 46
0.0
 47
0.0
 48
0.0
140
0.18
141
0.09
142
0.0
143
25.3999999999999986
144
1.0
145
0.0
146
1.0
147
0.09
 71
     0
 72
     0
 73
     1
 74
     1
 75
     0
 76
     0
 77
     0
 78
     0
170
     0
171
     2
172
     0
173
     0
174
     0
175
     0
176
     0
177
     0
178
     0
  0
DIMSTYLE
  2
BIGT
 70
     0
  3

  4

  5

  6

  7

 40
1.0
 41
2.2299999999999991
 42
0.5
 43
7.0
 44
1.0
 45
0.0
 46
0.0
 47
0.0
 48
0.01
140
2.799999999999998
141
0.0
142
0.0
143
25.3999999999999986
144
1.0
145
0.0
146
1.0
147
1.0
 71
     0
 72
     0
 73
     0
 74
     0
 75
     0
 76
     0
 77
     3
 78
     9
170
     0
171
     2
172
     1
173
     0
174
     1
175
     0
176
   256
177
   256
178
    40
  0
DIMSTYLE
  2
AM_ANSI
 70
     0
  3

  4
mm
  5

  6

  7

 40
1.0
 41
0.12
 42
0.05
 43
0.5
 44
0.1
 45
0.0
 46
0.0
 47
0.1
 48
0.1
140
0.12
141
0.0
142
0.0
143
25.3999999999999986
144
1.0
145
0.0
146
0.71
147
0.06
 71
     0
 72
     0
 73
     1
 74
     1
 75
     0
 76
     0
 77
     0
 78
     7
170
     0
171
     2
172
     0
173
     0
174
     0
175
     0
176
   256
177
   256
178
     2
  0
DIMSTYLE
  2
AM_ANSI$3
 70
     0
  3

  4
mm
  5

  6

  7

 40
1.0
 41
0.12
 42
0.05
 43
0.5
 44
0.1
 45
0.0
 46
0.0
 47
0.1
 48
0.1
140
0.12
141
0.0
142
0.0
143
25.3999999999999986
144
1.0
145
0.0
146
0.71
147
0.06
 71
     0
 72
     0
 73
     1
 74
     1
 75
     0
 76
     0
 77
     0
 78
     7
170
     0
171
     2
172
     0
173
     0
174
     0
175
     0
176
   256
177
   256
178
     2
  0
DIMSTYLE
  2
AM_ANSI$4
 70
     0
  3

  4
mm
  5

  6

  7

 40
1.0
 41
0.12
 42
0.05
 43
0.5
 44
0.1
 45
0.0
 46
0.0
 47
0.1
 48
0.1
140
0.12
141
0.0
142
0.0
143
25.3999999999999986
144
1.0
145
0.0
146
0.71
147
0.06
 71
     0
 72
     0
 73
     1
 74
     1
 75
     0
 76
     0
 77
     0
 78
     7
170
     0
171
     2
172
     0
173
     0
174
     0
175
     0
176
   256
177
   256
178
     2
  0
DIMSTYLE
  2
AM_ANSI$7
 70
     0
  3

  4
mm
  5

  6

  7

 40
1.0
 41
0.12
 42
0.05
 43
0.5
 44
0.1
 45
0.0
 46
0.0
 47
0.1
 48
0.1
140
0.12
141
0.0
142
0.0
143
25.3999999999999986
144
1.0
145
0.0
146
0.71
147
0.06
 71
     0
 72
     0
 73
     1
 74
     1
 75
     0
 76
     0
 77
     0
 78
     7
170
     0
171
     2
172
     0
173
     0
174
     0
175
     0
176
   256
177
   256
178
     2
  0
DIMSTYLE
  2
AM_ANSI$SF
 70
     0
  3

  4
mm
  5

  6

  7

 40
1.0
 41
0.12
 42
0.05
 43
0.5
 44
0.1
 45
0.0
 46
0.0
 47
0.1
 48
0.1
140
0.12
141
0.0
142
0.0
143
25.3999999999999986
144
1.0
145
0.0
146
0.71
147
0.06
 71
     0
 72
     0
 73
     1
 74
     1
 75
     1
 76
     1
 77
     0
 78
     7
170
     0
171
     2
172
     0
173
     0
174
     0
175
     0
176
   256
177
   256
178
     2
  0
DIMSTYLE
  2
AM_ANSI$SH
 70
     0
  3

  4
mm
  5

  6
GENAXEH
  7

 40
1.0
 41
0.12
 42
0.05
 43
0.5
 44
0.1
 45
0.0
 46
0.0
 47
0.1
 48
0.1
140
0.12
141
0.0
142
0.0
143
25.3999999999999986
144
1.0
145
0.0
146
0.71
147
0.06
 71
     0
 72
     0
 73
     1
 74
     1
 75
     1
 76
     1
 77
     0
 78
     7
170
     0
171
     2
172
     0
173
     1
174
     0
175
     0
176
   256
177
   256
178
     2
  0
ENDTAB
  0
ENDSEC
  0
SECTION
  2
BLOCKS
  0
BLOCK
  8
0
  2
$MODEL_SPACE
 70
     0
 10
0.0
 20
0.0
 30
0.0
  3
$MODEL_SPACE
  1

  0
ENDBLK
  5
4A11
  8
0
  0
BLOCK
 67
     1
  8
0
  2
$PAPER_SPACE
 70
     0
 10
0.0
 20
0.0
 30
0.0
  3
$PAPER_SPACE
  1

  0
ENDBLK
  5
4A0D
 67
     1
  8
0
  0
BLOCK
  8
0
  2
_OPEN
 70
     0
 10
0.0
 20
0.0
 30
0.0
  3
_OPEN
  1

  0
LINE
  5
48A8
  8
0
  6
BYBLOCK
 62
     0
 10
-1.0
 20
0.1666666666666666
 30
0.0
 11
0.0
 21
0.0
 31
0.0
  0
LINE
  5
48A9
  8
0
  6
BYBLOCK
 62
     0
 10
-1.0
 20
-0.1666666666666666
 30
0.0
 11
0.0
 21
0.0
 31
0.0
  0
LINE
  5
48AA
  8
0
  6
BYBLOCK
 62
     0
 10
0.0
 20
0.0
 30
0.0
 11
-1.0
 21
0.0
 31
0.0
  0
ENDBLK
  5
48AB
  8
0
  0
BLOCK
  8
0
  2
GENAXEH
 70
     0
 10
0.0
 20
0.0
 30
0.0
  3
GENAXEH
  1

  0
LINE
  5
48E3
  8
0
 10
-1.0
 20
0.0
 30
0.0
 11
1.0
 21
0.0
 31
0.0
  0
ENDBLK
  5
48E4
  8
0
  0
BLOCK
  8
0
  2
*U5
 70
     1
 10
0.0
 20
0.0
 30
0.0
  3
*U5
  1

  0
TEXT
  5
4402
  8
250
 10
80.2543616866666696
 20
29.0941575499999985
 30
0.0
 40
2.799999999999998
  1
MGT6
  7
YOKO
  0
ENDBLK
  5
4403
  8
0
  0
BLOCK
  8
0
  2
_ACMFILLEDHALF
 70
     0
 10
0.0
 20
0.0
 30
0.0
  3
_ACMFILLEDHALF
  1

  0
TRACE
  5
4ADC
  8
240
 62
     0
 10
-0.8
 20
0.0
 30
0.0
 11
-1.0
 21
0.166666666
 31
0.0
 12
0.0
 22
0.0
 32
0.0
 13
0.0
 23
0.0
 33
0.0
  0
LINE
  5
4ADD
  8
240
 62
     0
 10
-1.0
 20
0.0
 30
0.0
 11
-0.8
 21
0.0
 31
0.0
  0
ENDBLK
  5
4ADB
  8
0
  0
ENDSEC
  0
SECTION
  2
ENTITIES
  0
LINE
  5
42BD
  8
245
  6
CENTER2
 10
-26.0000000000004583
 20
0.0
 30
0.0
 11
63.2728189778531274
 21
0.0
 31
0.0
1001
GENIUS_GENOREF_13
1005
4373
  0
LINE
  5
4307
  8
245
  6
CENTER2
 10
27.9999999999986713
 20
-5.0965760247224789
 30
0.0
 11
27.9999999999986713
 21
4.9034239752775193
 31
0.0
  0
LINE
  5
4342
  8
241
  6
CONTINUOUS
 10
34.7000000000039321
 20
-18.0000000000000107
 30
0.0
 11
34.7000000000039321
 21
17.99999999999946
 31
0.0
  0
LINE
  5
4343
  8
241
  6
CONTINUOUS
 10
36.3000000000024912
 20
-18.0000000000000107
 30
0.0
 11
36.3000000000024912
 21
17.9999999999995417
 31
0.0
  0
LINE
  5
4344
  8
241
  6
CONTINUOUS
 10
37.6999999999984965
 20
-18.0000000000000107
 30
0.0
 11
37.6999999999986102
 21
17.9999999999996092
 31
0.0
  0
LINE
  5
4345
  8
241
  6
CONTINUOUS
 10
39.300000000002477
 20
-18.0000000000000107
 30
0.0
 11
39.300000000002477
 21
17.9999999999996803
 31
0.0
  0
LINE
  5
434D
  8
241
  6
CONTINUOUS
 10
45.9999999999959996
 20
-18.0000000000000213
 30
0.0
 11
45.9999999999958504
 21
18.0
 31
0.0
  0
LINE
  5
434F
  8
241
  6
CONTINUOUS
 10
11.9999999999977494
 20
-18.0000000000016591
 30
0.0
 11
11.9999999999977494
 21
18.0000000000016591
 31
0.0
  0
LINE
  5
4352
  8
240
  6
CONTINUOUS
 10
10.4999999999914202
 20
-19.5000000000025615
 30
0.0
 11
11.9999999999995506
 21
-17.9999999999988987
 31
0.0
  0
LINE
  5
4353
  8
241
  6
CONTINUOUS
 10
10.4999999999941096
 20
19.5000000000023093
 30
0.0
 11
10.4999999999941096
 21
-19.4101797211286105
 31
0.0
  0
LINE
  5
4354
  8
240
  6
CONTINUOUS
 10
0.000000000003622
 20
-19.5000000000025615
 30
0.0
 11
10.4999999999914202
 21
-19.5000000000025615
 31
0.0
  0
LINE
  5
4356
  8
240
  6
CONTINUOUS
 10
0.000000000003622
 20
-19.5000000000025615
 30
0.0
 11
-0.0000000000010267
 21
-11.0
 31
0.0
  0
LINE
  5
4358
  8
240
  6
CONTINUOUS
 10
-0.0000000000004263
 20
19.5000000000028884
 30
0.0
 11
10.4999999999935305
 21
19.5000000000028884
 31
0.0
  0
LINE
  5
4359
  8
240
  6
CONTINUOUS
 10
10.4999999999935305
 20
19.5000000000028884
 30
0.0
 11
12.0000000000010605
 21
17.9999999999983515
 31
0.0
  0
LINE
  5
435D
  8
240
  6
CONTINUOUS
 10
-0.0000000000004263
 20
19.5000000000028884
 30
0.0
 11
-0.0000000000004263
 21
11.0
 31
0.0
  0
POINT
  5
4373
  8
0
 10
-17424.2371389302206808
 20
1321.1121550151110569
 30
0.0
1001
GENIUS_GENOBJ-N-CRS_13
1002
{
1000
OWNER
1000
GEN
1002
}
1001
GENIUS_GENOLIS_13
1002
{
1000
ENT
1005
0
1005
0
1005
0
1005
42BD
1002
}
1001
GENIUS_GENOENT_13
1002
{
1000
MYREF
1005
4373
1002
}
1002
{
1000
GRP
1005
0
1002
}
1001
GENIUS_GENODEF_13
1002
{
1000
HIER
1070
    10
1002
}
1002
{
1000
MANEDIT
1070
     1
1002
}
1002
{
1000
NOSEL
1070
     0
1002
}
1002
{
1000
BEHIND
1070
     0
1002
}
1002
{
1000
OTHER
1070
     0
1002
}
1002
{
1000
REACTOR
1002
}
  0
LINE
  5
43AE
  8
241
  6
CONTINUOUS
 10
54.0000000000021814
 20
-18.0
 30
0.0
 11
54.0000000000022382
 21
17.9999999999999396
 31
0.0
  0
LINE
  5
43B0
  8
240
  6
CONTINUOUS
 10
11.9999999999995506
 20
-17.9999999999988987
 30
0.0
 11
54.0000000000022169
 21
-18.0
 31
0.0
  0
LINE
  5
43B4
  8
240
  6
CONTINUOUS
 10
54.0000000000022169
 20
-18.0
 30
0.0
 11
61.9999999999963975
 21
-15.8564064605500992
 31
0.0
  0
LINE
  5
43D2
  8
240
  6
CONTINUOUS
 10
54.0000000000020322
 20
17.9999999999999893
 30
0.0
 11
61.9999999999980318
 21
15.8564064605496107
 31
0.0
  0
LINE
  5
43D3
  8
240
  6
CONTINUOUS
 10
61.9999999999963975
 20
-15.8564064605500992
 30
0.0
 11
61.9999999999980318
 21
15.8564064605496107
 31
0.0
  0
LINE
  5
43D6
  8
240
  6
CONTINUOUS
 10
12.0000000000010605
 20
17.9999999999983515
 30
0.0
 11
54.0000000000020322
 21
17.9999999999999893
 31
0.0
  0
TEXT
  5
43F3
  8
241
  6
CONTINUOUS
 10
-21.0
 20
49.0
 30
0.0
 40
5.0
  1
CKB4-MGT6-62
  7
YOKO
 11
-21.0
 21
49.0
 31
0.0
 73
     1
  0
LINE
  5
43F6
  8
250
  6
CONTINUOUS
 10
-13.6708370600004194
 20
-21.0782751099999999
 30
0.0
 11
-26.8708370600004294
 21
-21.0782751099999999
 31
0.0
1001
ITEMNAME
1000
LNSP2
  0
CIRCLE
  5
43F7
  8
241
  6
CONTINUOUS
 10
-10.0000000000004192
 20
0.0
 30
0.0
 40
4.046999999999997
  0
LINE
  5
43F8
  8
240
  6
CONTINUOUS
 10
-24.0000000000004299
 20
-11.0
 30
0.0
 11
-0.0000000000010267
 21
-11.0
 31
0.0
  0
LINE
  5
43F9
  8
240
  6
CONTINUOUS
 10
-24.0000000000004299
 20
11.0
 30
0.0
 11
-0.0000000000004263
 21
11.0
 31
0.0
  0
LINE
  5
43FA
  8
240
  6
CONTINUOUS
 10
-24.0000000000004299
 20
11.0
 30
0.0
 11
-24.0000000000004299
 21
0.0
 31
0.0
  0
LINE
  5
43FB
  8
240
  6
CONTINUOUS
 10
-24.0000000000004299
 20
-11.0
 30
0.0
 11
-24.0000000000004299
 21
0.0
 31
0.0
  0
CIRCLE
  5
43FC
  8
241
  6
CONTINUOUS
 10
-10.0000000000004192
 20
0.0
 30
0.0
 40
3.0
  0
LINE
  5
43FD
  8
245
  6
CENTER2
 10
-10.0000000000004192
 20
5.0469999999999979
 30
0.0
 11
-10.0000000000004192
 21
-5.0469999999999979
 31
0.0
  0
LINE
  5
43FE
  8
241
  6
CONTINUOUS
 10
-0.0000000000004263
 20
11.0
 30
0.0
 11
-0.0000000000004299
 21
-11.0
 31
0.0
  0
INSERT
  5
446B
  8
250
  6
CONTINUOUS
  2
*U5
 10
-13.00000000000278
 20
-0.0000000000002487
 30
0.0
  0
LINE
  5
446C
  8
250
  6
CONTINUOUS
 10
64.9876950199972185
 20
28.0941575499997498
 30
0.0
 11
80.4543616899972136
 21
28.0941575499997498
 31
0.0
1001
ITEMNAME
1000
LNSP2
  0
LINE
  5
446D
  8
250
  6
CONTINUOUS
 10
54.5000000000021814
 20
-18.0000000000002416
 30
0.0
 11
74.9999999999972147
 21
-18.0000000000002416
 31
0.0
  0
LINE
  5
446E
  8
250
  6
CONTINUOUS
 10
54.5000000000022311
 20
17.9999999999997513
 30
0.0
 11
74.9999999999972147
 21
17.9999999999997513
 31
0.0
  0
LINE
  5
446F
  8
250
  6
CONTINUOUS
 10
73.9999999999972147
 20
-15.77000000000025
 30
0.0
 11
73.9999999999972147
 21
15.7699999999997509
 31
0.0
  0
POLYLINE
  5
4470
  8
250
  6
CONTINUOUS
 66
     1
 10
0.0
 20
0.0
 30
0.0
1001
ACAD
1000
DSTYLE
1002
{
1070
     6
1000
OPEN
1070
    41
1040
2.0
1070
    42
1040
2.0
1070
    44
1040
2.0
1070
    79
1070
     2
1070
   140
1040
4.0
1070
   179
1070
     3
1070
   371
1070
    -1
1070
   372
1070
    -1
1002
}
  0
VERTEX
  5
4471
  8
250
  6
CONTINUOUS
 10
59.4685442490567695
 20
18.5347079881115704
 30
0.0
  0
VERTEX
  5
4472
  8
250
  6
CONTINUOUS
 10
64.9876950199972185
 20
28.0941575499997498
 30
0.0
  0
SEQEND
  5
4473
  8
250
  6
CONTINUOUS
  0
LINE
  5
4474
  8
250
  6
CONTINUOUS
 10
59.7572193837420969
 20
18.3680413216016412
 30
0.0
 11
58.4685442499972226
 21
16.8026571799997484
 31
0.0
  0
LINE
  5
4475
  8
250
  6
CONTINUOUS
 10
59.1798691143714706
 20
18.7013746546214996
 30
0.0
 11
58.4685442499972226
 21
16.8026571799997484
 31
0.0
  0
LINE
  5
4476
  8
250
  6
CONTINUOUS
 10
58.4685442499972226
 20
16.8026571799997484
 30
0.0
 11
59.4685442490567695
 21
18.5347079881115704
 31
0.0
  0
TEXT
  5
4477
  8
250
  6
CONTINUOUS
 10
72.9999999999972005
 20
-3.93333333333358
 30
0.0
 40
2.799999999999998
  1
\U+220536
 50
90.0
1001
ACAD
1000
MTEXTBEGIN
1070
    73
1070
     1
1070
    44
1040
1.0
1070
    74
1070
     0
1000
MTEXTEND
1000
MTEXTBEGIN
1070
    73
1070
     1
1070
    44
1040
1.0
1070
    74
1070
     0
1000
MTEXTEND
  0
LINE
  5
4478
  8
250
  6
CONTINUOUS
 10
73.6283333333305308
 20
15.7699999999997509
 30
0.0
 11
73.9999999999972147
 21
17.9999999999997513
 31
0.0
  0
LINE
  5
4479
  8
250
  6
CONTINUOUS
 10
74.3716666666638702
 20
15.7699999999997509
 30
0.0
 11
73.9999999999972147
 21
17.9999999999997513
 31
0.0
  0
LINE
  5
447A
  8
250
  6
CONTINUOUS
 10
73.9999999999972147
 20
17.9999999999997513
 30
0.0
 11
73.9999999999972147
 21
15.7699999999997509
 31
0.0
  0
LINE
  5
447B
  8
250
  6
CONTINUOUS
 10
74.3716666666638702
 20
-15.77000000000025
 30
0.0
 11
73.9999999999972147
 21
-18.0000000000002416
 31
0.0
  0
LINE
  5
447C
  8
250
  6
CONTINUOUS
 10
73.6283333333305308
 20
-15.77000000000025
 30
0.0
 11
73.9999999999972147
 21
-18.0000000000002416
 31
0.0
  0
LINE
  5
447D
  8
250
  6
CONTINUOUS
 10
73.9999999999972147
 20
-18.0000000000002416
 30
0.0
 11
73.9999999999972147
 21
-15.77000000000025
 31
0.0
  0
LINE
  5
447E
  8
243
  6
HIDDEN2
 10
13.4999999999972005
 20
7.9999999999997504
 30
0.0
 11
55.4999999999972076
 21
7.9999999999997504
 31
0.0
  0
LINE
  5
4480
  8
243
  6
HIDDEN2
 10
61.9999999999972218
 20
11.1999999999997506
 30
0.0
 11
55.4999999999972076
 21
11.1999999999997506
 31
0.0
  0
LINE
  5
4481
  8
243
  6
HIDDEN2
 10
13.4999999999972005
 20
-8.0000000000002487
 30
0.0
 11
55.4999999999972076
 21
-8.0000000000002487
 31
0.0
  0
LINE
  5
4482
  8
243
  6
HIDDEN2
 10
55.4999999999972076
 20
-11.2000000000002409
 30
0.0
 11
55.4999999999972076
 21
11.1999999999997506
 31
0.0
  0
LINE
  5
4483
  8
243
  6
HIDDEN2
 10
61.9999999999972218
 20
-11.2000000000002409
 30
0.0
 11
55.4999999999972076
 21
-11.2000000000002409
 31
0.0
  0
LINE
  5
44E0
  8
250
  6
CONTINUOUS
 10
-0.0000000000004263
 20
20.0000000000028884
 30
0.0
 11
-0.0000000000004253
 21
36.0941585499997473
 31
0.0
  0
LINE
  5
44E1
  8
250
  6
CONTINUOUS
 10
61.9999999999980318
 20
16.3564064605496107
 30
0.0
 11
61.9999999999980318
 21
36.0941585499997473
 31
0.0
  0
LINE
  5
44E2
  8
250
  6
CONTINUOUS
 10
2.2299999999995741
 20
35.0941585499997473
 30
0.0
 11
59.769999999998042
 21
35.0941585499997473
 31
0.0
  0
TEXT
  5
44E6
  8
250
  6
CONTINUOUS
 10
28.2666666666654685
 20
36.0941585499997473
 30
0.0
 40
2.799999999999998
  1
62
  0
LINE
  5
44E7
  8
250
  6
CONTINUOUS
 10
59.769999999998042
 20
35.4658252166664312
 30
0.0
 11
61.9999999999980318
 21
35.0941585499997473
 31
0.0
  0
LINE
  5
44E8
  8
250
  6
CONTINUOUS
 10
59.769999999998042
 20
34.7224918833330918
 30
0.0
 11
61.9999999999980318
 21
35.0941585499997473
 31
0.0
  0
LINE
  5
44E9
  8
250
  6
CONTINUOUS
 10
61.9999999999980318
 20
35.0941585499997473
 30
0.0
 11
59.769999999998042
 21
35.0941585499997473
 31
0.0
  0
LINE
  5
44EA
  8
250
  6
CONTINUOUS
 10
2.2299999999995741
 20
34.7224918833330918
 30
0.0
 11
-0.0000000000004254
 21
35.0941585499997473
 31
0.0
  0
LINE
  5
44EB
  8
250
  6
CONTINUOUS
 10
2.2299999999995741
 20
35.4658252166664312
 30
0.0
 11
-0.0000000000004254
 21
35.0941585499997473
 31
0.0
  0
LINE
  5
44EC
  8
250
  6
CONTINUOUS
 10
-0.0000000000004254
 20
35.0941585499997473
 30
0.0
 11
2.2299999999995741
 21
35.0941585499997473
 31
0.0
  0
LINE
  5
4517
  8
250
  6
CONTINUOUS
 10
-8.9671422103272977
 20
-12.9312366502505807
 30
0.0
 11
-13.6708370600004194
 21
-21.0782751099999999
 31
0.0
1001
ACAD
1000
DSTYLE
1002
{
1070
     6
1000
OPEN
1070
   343
1005
594
1002
}
  0
TEXT
  5
4518
  8
250
  6
CONTINUOUS
 10
-24.4708370600004308
 20
-20.0782751099999999
 30
0.0
 40
2.799999999999998
  1
CK4
  7
YOKO
1001
ITEMNAME
1000
LNSP3
  0
LINE
  5
4519
  8
250
  6
CONTINUOUS
 10
-9.2890149853690591
 20
-12.7454033168627596
 30
0.0
 11
-7.8521422100004248
 21
-11.0
 31
0.0
  0
LINE
  5
451A
  8
250
  6
CONTINUOUS
 10
-8.6452694352855346
 20
-13.1170699836383804
 30
0.0
 11
-7.8521422100004248
 21
-11.0
 31
0.0
  0
LINE
  5
451B
  8
250
  6
CONTINUOUS
 10
-7.8521422100004248
 20
-11.0
 30
0.0
 11
-8.9671422103272977
 21
-12.9312366502505807
 31
0.0
  0
LINE
  5
47FC
  8
247
  6
CONTINUOUS
 10
5.4999999999995151
 20
-13.75
 30
0.0
 11
5.499999999999571
 21
-9.1153846156699974
 31
0.0
  0
LINE
  5
47FD
  8
247
  6
CONTINUOUS
 10
2.999999999999571
 20
-12.9548934999879197
 30
0.0
 11
5.0999999999155801
 21
-13.5570588100573506
 31
0.0
  0
LINE
  5
47FE
  8
247
  6
CONTINUOUS
 10
3.9961538461135682
 20
-12.3251514035190404
 30
0.0
 11
3.9961538461135682
 21
-13.2405360188670294
 31
0.0
  0
ARC
  5
47FF
  8
247
  6
CONTINUOUS
 10
3.3847190672936711
 20
-12.0872634019467498
 30
0.0
 40
0.3876715809326743
 50
72.9978896752930098
 51
172.9241662185135056
  0
ARC
  5
4800
  8
247
  6
CONTINUOUS
 10
3.305223131027585
 20
-12.3824775568040693
 30
0.0
 40
0.6933047965358767
 50
4.7429368522022122
 51
73.8492262732667513
1001
GENIUS_GENOBJ-N-FIL_13
1002
{
1000
OWNER
1000
GEN
1002
}
1001
GENIUS_GENODEF_13
1002
{
1000
HIER
1070
     0
1002
}
1002
{
1000
MANEDIT
1070
     0
1002
}
1002
{
1000
NOSEL
1070
     0
1002
}
1002
{
1000
BEHIND
1070
     0
1002
}
1002
{
1000
OTHER
1070
     0
1002
}
1002
{
1000
REACTOR
1002
}
  0
LINE
  5
4801
  8
247
  6
CONTINUOUS
 10
5.0999999999155801
 20
-12.6416741947093598
 30
0.0
 11
5.0999999999155801
 21
-13.5570588100573506
 31
0.0
  0
LINE
  5
4802
  8
247
  6
CONTINUOUS
 10
2.999999999999571
 20
-12.9548934999879197
 30
0.0
 11
2.999999999999571
 21
-12.0395088846399307
 31
0.0
  0
ARC
  5
4803
  8
247
  6
CONTINUOUS
 10
4.3874169627674444
 20
-12.3783064762668005
 30
0.0
 40
0.394857301075386
 50
65.990941652528889
 51
172.2634434590690944
  0
ARC
  5
4804
  8
247
  6
CONTINUOUS
 10
4.3912003273321396
 20
-12.7124466104269196
 30
0.0
 40
0.7123241612361686
 50
5.701985164256504
 51
77.2773384368220064
1001
GENIUS_GENOBJ-N-FIL_13
1002
{
1000
OWNER
1000
GEN
1002
}
1001
GENIUS_GENODEF_13
1002
{
1000
HIER
1070
     0
1002
}
1002
{
1000
MANEDIT
1070
     0
1002
}
1002
{
1000
NOSEL
1070
     0
1002
}
1002
{
1000
BEHIND
1070
     0
1002
}
1002
{
1000
OTHER
1070
     0
1002
}
1002
{
1000
REACTOR
1002
}
  0
LINE
  5
4805
  8
247
  6
CONTINUOUS
 10
5.0999999999155801
 20
-11.6839818870633394
 30
0.0
 11
2.999999999999571
 21
-11.0818165769939601
 31
0.0
  0
LINE
  5
4806
  8
247
  6
CONTINUOUS
 10
2.999999999999571
 20
-9.5856627309079272
 30
0.0
 11
2.999999999999571
 21
-9.9816783643035496
 31
0.0
  0
LINE
  5
4807
  8
247
  6
CONTINUOUS
 10
5.0999999999155801
 20
-10.60873965394393
 30
0.0
 11
5.0999999999155801
 21
-10.1779704231919297
 31
0.0
  0
ARC
  5
4808
  8
247
  6
CONTINUOUS
 10
4.4582995950829307
 20
-9.3818165770699125
 30
0.0
 40
1.576855057639547
 50
202.3594881415293116
 51
254.9932485428469136
  0
ARC
  5
4809
  8
247
  6
CONTINUOUS
 10
3.5658188585377082
 20
-9.8475113661331761
 30
0.0
 40
0.6234706797009447
 50
94.9945893190753168
 51
155.1663289573041027
1001
GENIUS_GENOBJ-N-FIL_13
1002
{
1000
OWNER
1000
GEN
1002
}
1001
GENIUS_GENODEF_13
1002
{
1000
HIER
1070
     0
1002
}
1002
{
1000
MANEDIT
1070
     0
1002
}
1002
{
1000
NOSEL
1070
     0
1002
}
1002
{
1000
BEHIND
1070
     0
1002
}
1002
{
1000
OTHER
1070
     0
1002
}
1002
{
1000
REACTOR
1002
}
  0
ARC
  5
480A
  8
247
  6
CONTINUOUS
 10
4.1621021219690091
 20
-10.4441839510327501
 30
0.0
 40
0.9749472149106982
 50
15.8460965557806794
 51
82.325137004169278
  0
ARC
  5
480B
  8
247
  6
CONTINUOUS
 10
4.3714704019706367
 20
-10.0352116387721804
 30
0.0
 40
0.9271945638692008
 50
249.7136016704968995
 51
321.7887456564109243
1001
GENIUS_GENOBJ-N-FIL_13
1002
{
1000
OWNER
1000
GEN
1002
}
1001
GENIUS_GENODEF_13
1002
{
1000
HIER
1070
     0
1002
}
1002
{
1000
MANEDIT
1070
     0
1002
}
1002
{
1000
NOSEL
1070
     0
1002
}
1002
{
1000
BEHIND
1070
     0
1002
}
1002
{
1000
OTHER
1070
     0
1002
}
1002
{
1000
REACTOR
1002
}
  0
LINE
  5
480C
  8
247
  6
CONTINUOUS
 10
4.2923076922555454
 20
-9.9625858078159126
 30
0.0
 11
4.2923076922555454
 21
-9.4779704232199702
 31
0.0
  0
ARC
  5
480D
  8
247
  6
CONTINUOUS
 10
4.249999999999571
 20
-13.75
 30
0.0
 40
1.25
 50
180.0
 51
0.0
  0
LINE
  5
480E
  8
247
  6
CONTINUOUS
 10
2.999999999999571
 20
-13.75
 30
0.0
 11
2.999999999999571
 21
-13.3038461539139803
 31
0.0
  0
ARC
  5
480F
  8
247
  6
CONTINUOUS
 10
4.249999999999571
 20
-9.1153846156699974
 30
0.0
 40
1.25
 50
0.0
 51
180.0
  0
VIEWPORT
  5
22
 67
     1
  8
0
 10
261.517699115044195
 20
148.5
 30
0.0
 40
523.0353982300885036
 41
297.0
 68
     1
 69
     1
1001
ACAD
1000
MVIEW
1002
{
1070
    16
1010
0.0
1020
0.0
1030
0.0
1010
0.0
1020
0.0
1030
1.0
1040
0.0
1040
297.0
1040
261.517699115044195
1040
148.5
1040
50.0
1040
0.0
1040
0.0
1070
     0
1070
   100
1070
     1
1070
     1
1070
     0
1070
     0
1070
     0
1070
     0
1040
0.0
1040
0.0
1040
0.0
1040
1.0
1040
1.0
1040
10.0
1040
10.0
1070
     0
1002
{
1002
}
1002
}
1001
GENIUS_GENODEF_13
1002
{
1000
HIER
1070
     0
1002
}
1002
{
1000
MANEDIT
1070
     0
1002
}
1002
{
1000
NOSEL
1070
     0
1002
}
1002
{
1000
BEHIND
1070
     0
1002
}
1002
{
1000
OTHER
1070
     0
1002
}
1002
{
1000
REACTOR
1002
}
1001
GENIUS_GENOBJ-N-SDF_13
1002
{
1000
OWNER
1000
GEN
1002
}
1001
GENIUS_GENSCREG_15
1000
PF
1040
1.0
1000
DF
1040
1.0
1000
MIN
1011
0.0
1021
0.0
1031
0.0
1021
0.0
1031
0.0
1000
MAX
1011
523.0353982300885036
1021
0.0
1031
0.0
1021
297.0
1031
0.0
1000
FLAGS
1070
     4
  0
ENDSEC
  0
EOF
