  0
SECTION
  2
HEADER
  9
$ACADVER
  1
AC1009
  9
$INSBASE
 10
0.0
 20
0.0
 30
0.0
  9
$EXTMIN
 10
-34.692442006654261
 20
-21.017801440184989
 30
0.0
  9
$EXTMAX
 10
210.27334182522
 20
54.0
 30
0.0
  9
$LIMMIN
 10
0.0
 20
0.0
  9
$LIMMAX
 10
297.0
 20
210.0
  9
$ORTHOMODE
 70
     0
  9
$REGENMODE
 70
     1
  9
$FILLMODE
 70
     1
  9
$QTEXTMODE
 70
     0
  9
$MIRRTEXT
 70
     1
  9
$DRAGMODE
 70
     2
  9
$LTSCALE
 40
10.0
  9
$OSMODE
 70
    39
  9
$ATTMODE
 70
     1
  9
$TEXTSIZE
 40
3.0
  9
$TRACEWID
 40
1.0
  9
$TEXTSTYLE
  7
YOKO
  9
$CLAYER
  8
240
  9
$CELTYPE
  6
BYLAYER
  9
$CECOLOR
 62
   256
  9
$DIMSCALE
 40
1.0
  9
$DIMASZ
 40
2.2299999999999991
  9
$DIMEXO
 40
0.5
  9
$DIMDLI
 40
7.0
  9
$DIMRND
 40
0.0
  9
$DIMDLE
 40
0.0
  9
$DIMEXE
 40
1.0
  9
$DIMTP
 40
0.0
  9
$DIMTM
 40
0.01
  9
$DIMTXT
 40
2.7999999999999989
  9
$DIMCEN
 40
0.0
  9
$DIMTSZ
 40
0.0
  9
$DIMTOL
 70
     0
  9
$DIMLIM
 70
     0
  9
$DIMTIH
 70
     0
  9
$DIMTOH
 70
     0
  9
$DIMSE1
 70
     0
  9
$DIMSE2
 70
     0
  9
$DIMTAD
 70
     3
  9
$DIMZIN
 70
     9
  9
$DIMBLK
  1
OPEN
  9
$DIMASO
 70
     1
  9
$DIMSHO
 70
     1
  9
$DIMPOST
  1

  9
$DIMAPOST
  1

  9
$DIMALT
 70
     0
  9
$DIMALTD
 70
     2
  9
$DIMALTF
 40
25.399999999999999
  9
$DIMLFAC
 40
1.0
  9
$DIMTOFL
 70
     1
  9
$DIMTVP
 40
0.0
  9
$DIMTIX
 70
     1
  9
$DIMSOXD
 70
     0
  9
$DIMSAH
 70
     0
  9
$DIMBLK1
  1

  9
$DIMBLK2
  1

  9
$DIMSTYLE
  2
BIGT
  9
$DIMCLRD
 70
   256
  9
$DIMCLRE
 70
   256
  9
$DIMCLRT
 70
    40
  9
$DIMTFAC
 40
1.0
  9
$DIMGAP
 40
1.0
  9
$LUNITS
 70
     2
  9
$LUPREC
 70
     6
  9
$SKETCHINC
 40
1.0
  9
$FILLETRAD
 40
0.0
  9
$AUNITS
 70
     0
  9
$AUPREC
 70
     6
  9
$MENU
  1
.
  9
$ELEVATION
 40
0.0
  9
$PELEVATION
 40
0.0
  9
$THICKNESS
 40
0.0
  9
$LIMCHECK
 70
     0
  9
$BLIPMODE
 70
     0
  9
$CHAMFERA
 40
0.2
  9
$CHAMFERB
 40
0.2
  9
$SKPOLY
 70
     0
  9
$TDCREATE
 40
2457820.5852902778
  9
$TDUPDATE
 40
2457821.4721082989
  9
$TDINDWG
 40
0.0559597801
  9
$TDUSRTIMER
 40
0.0559597569
  9
$USRTIMER
 70
     1
  9
$ANGBASE
 50
0.0
  9
$ANGDIR
 70
     0
  9
$PDMODE
 70
     1
  9
$PDSIZE
 40
0.0
  9
$PLINEWID
 40
0.0
  9
$COORDS
 70
     1
  9
$SPLFRAME
 70
     0
  9
$SPLINETYPE
 70
     6
  9
$SPLINESEGS
 70
     4
  9
$ATTDIA
 70
     1
  9
$ATTREQ
 70
     1
  9
$HANDLING
 70
     1
  9
$HANDSEED
  5
4659
  9
$SURFTAB1
 70
     6
  9
$SURFTAB2
 70
     6
  9
$SURFTYPE
 70
     6
  9
$SURFU
 70
     6
  9
$SURFV
 70
     6
  9
$UCSNAME
  2

  9
$UCSORG
 10
0.0
 20
0.0
 30
0.0
  9
$UCSXDIR
 10
1.0
 20
0.0
 30
0.0
  9
$UCSYDIR
 10
0.0
 20
1.0
 30
0.0
  9
$PUCSNAME
  2

  9
$PUCSORG
 10
0.0
 20
0.0
 30
0.0
  9
$PUCSXDIR
 10
1.0
 20
0.0
 30
0.0
  9
$PUCSYDIR
 10
0.0
 20
1.0
 30
0.0
  9
$USERI1
 70
     1
  9
$USERI2
 70
     0
  9
$USERI3
 70
     0
  9
$USERI4
 70
     0
  9
$USERI5
 70
     0
  9
$USERR1
 40
0.0
  9
$USERR2
 40
0.0
  9
$USERR3
 40
0.0
  9
$USERR4
 40
0.0
  9
$USERR5
 40
0.0
  9
$WORLDVIEW
 70
     1
  9
$SHADEDGE
 70
     3
  9
$SHADEDIF
 70
    70
  9
$TILEMODE
 70
     1
  9
$MAXACTVP
 70
    16
  9
$PLIMCHECK
 70
     0
  9
$PEXTMIN
 10
1.0000000000000000E+020
 20
1.0000000000000000E+020
 30
1.0000000000000000E+020
  9
$PEXTMAX
 10
-1.0000000000000000E+020
 20
-1.0000000000000000E+020
 30
-1.0000000000000000E+020
  9
$PLIMMIN
 10
0.0
 20
0.0
  9
$PLIMMAX
 10
420.0
 20
297.0
  9
$UNITMODE
 70
     0
  9
$VISRETAIN
 70
     1
  9
$PLINEGEN
 70
     0
  9
$PSLTSCALE
 70
     1
  0
ENDSEC
  0
SECTION
  2
TABLES
  0
TABLE
  2
VPORT
 70
     1
  0
VPORT
  2
*ACTIVE
 70
     0
 10
0.0
 20
0.0
 11
1.0
 21
1.0
 12
85.21300139093529
 22
9.2959360043261352
 13
0.0
 23
0.0
 14
7.0
 24
7.0
 15
7.0
 25
7.0
 16
0.0
 26
0.0
 36
1.0
 17
0.0
 27
0.0
 37
0.0
 40
170.87406090157009
 41
1.506104328523862
 42
50.0
 43
0.0
 44
0.0
 50
0.0
 51
0.0
 71
     0
 72
  2000
 73
     1
 74
     0
 75
     0
 76
     1
 77
     0
 78
     0
  0
ENDTAB
  0
TABLE
  2
LTYPE
 70
    21
  0
LTYPE
  2
CONTINUOUS
 70
     0
  3
Solid line
 72
    65
 73
     0
 40
0.0
  0
LTYPE
  2
CENTER2
 70
     0
  3
___ _ ___ _ ___ _ ___ _ ___ _ ___ _ ___ _ ___ _
 72
    65
 73
     4
 40
1.125
 49
0.75
 49
-0.125
 49
0.125
 49
-0.125
  0
LTYPE
  2
PHANTOM2
 70
     0
  3
___ _ _ ___ _ _ ___ _ _ ___ _ _ ___ _ _ ___ _ _
 72
    65
 73
     6
 40
1.25
 49
0.625
 49
-0.125
 49
0.125
 49
-0.125
 49
0.125
 49
-0.125
  0
LTYPE
  2
AM_ISO02W050
 70
     0
  3
__ __ __ __ __ __ __ __ __ __ __ __ __ __ __
 72
    65
 73
     2
 40
7.5
 49
6.0
 49
-1.5
  0
LTYPE
  2
AMCONSTR
 70
     0
  3
_______________________
 72
    65
 73
     2
 40
9999.0
 49
9999.0
 49
0.0
  0
LTYPE
  2
ACISOWELD
 70
     0
  3
_ _ _ _ _
 72
    65
 73
     2
 40
2.0
 49
2.0
 49
-1.0
  0
LTYPE
  2
ACISOTGB
 70
     0
  3
__ . . __ . .
 72
    65
 73
     6
 40
9.0
 49
4.0
 49
-1.0
 49
1.0
 49
-1.0
 49
1.0
 49
-1.0
  0
LTYPE
  2
ACISOTGL
 70
     0
  3
_ _ _ _ _
 72
    65
 73
     2
 40
3.0
 49
2.0
 49
-1.0
  0
LTYPE
  2
AM_ISO08W050
 70
     0
  3
____ . ____ . ____ . ____ . ____ . ____ . ____
 72
    65
 73
     4
 40
18.0
 49
12.0
 49
-1.5
 49
3.0
 49
-1.5
  0
LTYPE
  2
AM_ISO09W050
 70
     0
  3
_____ . . _____ . . _____ . . ____ .. ____
 72
    65
 73
     6
 40
22.5
 49
12.0
 49
-1.5
 49
3.0
 49
-1.5
 49
3.0
 49
-1.5
  0
LTYPE
  2
AM_ISO08W050X2
 70
     0
  3
__ . __ . __ . __ . __ . __
 72
    65
 73
     4
 40
9.0
 49
6.0
 49
-0.75
 49
1.5
 49
-0.75
  0
LTYPE
  2
AM_ISO02W050X2
 70
     0
  3
 _ _ _ _ _ _ _ _ _ _ _ _
 72
    65
 73
     2
 40
3.75
 49
3.0
 49
-0.75
  0
LTYPE
  2
AMZIGZAG
 70
     0
  3
/\/-/\/-/\/-/\/-/\/-/\/
 72
    65
 73
     2
 40
11.0001
 49
0.0001
 49
-11.0
  0
ENDTAB
  0
TABLE
  2
LAYER
 70
     9
  0
LAYER
  2
0
 70
     0
 62
     7
  6
CONTINUOUS
  0
LAYER
  2
DEFPOINTS
 70
     0
 62
     7
  6
CONTINUOUS
  0
LAYER
  2
245
 70
     0
 62
     2
  6
CENTER2
  0
LAYER
  2
240
 70
     0
 62
     4
  6
CONTINUOUS
  0
LAYER
  2
241
 70
     0
 62
   211
  6
CONTINUOUS
  0
LAYER
  2
242
 70
     0
 62
     3
  6
CONTINUOUS
  0
LAYER
  2
246
 70
     0
 62
     3
  6
PHANTOM2
  0
LAYER
  2
247
 70
     0
 62
    60
  6
CONTINUOUS
  0
LAYER
  2
250
 70
     0
 62
     3
  6
CONTINUOUS
  0
ENDTAB
  0
TABLE
  2
STYLE
 70
     8
  0
STYLE
  2
STANDARD
 70
     0
 40
0.0
 41
1.0
 50
0.0
 71
     0
 42
3.0
  3
romans.shx
  4
extfont.shx
  0
STYLE
  2
ACISOGDT
 70
     0
 40
0.0
 41
1.0
 50
0.0
 71
     0
 42
3.0
  3
amgdt.shx
  4
extfont.shx
  0
STYLE
  2
YOKO
 70
     0
 40
0.0
 41
1.0
 50
0.0
 71
     0
 42
3.0
  3
romans.shx
  4
extfont.shx
  0
STYLE
  2

 70
     1
 40
0.0
 41
1.0
 50
0.0
 71
     0
 42
3.0
  3
genltshp.shx
  4

  0
ENDTAB
  0
TABLE
  2
VIEW
 70
     0
  0
ENDTAB
  0
TABLE
  2
UCS
 70
     0
  0
ENDTAB
  0
TABLE
  2
APPID
 70
    40
  0
APPID
  2
ACAD
 70
     0
  0
APPID
  2
GLOBAL
 70
     0
  0
APPID
  2
DETAIL
 70
     0
  0
APPID
  2
GRPNAME
 70
     0
  0
APPID
  2
GPARA
 70
     0
  0
APPID
  2
MCAD_NO_VIS
 70
     0
  0
APPID
  2
ACAD_TEMP_GRAPHIC
 70
     0
  0
APPID
  2
ACATTRIBSERVICES
 70
     0
  0
APPID
  2
GENIUS_GENSCREG_15
 70
     0
  0
APPID
  2
GENIUS_GENODEF_13
 70
     0
  0
APPID
  2
GENIUS_GENOBJ-N-SDF_13
 70
     0
  0
APPID
  2
GENIUS_GENREC_14
 70
     0
  0
APPID
  2
GENIUS_GENOBJ-N-REC_13
 70
     0
  0
APPID
  2
GENIUS_GENDIMSH_14
 70
     0
  0
APPID
  2
GENIUS_GENOBJ-N-DIM_13
 70
     0
  0
APPID
  2
GENIUS_GENDIM_13
 70
     0
  0
APPID
  2
GENIUS_GENDTOL_13
 70
     0
  0
APPID
  2
GENIUS_GENOLIS_13
 70
     0
  0
APPID
  2
GENIUS_GENOENT_13
 70
     0
  0
APPID
  2
GENIUS_GENOBJ-F-FEM_13
 70
     0
  0
APPID
  2
GENIUS_GENOREF_13
 70
     0
  0
APPID
  2
GENIUS_GEFFEM_13
 70
     0
  0
APPID
  2
GENIUS_GEFFEMP_13
 70
     0
  0
APPID
  2
AD_DRAW
 70
     0
  0
APPID
  2
DESIGNERASSEMBLIES
 70
     0
  0
APPID
  2
ACADM_DIM_EDIT
 70
     0
  0
APPID
  2
AMDT_DM_ADJ
 70
     0
  0
APPID
  2
ITEMNAME
 70
     0
  0
APPID
  2
GENIUS_GENOBJ-N-FIL_13
 70
     0
  0
APPID
  2
GENIUS_GENFIL_13
 70
     0
  0
APPID
  2
GENIUS_GENOBJ-N-CHA_13
 70
     0
  0
APPID
  2
ACAECLAYERSTANDARD
 70
     0
  0
APPID
  2
ACAD_NAV_VCDISPLAY
 70
     0
  0
APPID
  2
ACAD_DSTYLE_DIMJAG
 70
     0
  0
APPID
  2
ACAD_DSTYLE_DIMBREAK
 70
     0
  0
APPID
  2
ACAD_MLEADERVER
 70
     0
  0
APPID
  2
ACAD_DSTYLE_DIMARC_LENGTH_
 70
     0
  0
APPID
  2
ACAD_DSTYLE_DIM_LINETYPE
 70
     0
  0
APPID
  2
ACAD_DSTYLE_DIM_EXT1_LINETYPE
 70
     0
  0
APPID
  2
ACAD_DSTYLE_DIM_EXT2_LINETYPE
 70
     0
  0
ENDTAB
  0
TABLE
  2
DIMSTYLE
 70
    29
  0
DIMSTYLE
  2
BIGT
 70
     0
  3

  4

  5
OPEN
  6

  7

 40
1.0
 41
2.2299999999999991
 42
0.5
 43
7.0
 44
1.0
 45
0.0
 46
0.0
 47
0.0
 48
0.01
140
2.7999999999999989
141
0.0
142
0.0
143
25.399999999999999
144
1.0
145
0.0
146
1.0
147
1.0
 71
     0
 72
     0
 73
     0
 74
     0
 75
     0
 76
     0
 77
     3
 78
     9
170
     0
171
     2
172
     1
173
     0
174
     1
175
     0
176
   256
177
   256
178
    40
  0
DIMSTYLE
  2
AM_ISO
 70
     0
  3

  4
"
  5

  6

  7

 40
1.0
 41
2.5
 42
1.0
 43
10.0
 44
1.0
 45
0.0
 46
0.0
 47
0.1
 48
0.1
140
3.5
141
0.0
142
0.0
143
0.0393701
144
1.0
145
0.0
146
0.71
147
1.5
 71
     0
 72
     0
 73
     0
 74
     0
 75
     0
 76
     0
 77
     1
 78
     8
170
     0
171
     2
172
     1
173
     0
174
     0
175
     0
176
   256
177
   256
178
     2
  0
DIMSTYLE
  2
AM_ISO$3
 70
     0
  3

  4
"
  5

  6

  7

 40
1.0
 41
2.5
 42
1.0
 43
10.0
 44
1.0
 45
0.0
 46
0.0
 47
0.1
 48
0.1
140
3.5
141
0.0
142
0.0
143
0.0393701
144
1.0
145
0.0
146
0.71
147
1.5
 71
     0
 72
     0
 73
     0
 74
     1
 75
     0
 76
     0
 77
     1
 78
     8
170
     0
171
     2
172
     0
173
     0
174
     0
175
     0
176
   256
177
   256
178
     2
  0
DIMSTYLE
  2
AM_ISO$4
 70
     0
  3

  4
"
  5

  6

  7

 40
1.0
 41
2.5
 42
1.0
 43
10.0
 44
1.0
 45
0.0
 46
0.0
 47
0.1
 48
0.1
140
3.5
141
0.0
142
0.0
143
0.0393701
144
1.0
145
0.0
146
0.71
147
1.5
 71
     0
 72
     0
 73
     0
 74
     1
 75
     0
 76
     0
 77
     1
 78
     8
170
     0
171
     2
172
     0
173
     0
174
     0
175
     0
176
   256
177
   256
178
     2
  0
DIMSTYLE
  2
AM_ISO$6
 70
     0
  3

  4
"
  5

  6

  7

 40
1.0
 41
2.5
 42
1.0
 43
10.0
 44
1.0
 45
0.0
 46
0.0
 47
0.1
 48
0.1
140
3.5
141
0.0
142
0.0
143
0.0393701
144
1.0
145
0.0
146
0.71
147
1.5
 71
     0
 72
     0
 73
     0
 74
     0
 75
     0
 76
     0
 77
     0
 78
     8
170
     0
171
     2
172
     1
173
     0
174
     0
175
     0
176
   256
177
   256
178
     2
  0
DIMSTYLE
  2
AM_ISO$7
 70
     0
  3

  4
"
  5

  6

  7

 40
1.0
 41
2.5
 42
1.0
 43
10.0
 44
1.0
 45
0.0
 46
0.0
 47
0.1
 48
0.1
140
5.0
141
0.0
142
0.0
143
0.0393701
144
1.0
145
0.0
146
0.71
147
1.5
 71
     0
 72
     0
 73
     0
 74
     0
 75
     0
 76
     0
 77
     1
 78
     8
170
     0
171
     2
172
     1
173
     0
174
     0
175
     0
176
   256
177
   256
178
     2
  0
DIMSTYLE
  2
AM_ISO$SF
 70
     0
  3

  4
"
  5

  6

  7

 40
1.0
 41
2.5
 42
1.0
 43
10.0
 44
1.0
 45
0.0
 46
0.0
 47
0.1
 48
0.1
140
3.5
141
0.0
142
0.0
143
0.0393701
144
1.0
145
0.0
146
0.71
147
1.5
 71
     0
 72
     0
 73
     0
 74
     0
 75
     1
 76
     1
 77
     1
 78
     8
170
     0
171
     2
172
     1
173
     0
174
     0
175
     0
176
   256
177
   256
178
     2
  0
DIMSTYLE
  2
AM_ISO$SH
 70
     0
  3

  4
"
  5

  6
GENAXEH
  7

 40
1.0
 41
2.5
 42
1.0
 43
10.0
 44
1.0
 45
0.0
 46
0.0
 47
0.1
 48
0.1
140
3.5
141
0.0
142
0.0
143
0.0393701
144
2.0
145
0.0
146
0.71
147
1.5
 71
     0
 72
     0
 73
     0
 74
     0
 75
     1
 76
     1
 77
     1
 78
     8
170
     0
171
     2
172
     1
173
     1
174
     0
175
     0
176
   256
177
   256
178
     2
  0
ENDTAB
  0
ENDSEC
  0
SECTION
  2
BLOCKS
  0
BLOCK
  8
0
  2
$MODEL_SPACE
 70
     0
 10
0.0
 20
0.0
 30
0.0
  3
$MODEL_SPACE
  1

  0
ENDBLK
  5
1C
  8
0
  0
BLOCK
 67
     1
  8
0
  2
$PAPER_SPACE
 70
     0
 10
0.0
 20
0.0
 30
0.0
  3
$PAPER_SPACE
  1

  0
ENDBLK
  5
19
 67
     1
  8
0
  0
BLOCK
  8
0
  2
_OPEN
 70
     0
 10
0.0
 20
0.0
 30
0.0
  3
_OPEN
  1

  0
LINE
  5
3E1A
  8
0
  6
BYBLOCK
 62
     0
 10
-1.0
 20
0.1666666666666666
 30
0.0
 11
0.0
 21
0.0
 31
0.0
  0
LINE
  5
3E1B
  8
0
  6
BYBLOCK
 62
     0
 10
-1.0
 20
-0.1666666666666666
 30
0.0
 11
0.0
 21
0.0
 31
0.0
  0
LINE
  5
3E1C
  8
0
  6
BYBLOCK
 62
     0
 10
0.0
 20
0.0
 30
0.0
 11
-1.0
 21
0.0
 31
0.0
  0
ENDBLK
  5
3E1D
  8
0
  0
BLOCK
  8
0
  2
GENAXEH
 70
     0
 10
0.0
 20
0.0
 30
0.0
  3
GENAXEH
  1

  0
LINE
  5
3E45
  8
0
 10
-1.0
 20
0.0
 30
0.0
 11
1.0
 21
0.0
 31
0.0
  0
ENDBLK
  5
3E46
  8
0
  0
BLOCK
  8
0
  2
*U4
 70
     1
 10
0.0
 20
0.0
 30
0.0
  3
*U4
  1

  0
TEXT
  5
4222
  8
250
 10
88.300000000000026
 20
36.0
 30
0.0
 40
2.799999999999998
  1
185
  0
ENDBLK
  5
4223
  8
0
  0
ENDSEC
  0
SECTION
  2
ENTITIES
  0
TEXT
  5
439D
  8
241
  6
CONTINUOUS
 10
-27.24999475479126
 20
49.0
 30
0.0
 40
5.0
  1
CKB4-EWN41DP-185
  7
YOKO
 11
-27.24999475479126
 21
49.0
 31
0.0
 73
     1
  0
LINE
  5
439E
  8
250
  6
CONTINUOUS
 10
-20.549584863797119
 20
-21.017801440184989
 30
0.0
 11
-34.692442006654261
 21
-21.017801440184989
 31
0.0
1001
ITEMNAME
1000
LNSP2
  0
LINE
  5
439F
  8
250
  6
CONTINUOUS
 10
187.70191325379139
 20
36.309285309416232
 30
0.0
 11
210.27334182522
 21
36.309285309416232
 31
0.0
1001
ITEMNAME
1000
LNSP2
  0
TEXT
  5
43A0
  8
250
  6
CONTINUOUS
 10
190.13048468236281
 20
37.309285309416232
 30
0.0
 40
3.0
  1
ENH4-1
  7
YOKO
1001
ITEMNAME
1000
LNSP3
1001
ACAD
1000
MTEXTBEGIN
1070
    73
1070
     1
1070
    44
1040
1.0
1070
    74
1070
     0
1000
MTEXTEND
  0
LINE
  5
43A1
  8
250
  6
CONTINUOUS
 10
184.9184038001041
 20
26.999999609675339
 30
0.0
 11
195.0
 21
26.999999609675339
 31
0.0
  0
LINE
  5
43A2
  8
250
  6
CONTINUOUS
 10
193.99999999999989
 20
24.769999609675349
 30
0.0
 11
193.99999999999989
 21
-12.71428571428571
 31
0.0
  0
TEXT
  5
43A3
  8
250
  6
CONTINUOUS
 10
-32.121013435225692
 20
-20.017801440184989
 30
0.0
 40
3.0
  1
CK4
  7
YOKO
1001
ITEMNAME
1000
LNSP3
1001
ACAD
1000
MTEXTBEGIN
1070
    73
1070
     1
1070
    44
1040
1.0
1070
    74
1070
     0
1000
MTEXTEND
  0
LINE
  5
43A4
  8
250
  6
CONTINUOUS
 10
-15.88080450561807
 20
-12.93123665043929
 30
0.0
 11
-20.549584863797119
 21
-21.017801440184989
 31
0.0
1001
ACAD
1000
DSTYLE
1002
{
1070
     6
1000
OPEN
1070
    78
1070
     8
1070
   140
1040
3.0
1070
   173
1070
     1
1002
}
  0
LINE
  5
43A5
  8
250
  6
CONTINUOUS
 10
-16.20267728069129
 20
-12.745403317105961
 30
0.0
 11
-14.76580450561806
 21
-11.0
 31
0.0
  0
LINE
  5
43A6
  8
250
  6
CONTINUOUS
 10
-15.558931730544851
 20
-13.11706998377263
 30
0.0
 11
-14.76580450561806
 21
-11.0
 31
0.0
  0
LINE
  5
43A7
  8
250
  6
CONTINUOUS
 10
-14.76580450561806
 20
-11.0
 30
0.0
 11
-15.88080450561807
 21
-12.93123665043929
 31
0.0
  0
TEXT
  5
43A8
  8
250
  6
CONTINUOUS
 10
191.71428571428569
 20
-12.28571428571427
 30
0.0
 40
3.0
  1
(
 50
90.0
1001
ACAD
1000
MTEXTBEGIN
1070
    73
1070
     1
1070
    44
1040
1.0
1070
    74
1070
     0
1000
MTEXTEND
  0
TEXT
  5
43A9
  8
250
  6
CONTINUOUS
 10
191.71428571428569
 20
-10.28571428571427
 30
0.0
 40
3.0
  1
\U+2205
 50
90.0
1001
ACAD
1000
MTEXTBEGIN
1070
    73
1070
     1
1070
    44
1040
1.0
1070
    74
1070
     0
1000
MTEXTEND
  0
TEXT
  5
43AA
  8
250
  6
CONTINUOUS
 10
191.71428571428569
 20
-7.5714285714285552
 30
0.0
 40
3.0
  1
41~
 50
90.0
1001
ACAD
1000
MTEXTBEGIN
1070
    73
1070
     1
1070
    44
1040
1.0
1070
    74
1070
     0
1000
MTEXTEND
  0
TEXT
  5
43AB
  8
250
  6
CONTINUOUS
 10
191.71428571428569
 20
1.857142857142875
 30
0.0
 40
3.0
  1
\U+2205
 50
90.0
1001
ACAD
1000
MTEXTBEGIN
1070
    73
1070
     1
1070
    44
1040
1.0
1070
    74
1070
     0
1000
MTEXTEND
  0
TEXT
  5
43AC
  8
250
  6
CONTINUOUS
 10
191.71428571428569
 20
4.5714285714285827
 30
0.0
 40
3.0
  1
54)
 50
90.0
1001
ACAD
1000
MTEXTBEGIN
1070
    73
1070
     1
1070
    44
1040
1.0
1070
    74
1070
     0
1000
MTEXTEND
  0
LINE
  5
43AD
  8
250
  6
CONTINUOUS
 10
193.6283333333333
 20
24.769999609675349
 30
0.0
 11
193.99999999999989
 21
26.999999609675339
 31
0.0
  0
LINE
  5
43AE
  8
250
  6
CONTINUOUS
 10
194.37166666666661
 20
24.769999609675349
 30
0.0
 11
193.99999999999989
 21
26.999999609675339
 31
0.0
  0
LINE
  5
43AF
  8
250
  6
CONTINUOUS
 10
193.99999999999989
 20
26.999999609675339
 30
0.0
 11
193.99999999999989
 21
24.769999609675349
 31
0.0
  0
LINE
  5
43B0
  8
250
  6
CONTINUOUS
 10
181.26635002218009
 20
27.70502314885503
 30
0.0
 11
187.70191325379139
 21
36.309285309416232
 31
0.0
1001
ACAD
1000
DSTYLE
1002
{
1070
     6
1000
OPEN
1070
    78
1070
     8
1070
   140
1040
3.0
1070
   173
1070
     1
1002
}
  0
LINE
  5
43B1
  8
250
  6
CONTINUOUS
 10
181.5639758742916
 20
27.482413707756798
 30
0.0
 11
179.93069337559069
 21
25.919268036186569
 31
0.0
  0
LINE
  5
43B2
  8
250
  6
CONTINUOUS
 10
180.9687241700687
 20
27.927632589953252
 30
0.0
 11
179.93069337559069
 21
25.919268036186569
 31
0.0
  0
LINE
  5
43B3
  8
250
  6
CONTINUOUS
 10
179.93069337559069
 20
25.919268036186569
 30
0.0
 11
181.26635002218009
 21
27.70502314885503
 31
0.0
  0
LINE
  5
43B4
  8
241
  6
CONTINUOUS
 10
160.80000000000001
 20
18.943597
 30
0.0
 11
166.00000000000091
 21
18.943597
 31
0.0
  0
LINE
  5
43B5
  8
241
  6
CONTINUOUS
 10
164.20577199999991
 20
15.4
 30
0.0
 11
160.4999999999998
 21
15.4
 31
0.0
  0
LINE
  5
43B6
  8
241
  6
CONTINUOUS
 10
178.4499999999999
 20
-16.099999999999991
 30
0.0
 11
158.55000000000001
 21
-16.099999999999991
 31
0.0
  0
LINE
  5
43B7
  8
240
  6
CONTINUOUS
 10
165.26769200000001
 20
-17.899999999999999
 30
0.0
 11
158.55000000000001
 21
-16.099999999999991
 31
0.0
  0
LINE
  5
43B8
  8
245
  6
CENTER2
 10
-27.90558
 20
0.0
 30
0.0
 11
182.71194499999999
 21
0.0
 31
0.0
  0
LINE
  5
43B9
  8
240
  6
CONTINUOUS
 10
-24.0
 20
-11.000000000000011
 30
0.0
 11
-24.0
 21
11.00000000000003
 31
0.0
  0
LINE
  5
43BE
  8
245
  6
CENTER2
 10
-9.9999999999999005
 20
4.8456680000000159
 30
0.0
 11
-9.9999999999999005
 21
-5.0356910000000141
 31
0.0
  0
CIRCLE
  5
43BF
  8
241
  6
CONTINUOUS
 10
-9.9999999999999005
 20
0.0
 30
0.0
 40
3.0
  0
CIRCLE
  5
43C0
  8
241
  6
CONTINUOUS
 10
-9.9999999999999005
 20
0.0
 30
0.0
 40
4.046999999999997
  0
LINE
  5
43C3
  8
240
  6
CONTINUOUS
 10
-1.666527613694325
 20
-10.99999999999997
 30
0.0
 11
-0.0000000000000284
 21
-11.000000000000011
 31
0.0
  0
LINE
  5
43C4
  8
240
  6
CONTINUOUS
 10
-24.0
 20
-11.000000000000011
 30
0.0
 11
-10.33347138630568
 21
-10.99999999999997
 31
0.0
  0
LINE
  5
43CA
  8
240
  6
CONTINUOUS
 10
-9.0199999709214556
 20
-13.275
 30
0.0
 11
-2.9799990290785252
 21
-13.275
 31
0.0
  0
LINE
  5
43CB
  8
240
  6
CONTINUOUS
 10
-10.33347138630568
 20
-10.99999999999997
 30
0.0
 11
-9.0199999709214556
 21
-13.275
 31
0.0
  0
LINE
  5
43CE
  8
240
  6
CONTINUOUS
 10
-1.666527613694325
 20
-10.99999999999997
 30
0.0
 11
-2.9799990290785252
 21
-13.275
 31
0.0
  0
LINE
  5
43D1
  8
240
  6
CONTINUOUS
 10
-0.0000000000000284
 20
-11.000000000000011
 30
0.0
 11
0.0000000000000339
 21
-19.5
 31
0.0
  0
LINE
  5
43D2
  8
241
  6
CONTINUOUS
 10
153.00000427246101
 20
19.5
 30
0.0
 11
153.00000427246101
 21
-19.5
 31
0.0
  0
LINE
  5
43D3
  8
240
  6
CONTINUOUS
 10
158.0
 20
-16.099999999999991
 30
0.0
 11
156.03701000000001
 21
-19.5
 31
0.0
  0
LINE
  5
43D4
  8
240
  6
CONTINUOUS
 10
0.0000000000000339
 20
-19.5
 30
0.0
 11
156.03701000000001
 21
-19.5
 31
0.0
  0
LINE
  5
43D5
  8
241
  6
CONTINUOUS
 10
0.0000000000000847
 20
10.921315999999999
 30
0.0
 11
-0.0000000000000853
 21
-10.99999999999978
 31
0.0
  0
LINE
  5
43D6
  8
240
  6
CONTINUOUS
 10
158.55000000000001
 20
-16.099999999999991
 30
0.0
 11
158.0
 21
-16.099999999999991
 31
0.0
  0
LINE
  5
43D9
  8
240
  6
CONTINUOUS
 10
-1.6665276136943299
 20
10.99999999999994
 30
0.0
 11
-0.0000000000001137
 21
10.99999999999994
 31
0.0
  0
LINE
  5
43DA
  8
240
  6
CONTINUOUS
 10
-24.0
 20
11.00000000000003
 30
0.0
 11
-10.33347138630567
 21
10.99999999999994
 31
0.0
  0
LINE
  5
43DE
  8
240
  6
CONTINUOUS
 10
-9.0199999709214609
 20
13.275
 30
0.0
 11
-2.9799990290785212
 21
13.275
 31
0.0
  0
LINE
  5
43DF
  8
240
  6
CONTINUOUS
 10
-10.33347138630567
 20
10.99999999999994
 30
0.0
 11
-9.0199999709214609
 21
13.275
 31
0.0
  0
LINE
  5
43E2
  8
240
  6
CONTINUOUS
 10
-1.6665276136943299
 20
10.99999999999994
 30
0.0
 11
-2.9799990290785212
 21
13.275
 31
0.0
  0
LINE
  5
43E5
  8
240
  6
CONTINUOUS
 10
160.4999999999998
 20
15.4
 30
0.0
 11
160.4999999999998
 21
18.64359700000001
 31
0.0
  0
LINE
  5
43E6
  8
240
  6
CONTINUOUS
 10
-0.0000000000001137
 20
10.99999999999994
 30
0.0
 11
0.0000000000000733
 21
19.5
 31
0.0
  0
LINE
  5
43E7
  8
240
  6
CONTINUOUS
 10
155.13286707878109
 20
19.5
 30
0.0
 11
157.5000032176701
 21
15.4
 31
0.0
  0
LINE
  5
43E8
  8
240
  6
CONTINUOUS
 10
0.0
 20
10.921315999999999
 30
0.0
 11
0.0
 21
11.58301299999999
 31
0.0
  0
LINE
  5
43E9
  8
240
  6
CONTINUOUS
 10
160.4999999999998
 20
15.4
 30
0.0
 11
157.5000032176701
 21
15.4
 31
0.0
  0
LINE
  5
43EA
  8
240
  6
CONTINUOUS
 10
0.0000000000000733
 20
19.5
 30
0.0
 11
155.13286707878109
 21
19.5
 31
0.0
  0
LINE
  5
43EB
  8
240
  6
CONTINUOUS
 10
160.4999999999998
 20
18.64359700000001
 30
0.0
 11
160.80000000000001
 21
18.943597
 31
0.0
  0
LINE
  5
43EC
  8
245
  6
CENTER2
 10
168.5
 20
-19.83059299999999
 30
0.0
 11
168.5
 21
26.69835499999996
 31
0.0
  0
LINE
  5
43ED
  8
240
  6
CONTINUOUS
 10
181.0
 20
10.9
 30
0.0
 11
181.0
 21
-14.25
 31
0.0
  0
CIRCLE
  5
43EE
  8
242
  6
CONTINUOUS
 10
168.5
 20
0.0
 30
0.0
 40
3.0
  0
LINE
  5
43EF
  8
241
  6
CONTINUOUS
 10
166.7499999999998
 20
-1.0103629999999819
 30
0.0
 11
166.7499999999998
 21
1.0103629999999819
 31
0.0
  0
LINE
  5
43F0
  8
241
  6
CONTINUOUS
 10
170.2499999999998
 20
1.0103629999999819
 30
0.0
 11
170.2499999999998
 21
-1.0103629999999819
 31
0.0
  0
CIRCLE
  5
43F1
  8
241
  6
CONTINUOUS
 10
168.5
 20
0.0
 30
0.0
 40
3.25
  0
LINE
  5
43F2
  8
240
  6
CONTINUOUS
 10
178.4499999999999
 20
-16.099999999999991
 30
0.0
 11
171.7323089999999
 21
-17.899999999999999
 31
0.0
  0
LINE
  5
43F3
  8
240
  6
CONTINUOUS
 10
171.7323089999999
 20
-17.899999999999999
 30
0.0
 11
165.26769200000001
 21
-17.899999999999999
 31
0.0
  0
LINE
  5
43F4
  8
241
  6
CONTINUOUS
 10
170.2499999999998
 20
-1.0103629999999819
 30
0.0
 11
168.5
 21
-2.0207259999999949
 31
0.0
  0
LINE
  5
43F5
  8
241
  6
CONTINUOUS
 10
168.5
 20
-2.0207259999999949
 30
0.0
 11
166.7499999999998
 21
-1.0103629999999819
 31
0.0
  0
LINE
  5
43F6
  8
240
  6
CONTINUOUS
 10
179.93190199999989
 20
-16.099999999999991
 30
0.0
 11
178.4499999999999
 21
-16.099999999999991
 31
0.0
  0
LINE
  5
43F7
  8
240
  6
CONTINUOUS
 10
181.0
 20
-14.25
 30
0.0
 11
179.93190199999989
 21
-16.099999999999991
 31
0.0
  0
LINE
  5
43F8
  8
240
  6
CONTINUOUS
 10
176.4999999999998
 20
12.105771000000001
 30
0.0
 11
176.4999999999998
 21
18.64359700000001
 31
0.0
  0
LINE
  5
43F9
  8
241
  6
CONTINUOUS
 10
164.20577199999991
 20
15.4
 30
0.0
 11
176.4999999999998
 21
12.105771000000001
 31
0.0
  0
LINE
  5
43FA
  8
241
  6
CONTINUOUS
 10
168.5
 20
2.0207260000000229
 30
0.0
 11
170.2499999999998
 21
1.0103629999999819
 31
0.0
  0
LINE
  5
43FB
  8
241
  6
CONTINUOUS
 10
166.7499999999998
 20
1.0103629999999819
 30
0.0
 11
168.5
 21
2.0207260000000229
 31
0.0
  0
LINE
  5
43FC
  8
240
  6
CONTINUOUS
 10
176.4999999999998
 20
12.105771000000001
 30
0.0
 11
181.0
 21
10.9
 31
0.0
  0
LINE
  5
43FD
  8
241
  6
CONTINUOUS
 10
171.00000000000111
 20
18.943597
 30
0.0
 11
176.1999999999999
 21
18.943597
 31
0.0
  0
LINE
  5
43FE
  8
241
  6
CONTINUOUS
 10
166.50121699999991
 20
20.743597000000019
 30
0.0
 11
170.498784
 21
20.743597000000019
 31
0.0
  0
LINE
  5
43FF
  8
241
  6
CONTINUOUS
 10
165.9999999999998
 20
18.943597
 30
0.0
 11
166.26820799999999
 21
20.546339999999969
 31
0.0
  0
LINE
  5
4400
  8
241
  6
CONTINUOUS
 10
166.26820799999999
 20
20.546339999999969
 30
0.0
 11
166.50121699999991
 21
20.743597000000019
 31
0.0
  0
LINE
  5
4401
  8
241
  6
CONTINUOUS
 10
170.9999999999998
 20
18.943597
 30
0.0
 11
170.7317929999999
 21
20.546339999999969
 31
0.0
  0
LINE
  5
4402
  8
241
  6
CONTINUOUS
 10
170.7317929999999
 20
20.546339999999969
 30
0.0
 11
170.498784
 21
20.743597000000019
 31
0.0
  0
LINE
  5
4403
  8
240
  6
CONTINUOUS
 10
176.1999999999999
 20
18.943597
 30
0.0
 11
176.4999999999998
 21
18.64359700000001
 31
0.0
  0
POLYLINE
  5
4406
  8
241
  6
CONTINUOUS
 66
     1
 10
0.0
 20
0.0
 30
0.0
 70
     8
  0
VERTEX
  5
4407
  8
241
  6
CONTINUOUS
 10
163.52699999999999
 20
15.4
 30
0.0
 70
    32
  0
VERTEX
  5
4408
  8
241
  6
CONTINUOUS
 10
163.30699999999999
 20
15.335900000000001
 30
0.0
 70
    32
  0
VERTEX
  5
4409
  8
241
  6
CONTINUOUS
 10
163.09100000000001
 20
15.2691
 30
0.0
 70
    32
  0
VERTEX
  5
440A
  8
241
  6
CONTINUOUS
 10
162.88
 20
15.1999
 30
0.0
 70
    32
  0
VERTEX
  5
440B
  8
241
  6
CONTINUOUS
 10
162.67500000000001
 20
15.1282
 30
0.0
 70
    32
  0
VERTEX
  5
440C
  8
241
  6
CONTINUOUS
 10
162.476
 20
15.0542
 30
0.0
 70
    32
  0
VERTEX
  5
440D
  8
241
  6
CONTINUOUS
 10
162.28200000000001
 20
14.9778
 30
0.0
 70
    32
  0
VERTEX
  5
440E
  8
241
  6
CONTINUOUS
 10
162.095
 20
14.899100000000001
 30
0.0
 70
    32
  0
VERTEX
  5
440F
  8
241
  6
CONTINUOUS
 10
161.91300000000001
 20
14.818300000000001
 30
0.0
 70
    32
  0
VERTEX
  5
4410
  8
241
  6
CONTINUOUS
 10
161.738
 20
14.7354
 30
0.0
 70
    32
  0
VERTEX
  5
4411
  8
241
  6
CONTINUOUS
 10
161.56999999999999
 20
14.650499999999999
 30
0.0
 70
    32
  0
VERTEX
  5
4412
  8
241
  6
CONTINUOUS
 10
161.40799999999999
 20
14.563599999999999
 30
0.0
 70
    32
  0
VERTEX
  5
4413
  8
241
  6
CONTINUOUS
 10
161.25299999999999
 20
14.4748
 30
0.0
 70
    32
  0
VERTEX
  5
4414
  8
241
  6
CONTINUOUS
 10
161.10499999999999
 20
14.3843
 30
0.0
 70
    32
  0
VERTEX
  5
4415
  8
241
  6
CONTINUOUS
 10
160.964
 20
14.292
 30
0.0
 70
    32
  0
VERTEX
  5
4416
  8
241
  6
CONTINUOUS
 10
160.83000000000001
 20
14.1981
 30
0.0
 70
    32
  0
VERTEX
  5
4417
  8
241
  6
CONTINUOUS
 10
160.703
 20
14.1027
 30
0.0
 70
    32
  0
VERTEX
  5
4418
  8
241
  6
CONTINUOUS
 10
160.584
 20
14.005800000000001
 30
0.0
 70
    32
  0
VERTEX
  5
4419
  8
241
  6
CONTINUOUS
 10
160.47300000000001
 20
13.9076
 30
0.0
 70
    32
  0
VERTEX
  5
441A
  8
241
  6
CONTINUOUS
 10
160.369
 20
13.8081
 30
0.0
 70
    32
  0
VERTEX
  5
441B
  8
241
  6
CONTINUOUS
 10
160.273
 20
13.7074
 30
0.0
 70
    32
  0
VERTEX
  5
441C
  8
241
  6
CONTINUOUS
 10
160.185
 20
13.605700000000001
 30
0.0
 70
    32
  0
VERTEX
  5
441D
  8
241
  6
CONTINUOUS
 10
160.10400000000001
 20
13.5029
 30
0.0
 70
    32
  0
VERTEX
  5
441E
  8
241
  6
CONTINUOUS
 10
160.03200000000001
 20
13.3993
 30
0.0
 70
    32
  0
VERTEX
  5
441F
  8
241
  6
CONTINUOUS
 10
159.96799999999999
 20
13.2948
 30
0.0
 70
    32
  0
VERTEX
  5
4420
  8
241
  6
CONTINUOUS
 10
159.91200000000001
 20
13.1896
 30
0.0
 70
    32
  0
VERTEX
  5
4421
  8
241
  6
CONTINUOUS
 10
159.864
 20
13.0838
 30
0.0
 70
    32
  0
VERTEX
  5
4422
  8
241
  6
CONTINUOUS
 10
159.82400000000001
 20
12.977499999999999
 30
0.0
 70
    32
  0
VERTEX
  5
4423
  8
241
  6
CONTINUOUS
 10
159.79300000000001
 20
12.870799999999999
 30
0.0
 70
    32
  0
VERTEX
  5
4424
  8
241
  6
CONTINUOUS
 10
159.76900000000001
 20
12.7638
 30
0.0
 70
    32
  0
VERTEX
  5
4425
  8
241
  6
CONTINUOUS
 10
159.75399999999999
 20
12.656499999999999
 30
0.0
 70
    32
  0
VERTEX
  5
4426
  8
241
  6
CONTINUOUS
 10
159.74799999999999
 20
12.549099999999999
 30
0.0
 70
    32
  0
VERTEX
  5
4427
  8
241
  6
CONTINUOUS
 10
159.75
 20
12.441599999999999
 30
0.0
 70
    32
  0
VERTEX
  5
4428
  8
241
  6
CONTINUOUS
 10
159.75999999999999
 20
12.334300000000001
 30
0.0
 70
    32
  0
VERTEX
  5
4429
  8
241
  6
CONTINUOUS
 10
159.77799999999999
 20
12.2271
 30
0.0
 70
    32
  0
VERTEX
  5
442A
  8
241
  6
CONTINUOUS
 10
159.80500000000001
 20
12.120200000000001
 30
0.0
 70
    32
  0
VERTEX
  5
442B
  8
241
  6
CONTINUOUS
 10
159.839
 20
12.0136
 30
0.0
 70
    32
  0
VERTEX
  5
442C
  8
241
  6
CONTINUOUS
 10
159.8829999999999
 20
11.907500000000001
 30
0.0
 70
    32
  0
VERTEX
  5
442D
  8
241
  6
CONTINUOUS
 10
159.934
 20
11.802
 30
0.0
 70
    32
  0
VERTEX
  5
442E
  8
241
  6
CONTINUOUS
 10
159.994
 20
11.697100000000001
 30
0.0
 70
    32
  0
VERTEX
  5
442F
  8
241
  6
CONTINUOUS
 10
160.06100000000001
 20
11.5929
 30
0.0
 70
    32
  0
VERTEX
  5
4430
  8
241
  6
CONTINUOUS
 10
160.137
 20
11.489599999999999
 30
0.0
 70
    32
  0
VERTEX
  5
4431
  8
241
  6
CONTINUOUS
 10
160.22
 20
11.3873
 30
0.0
 70
    32
  0
VERTEX
  5
4432
  8
241
  6
CONTINUOUS
 10
160.31200000000001
 20
11.2859
 30
0.0
 70
    32
  0
VERTEX
  5
4433
  8
241
  6
CONTINUOUS
 10
160.411
 20
11.185700000000001
 30
0.0
 70
    32
  0
VERTEX
  5
4434
  8
241
  6
CONTINUOUS
 10
160.518
 20
11.0868
 30
0.0
 70
    32
  0
VERTEX
  5
4435
  8
241
  6
CONTINUOUS
 10
160.6329999999999
 20
10.989100000000001
 30
0.0
 70
    32
  0
VERTEX
  5
4436
  8
241
  6
CONTINUOUS
 10
160.755
 20
10.892799999999999
 30
0.0
 70
    32
  0
VERTEX
  5
4437
  8
241
  6
CONTINUOUS
 10
160.88399999999999
 20
10.798
 30
0.0
 70
    32
  0
VERTEX
  5
4438
  8
241
  6
CONTINUOUS
 10
161.02099999999999
 20
10.704800000000001
 30
0.0
 70
    32
  0
VERTEX
  5
4439
  8
241
  6
CONTINUOUS
 10
161.16499999999999
 20
10.613200000000001
 30
0.0
 70
    32
  0
VERTEX
  5
443A
  8
241
  6
CONTINUOUS
 10
161.316
 20
10.523400000000001
 30
0.0
 70
    32
  0
VERTEX
  5
443B
  8
241
  6
CONTINUOUS
 10
161.47399999999999
 20
10.4354
 30
0.0
 70
    32
  0
VERTEX
  5
443C
  8
241
  6
CONTINUOUS
 10
161.63900000000001
 20
10.349299999999999
 30
0.0
 70
    32
  0
VERTEX
  5
443D
  8
241
  6
CONTINUOUS
 10
161.81
 20
10.2652
 30
0.0
 70
    32
  0
VERTEX
  5
443E
  8
241
  6
CONTINUOUS
 10
161.988
 20
10.183199999999999
 30
0.0
 70
    32
  0
VERTEX
  5
443F
  8
241
  6
CONTINUOUS
 10
162.172
 20
10.103199999999999
 30
0.0
 70
    32
  0
VERTEX
  5
4440
  8
241
  6
CONTINUOUS
 10
162.36199999999999
 20
10.025499999999999
 30
0.0
 70
    32
  0
VERTEX
  5
4441
  8
241
  6
CONTINUOUS
 10
162.55799999999999
 20
9.9501000000000008
 30
0.0
 70
    32
  0
VERTEX
  5
4442
  8
241
  6
CONTINUOUS
 10
162.75999999999999
 20
9.8770100000000003
 30
0.0
 70
    32
  0
VERTEX
  5
4443
  8
241
  6
CONTINUOUS
 10
162.96700000000001
 20
9.8063300000000009
 30
0.0
 70
    32
  0
VERTEX
  5
4444
  8
241
  6
CONTINUOUS
 10
163.18000000000001
 20
9.7381299999999982
 30
0.0
 70
    32
  0
VERTEX
  5
4445
  8
241
  6
CONTINUOUS
 10
163.39699999999999
 20
9.6724800000000002
 30
0.0
 70
    32
  0
VERTEX
  5
4446
  8
241
  6
CONTINUOUS
 10
163.62
 20
9.6094200000000001
 30
0.0
 70
    32
  0
VERTEX
  5
4447
  8
241
  6
CONTINUOUS
 10
163.84800000000001
 20
9.5490200000000005
 30
0.0
 70
    32
  0
VERTEX
  5
4448
  8
241
  6
CONTINUOUS
 10
164.08000000000001
 20
9.4913399999999992
 30
0.0
 70
    32
  0
VERTEX
  5
4449
  8
241
  6
CONTINUOUS
 10
164.31700000000001
 20
9.43642
 30
0.0
 70
    32
  0
VERTEX
  5
444A
  8
241
  6
CONTINUOUS
 10
164.55699999999999
 20
9.3843199999999989
 30
0.0
 70
    32
  0
VERTEX
  5
444B
  8
241
  6
CONTINUOUS
 10
164.80199999999999
 20
9.3350799999999996
 30
0.0
 70
    32
  0
VERTEX
  5
444C
  8
241
  6
CONTINUOUS
 10
165.05000000000001
 20
9.2887500000000003
 30
0.0
 70
    32
  0
VERTEX
  5
444D
  8
241
  6
CONTINUOUS
 10
165.30199999999999
 20
9.2453699999999994
 30
0.0
 70
    32
  0
VERTEX
  5
444E
  8
241
  6
CONTINUOUS
 10
165.55699999999999
 20
9.2049800000000008
 30
0.0
 70
    32
  0
VERTEX
  5
444F
  8
241
  6
CONTINUOUS
 10
165.815
 20
9.1676199999999994
 30
0.0
 70
    32
  0
VERTEX
  5
4450
  8
241
  6
CONTINUOUS
 10
166.07599999999999
 20
9.1333199999999994
 30
0.0
 70
    32
  0
VERTEX
  5
4451
  8
241
  6
CONTINUOUS
 10
166.34
 20
9.1021199999999993
 30
0.0
 70
    32
  0
VERTEX
  5
4452
  8
241
  6
CONTINUOUS
 10
166.60499999999999
 20
9.0740400000000001
 30
0.0
 70
    32
  0
VERTEX
  5
4453
  8
241
  6
CONTINUOUS
 10
166.87299999999999
 20
9.0490999999999993
 30
0.0
 70
    32
  0
VERTEX
  5
4454
  8
241
  6
CONTINUOUS
 10
167.143
 20
9.0273399999999988
 30
0.0
 70
    32
  0
VERTEX
  5
4455
  8
241
  6
CONTINUOUS
 10
167.41399999999999
 20
9.0087600000000005
 30
0.0
 70
    32
  0
VERTEX
  5
4456
  8
241
  6
CONTINUOUS
 10
167.68600000000001
 20
8.9933999999999994
 30
0.0
 70
    32
  0
VERTEX
  5
4457
  8
241
  6
CONTINUOUS
 10
167.96000000000001
 20
8.9812499999999993
 30
0.0
 70
    32
  0
VERTEX
  5
4458
  8
241
  6
CONTINUOUS
 10
168.23400000000001
 20
8.9723399999999991
 30
0.0
 70
    32
  0
VERTEX
  5
4459
  8
241
  6
CONTINUOUS
 10
168.50899999999999
 20
8.9666599999999992
 30
0.0
 70
    32
  0
VERTEX
  5
445A
  8
241
  6
CONTINUOUS
 10
168.78399999999999
 20
8.9642400000000002
 30
0.0
 70
    32
  0
VERTEX
  5
445B
  8
241
  6
CONTINUOUS
 10
169.059
 20
8.9650600000000011
 30
0.0
 70
    32
  0
VERTEX
  5
445C
  8
241
  6
CONTINUOUS
 10
169.334
 20
8.9691200000000002
 30
0.0
 70
    32
  0
VERTEX
  5
445D
  8
241
  6
CONTINUOUS
 10
169.60900000000001
 20
8.9764300000000006
 30
0.0
 70
    32
  0
VERTEX
  5
445E
  8
241
  6
CONTINUOUS
 10
169.88300000000001
 20
8.9869800000000009
 30
0.0
 70
    32
  0
VERTEX
  5
445F
  8
241
  6
CONTINUOUS
 10
170.15599999999989
 20
9.0007600000000014
 30
0.0
 70
    32
  0
VERTEX
  5
4460
  8
241
  6
CONTINUOUS
 10
170.428
 20
9.0177499999999995
 30
0.0
 70
    32
  0
VERTEX
  5
4461
  8
241
  6
CONTINUOUS
 10
170.69799999999989
 20
9.0379300000000011
 30
0.0
 70
    32
  0
VERTEX
  5
4462
  8
241
  6
CONTINUOUS
 10
170.96700000000001
 20
9.0612999999999992
 30
0.0
 70
    32
  0
VERTEX
  5
4463
  8
241
  6
CONTINUOUS
 10
171.233
 20
9.0878300000000003
 30
0.0
 70
    32
  0
VERTEX
  5
4464
  8
241
  6
CONTINUOUS
 10
171.49799999999999
 20
9.1174900000000001
 30
0.0
 70
    32
  0
VERTEX
  5
4465
  8
241
  6
CONTINUOUS
 10
171.75999999999999
 20
9.1502600000000012
 30
0.0
 70
    32
  0
VERTEX
  5
4466
  8
241
  6
CONTINUOUS
 10
172.02000000000001
 20
9.1861100000000011
 30
0.0
 70
    32
  0
VERTEX
  5
4467
  8
241
  6
CONTINUOUS
 10
172.27600000000001
 20
9.225010000000001
 30
0.0
 70
    32
  0
VERTEX
  5
4468
  8
241
  6
CONTINUOUS
 10
172.53
 20
9.2669100000000011
 30
0.0
 70
    32
  0
VERTEX
  5
4469
  8
241
  6
CONTINUOUS
 10
172.78
 20
9.3117800000000006
 30
0.0
 70
    32
  0
VERTEX
  5
446A
  8
241
  6
CONTINUOUS
 10
173.02600000000001
 20
9.3595899999999972
 30
0.0
 70
    32
  0
VERTEX
  5
446B
  8
241
  6
CONTINUOUS
 10
173.26900000000001
 20
9.4102800000000002
 30
0.0
 70
    32
  0
VERTEX
  5
446C
  8
241
  6
CONTINUOUS
 10
173.50800000000001
 20
9.4638100000000005
 30
0.0
 70
    32
  0
VERTEX
  5
446D
  8
241
  6
CONTINUOUS
 10
173.74199999999999
 20
9.5201299999999982
 30
0.0
 70
    32
  0
VERTEX
  5
446E
  8
241
  6
CONTINUOUS
 10
173.97200000000001
 20
9.5791899999999988
 30
0.0
 70
    32
  0
VERTEX
  5
446F
  8
241
  6
CONTINUOUS
 10
174.197
 20
9.6409399999999987
 30
0.0
 70
    32
  0
VERTEX
  5
4470
  8
241
  6
CONTINUOUS
 10
174.41800000000001
 20
9.7053200000000004
 30
0.0
 70
    32
  0
VERTEX
  5
4471
  8
241
  6
CONTINUOUS
 10
174.63300000000001
 20
9.7722699999999971
 30
0.0
 70
    32
  0
VERTEX
  5
4472
  8
241
  6
CONTINUOUS
 10
174.84299999999999
 20
9.8417200000000005
 30
0.0
 70
    32
  0
VERTEX
  5
4473
  8
241
  6
CONTINUOUS
 10
175.047
 20
9.9136299999999995
 30
0.0
 70
    32
  0
VERTEX
  5
4474
  8
241
  6
CONTINUOUS
 10
175.24600000000001
 20
9.9879100000000012
 30
0.0
 70
    32
  0
VERTEX
  5
4475
  8
241
  6
CONTINUOUS
 10
175.43899999999999
 20
10.064500000000001
 30
0.0
 70
    32
  0
VERTEX
  5
4476
  8
241
  6
CONTINUOUS
 10
175.62599999999989
 20
10.1433
 30
0.0
 70
    32
  0
VERTEX
  5
4477
  8
241
  6
CONTINUOUS
 10
175.80699999999999
 20
10.224399999999999
 30
0.0
 70
    32
  0
VERTEX
  5
4478
  8
241
  6
CONTINUOUS
 10
175.982
 20
10.307499999999999
 30
0.0
 70
    32
  0
VERTEX
  5
4479
  8
241
  6
CONTINUOUS
 10
176.149
 20
10.3926
 30
0.0
 70
    32
  0
VERTEX
  5
447A
  8
241
  6
CONTINUOUS
 10
176.31099999999989
 20
10.4796
 30
0.0
 70
    32
  0
VERTEX
  5
447B
  8
241
  6
CONTINUOUS
 10
176.465
 20
10.5686
 30
0.0
 70
    32
  0
VERTEX
  5
447C
  8
241
  6
CONTINUOUS
 10
176.613
 20
10.6593
 30
0.0
 70
    32
  0
VERTEX
  5
447D
  8
241
  6
CONTINUOUS
 10
176.75299999999999
 20
10.7517
 30
0.0
 70
    32
  0
VERTEX
  5
447E
  8
241
  6
CONTINUOUS
 10
176.886
 20
10.845700000000001
 30
0.0
 70
    32
  0
VERTEX
  5
447F
  8
241
  6
CONTINUOUS
 10
177.012
 20
10.9413
 30
0.0
 70
    32
  0
VERTEX
  5
4480
  8
241
  6
CONTINUOUS
 10
177.13
 20
11.0383
 30
0.0
 70
    32
  0
VERTEX
  5
4481
  8
241
  6
CONTINUOUS
 10
177.2409999999999
 20
11.1366
 30
0.0
 70
    32
  0
VERTEX
  5
4482
  8
241
  6
CONTINUOUS
 10
177.34399999999999
 20
11.2362
 30
0.0
 70
    32
  0
VERTEX
  5
4483
  8
241
  6
CONTINUOUS
 10
177.44
 20
11.337
 30
0.0
 70
    32
  0
VERTEX
  5
4484
  8
241
  6
CONTINUOUS
 10
177.52699999999999
 20
11.438800000000001
 30
0.0
 70
    32
  0
VERTEX
  5
4485
  8
241
  6
CONTINUOUS
 10
177.607
 20
11.541700000000001
 30
0.0
 70
    32
  0
VERTEX
  5
4486
  8
241
  6
CONTINUOUS
 10
177.678
 20
11.6454
 30
0.0
 70
    32
  0
VERTEX
  5
4487
  8
241
  6
CONTINUOUS
 10
177.74199999999999
 20
11.75
 30
0.0
 70
    32
  0
SEQEND
  5
4488
  8
241
  6
CONTINUOUS
  0
LINE
  5
4489
  8
250
  6
CONTINUOUS
 10
0.0000000000000569
 20
19.25
 30
0.0
 11
0.0000000000000579
 21
36.0
 31
0.0
  0
LINE
  5
448A
  8
250
  6
CONTINUOUS
 10
185.0
 20
27.143597
 30
0.0
 11
185.0
 21
36.0
 31
0.0
  0
LINE
  5
448B
  8
250
  6
CONTINUOUS
 10
2.2300000000000559
 20
35.0
 30
0.0
 11
182.77000000000001
 21
35.0
 31
0.0
  0
INSERT
  5
448C
  8
250
  6
CONTINUOUS
  2
*U4
 10
0.0
 20
0.0
 30
0.0
  0
LINE
  5
448D
  8
250
  6
CONTINUOUS
 10
2.2300000000000559
 20
34.62833333333333
 30
0.0
 11
0.0000000000000578
 21
35.0
 31
0.0
  0
LINE
  5
448E
  8
250
  6
CONTINUOUS
 10
2.2300000000000559
 20
35.37166666666667
 30
0.0
 11
0.0000000000000578
 21
35.0
 31
0.0
  0
LINE
  5
448F
  8
250
  6
CONTINUOUS
 10
0.0000000000000578
 20
35.0
 30
0.0
 11
2.2300000000000559
 21
35.0
 31
0.0
  0
LINE
  5
4490
  8
250
  6
CONTINUOUS
 10
182.77000000000001
 20
35.37166666666667
 30
0.0
 11
185.0
 21
35.0
 31
0.0
  0
LINE
  5
4491
  8
250
  6
CONTINUOUS
 10
182.77000000000001
 20
34.62833333333333
 30
0.0
 11
185.0
 21
35.0
 31
0.0
  0
LINE
  5
4492
  8
250
  6
CONTINUOUS
 10
185.0
 20
35.0
 30
0.0
 11
182.77000000000001
 21
35.0
 31
0.0
  0
LINE
  5
4493
  8
240
  6
CONTINUOUS
 10
160.80000000000001
 20
18.943597
 30
0.0
 11
165.6669370436326
 21
18.943597
 31
0.0
1001
GRPNAME
1000
PASTMD0Y
  0
ARC
  5
4494
  8
240
  6
CONTINUOUS
 10
162.80000000000001
 20
23.54359700000003
 30
0.0
 40
2.0
 50
89.999999992284415
 51
179.9999999922826
1001
GRPNAME
1000
PASTMD0Y
  0
LINE
  5
4495
  8
240
  6
CONTINUOUS
 10
160.80000000000001
 20
18.943597
 30
0.0
 11
160.80000000000001
 21
23.54359700000003
 31
0.0
1001
GRPNAME
1000
PASTMD0Y
  0
CIRCLE
  5
4496
  8
246
  6
PHANTOM2
 10
181.57725400000001
 20
21.98897599999998
 30
0.0
 40
3.174999999999998
  0
LINE
  5
4497
  8
241
  6
CONTINUOUS
 10
184.99945199999999
 20
26.622662999999989
 30
0.0
 11
184.496353
 21
17.022954999999971
 31
0.0
  0
LINE
  5
4498
  8
241
  6
CONTINUOUS
 10
175.85326399999991
 20
22.635843000000008
 30
0.0
 11
184.41840400000001
 21
27.0
 31
0.0
  0
ARC
  5
4499
  8
241
  6
CONTINUOUS
 10
174.19999999999999
 20
23.54359700000003
 30
0.0
 40
2.0
 50
0.0000000899764162
 51
90.000000089978045
1001
GRPNAME
1000
PASTMD0Y
  0
ARC
  5
449A
  8
241
  6
CONTINUOUS
 10
184.096901
 20
17.043889999999958
 30
0.0
 40
0.4
 50
237.0000000000002
 51
356.99999999999909
  0
LINE
  5
449B
  8
240
  6
CONTINUOUS
 10
181.50333299999991
 20
16.343596999999988
 30
0.0
 11
184.07021399999991
 21
16.343596999999988
 31
0.0
  0
LINE
  5
449C
  8
241
  6
CONTINUOUS
 10
175.81700399999991
 20
21.94397199999997
 30
0.0
 11
184.08241199999989
 21
16.57635299999998
 31
0.0
  0
LINE
  5
449D
  8
240
  6
CONTINUOUS
 10
171.33306295636731
 20
18.943597
 30
0.0
 11
176.19999999999999
 21
18.943597
 31
0.0
1001
GRPNAME
1000
PASTMD0Y
  0
LINE
  5
449E
  8
240
  6
CONTINUOUS
 10
166.26774817453031
 20
21.04359700000003
 30
0.0
 11
170.7322518254698
 21
21.04359700000003
 31
0.0
1001
GRPNAME
1000
PASTMD0Y
  0
LINE
  5
449F
  8
240
  6
CONTINUOUS
 10
166.06693704363261
 20
19.343596999999988
 30
0.0
 11
166.26774817453031
 21
20.543597000000041
 31
0.0
1001
GRPNAME
1000
PASTMD0Y
  0
LINE
  5
44A0
  8
240
  6
CONTINUOUS
 10
165.6669370436326
 20
18.943597
 30
0.0
 11
166.06693704363261
 21
19.343596999999988
 31
0.0
1001
GRPNAME
1000
PASTMD0Y
  0
LINE
  5
44A1
  8
240
  6
CONTINUOUS
 10
166.26774817453031
 20
20.543597000000041
 30
0.0
 11
166.26774817453031
 21
21.04359700000003
 31
0.0
1001
GRPNAME
1000
PASTMD0Y
  0
LINE
  5
44A2
  8
240
  6
CONTINUOUS
 10
170.93306295636731
 20
19.343596999999988
 30
0.0
 11
170.7322518254698
 21
20.543597000000041
 31
0.0
1001
GRPNAME
1000
PASTMD0Y
  0
LINE
  5
44A3
  8
240
  6
CONTINUOUS
 10
171.33306295636731
 20
18.943597
 30
0.0
 11
170.93306295636731
 21
19.343596999999988
 31
0.0
1001
GRPNAME
1000
PASTMD0Y
  0
LINE
  5
44A4
  8
240
  6
CONTINUOUS
 10
170.7322518254698
 20
20.543597000000041
 30
0.0
 11
170.7322518254698
 21
21.04359700000003
 31
0.0
1001
GRPNAME
1000
PASTMD0Y
  0
LINE
  5
44A5
  8
240
  6
CONTINUOUS
 10
181.50333299999991
 20
16.343596999999988
 30
0.0
 11
177.0
 21
18.943597
 31
0.0
  0
LINE
  5
44A6
  8
241
  6
CONTINUOUS
 10
176.19999999999999
 20
21.6952514762792
 30
0.0
 11
176.19999999999999
 21
18.94359700000069
 31
0.0
1001
GRPNAME
1000
PASTMD0Y
  0
LINE
  5
44A7
  8
240
  6
CONTINUOUS
 10
176.1999999999999
 20
18.943597
 30
0.0
 11
177.0
 21
18.943597
 31
0.0
  0
LINE
  5
44A8
  8
241
  6
CONTINUOUS
 10
176.19999999999999
 20
22.812513824009329
 30
0.0
 11
176.19999999999999
 21
23.54359700000003
 31
0.0
1001
GRPNAME
1000
PASTMD0Y
  0
ARC
  5
44A9
  8
241
  6
CONTINUOUS
 10
176.0348599999999
 20
22.279439999999969
 30
0.0
 40
0.4
 50
117.0
 51
237.0000000000002
  0
LINE
  5
44AA
  8
240
  6
CONTINUOUS
 10
184.08595999999989
 20
16.644039000000021
 30
0.0
 11
184.07021399999991
 21
16.343596999999988
 31
0.0
  0
POLYLINE
  5
44AB
  8
240
  6
CONTINUOUS
 66
     1
 10
0.0
 20
0.0
 30
0.0
 70
     8
  0
VERTEX
  5
44AC
  8
240
  6
CONTINUOUS
 10
171.863956
 20
25.30492199999998
 30
0.0
 70
    32
  0
VERTEX
  5
44AD
  8
240
  6
CONTINUOUS
 10
172.14796699999991
 20
25.358126000000031
 30
0.0
 70
    32
  0
VERTEX
  5
44AE
  8
240
  6
CONTINUOUS
 10
172.43197799999999
 20
25.41564
 30
0.0
 70
    32
  0
VERTEX
  5
44AF
  8
240
  6
CONTINUOUS
 10
172.71598899999989
 20
25.477464000000001
 30
0.0
 70
    32
  0
VERTEX
  5
44B0
  8
240
  6
CONTINUOUS
 10
172.99999999999989
 20
25.543596999999981
 30
0.0
 70
    32
  0
SEQEND
  5
44B1
  8
240
  6
CONTINUOUS
  0
POLYLINE
  5
44B2
  8
241
  6
CONTINUOUS
 66
     1
 10
0.0
 20
0.0
 30
0.0
 70
     8
  0
VERTEX
  5
44B3
  8
241
  6
CONTINUOUS
 10
165.13604499999991
 20
25.30492199999998
 30
0.0
 70
    32
  0
VERTEX
  5
44B4
  8
241
  6
CONTINUOUS
 10
166.81802300000001
 20
25.07817799999998
 30
0.0
 70
    32
  0
VERTEX
  5
44B5
  8
241
  6
CONTINUOUS
 10
168.5
 20
25.00259699999998
 30
0.0
 70
    32
  0
VERTEX
  5
44B6
  8
241
  6
CONTINUOUS
 10
170.18197799999999
 20
25.07817799999998
 30
0.0
 70
    32
  0
VERTEX
  5
44B7
  8
241
  6
CONTINUOUS
 10
171.863956
 20
25.30492199999998
 30
0.0
 70
    32
  0
SEQEND
  5
44B8
  8
241
  6
CONTINUOUS
  0
LINE
  5
44B9
  8
240
  6
CONTINUOUS
 10
168.5
 20
25.643597
 30
0.0
 11
166.39999999999981
 21
25.643597
 31
0.0
  0
LINE
  5
44BA
  8
240
  6
CONTINUOUS
 10
162.80000000000001
 20
25.543597000000041
 30
0.0
 11
163.98020604337199
 21
25.543597000000052
 31
0.0
1001
GRPNAME
1000
PASTMD0Y
  0
POLYLINE
  5
44BB
  8
240
  6
CONTINUOUS
 66
     1
 10
0.0
 20
0.0
 30
0.0
 70
     8
  0
VERTEX
  5
44BC
  8
240
  6
CONTINUOUS
 10
163.9999999999998
 20
25.543596999999981
 30
0.0
 70
    32
  0
VERTEX
  5
44BD
  8
240
  6
CONTINUOUS
 10
164.28401199999999
 20
25.477464000000001
 30
0.0
 70
    32
  0
VERTEX
  5
44BE
  8
240
  6
CONTINUOUS
 10
164.56802300000001
 20
25.41564
 30
0.0
 70
    32
  0
VERTEX
  5
44BF
  8
240
  6
CONTINUOUS
 10
164.8520339999998
 20
25.358126000000031
 30
0.0
 70
    32
  0
VERTEX
  5
44C0
  8
240
  6
CONTINUOUS
 10
165.13604499999991
 20
25.30492199999998
 30
0.0
 70
    32
  0
SEQEND
  5
44C1
  8
240
  6
CONTINUOUS
  0
LINE
  5
44C2
  8
240
  6
CONTINUOUS
 10
166.39999999999981
 20
25.643597
 30
0.0
 11
165.13604499999991
 21
25.30492199999998
 31
0.0
  0
LINE
  5
44C3
  8
240
  6
CONTINUOUS
 10
168.5
 20
25.643597
 30
0.0
 11
170.59999999999999
 21
25.643597
 31
0.0
  0
LINE
  5
44C4
  8
240
  6
CONTINUOUS
 10
170.59999999999999
 20
25.643597
 30
0.0
 11
171.863956
 21
25.30492199999998
 31
0.0
  0
LINE
  5
44C5
  8
240
  6
CONTINUOUS
 10
178.03705999999991
 20
25.543596999999981
 30
0.0
 11
183.4244039999999
 21
26.49353199999997
 31
0.0
  0
LINE
  5
44C6
  8
240
  6
CONTINUOUS
 10
172.99999999999989
 20
25.543596999999981
 30
0.0
 11
178.03705999999991
 21
25.543596999999981
 31
0.0
  0
ARC
  5
44C7
  8
241
  6
CONTINUOUS
 10
184.59999999999999
 20
26.643597
 30
0.0
 40
0.4
 50
356.99999999999909
 51
117.0
  0
LINE
  5
44CE
  8
241
  6
CONTINUOUS
 10
-1.6665276136943299
 20
10.99999999999994
 30
0.0
 11
-10.33347138630567
 21
10.99999999999994
 31
0.0
  0
LINE
  5
44CF
  8
241
  6
CONTINUOUS
 10
-1.666527613694325
 20
-10.99999999999997
 30
0.0
 11
-10.33347138630568
 21
-10.99999999999997
 31
0.0
  0
LINE
  5
44F7
  8
247
  6
CONTINUOUS
 10
5.4999999999999432
 20
-13.789341999999889
 30
0.0
 11
5.5
 21
-9.1547266156698832
 31
0.0
  0
LINE
  5
44F8
  8
247
  6
CONTINUOUS
 10
2.9999999999999991
 20
-12.9942354999878
 30
0.0
 11
5.0999999999160082
 21
-13.59640081005724
 31
0.0
  0
LINE
  5
44F9
  8
247
  6
CONTINUOUS
 10
3.9961538461139972
 20
-12.36449340351893
 30
0.0
 11
3.9961538461139972
 21
-13.279878018866921
 31
0.0
  0
ARC
  5
44FA
  8
247
  6
CONTINUOUS
 10
3.3847190672940992
 20
-12.126605401946639
 30
0.0
 40
0.3876715809326743
 50
72.99788967529301
 51
172.92416621851351
  0
ARC
  5
44FB
  8
247
  6
CONTINUOUS
 10
3.305223131028014
 20
-12.42181955680396
 30
0.0
 40
0.6933047965358766
 50
4.7429368522022122
 51
73.849226273266765
1001
GENIUS_GENOBJ-N-FIL_13
1002
{
1000
OWNER
1000
GEN
1002
}
1001
GENIUS_GENODEF_13
1002
{
1000
HIER
1070
     0
1002
}
1002
{
1000
MANEDIT
1070
     0
1002
}
1002
{
1000
NOSEL
1070
     0
1002
}
1002
{
1000
BEHIND
1070
     0
1002
}
1002
{
1000
OTHER
1070
     0
1002
}
1002
{
1000
REACTOR
1002
}
  0
LINE
  5
44FC
  8
247
  6
CONTINUOUS
 10
5.0999999999160082
 20
-12.68101619470926
 30
0.0
 11
5.0999999999160082
 21
-13.59640081005724
 31
0.0
  0
LINE
  5
44FD
  8
247
  6
CONTINUOUS
 10
2.9999999999999991
 20
-12.9942354999878
 30
0.0
 11
2.9999999999999991
 21
-12.07885088463982
 31
0.0
  0
ARC
  5
44FE
  8
247
  6
CONTINUOUS
 10
4.3874169627678716
 20
-12.41764847626669
 30
0.0
 40
0.394857301075386
 50
65.990941652528875
 51
172.26344345906909
  0
ARC
  5
44FF
  8
247
  6
CONTINUOUS
 10
4.3912003273325686
 20
-12.751788610426811
 30
0.0
 40
0.7123241612361686
 50
5.701985164256504
 51
77.277338436822006
1001
GENIUS_GENOBJ-N-FIL_13
1002
{
1000
OWNER
1000
GEN
1002
}
1001
GENIUS_GENODEF_13
1002
{
1000
HIER
1070
     0
1002
}
1002
{
1000
MANEDIT
1070
     0
1002
}
1002
{
1000
NOSEL
1070
     0
1002
}
1002
{
1000
BEHIND
1070
     0
1002
}
1002
{
1000
OTHER
1070
     0
1002
}
1002
{
1000
REACTOR
1002
}
  0
LINE
  5
4500
  8
247
  6
CONTINUOUS
 10
5.0999999999160082
 20
-11.723323887063231
 30
0.0
 11
2.9999999999999991
 21
-11.121158576993849
 31
0.0
  0
LINE
  5
4501
  8
247
  6
CONTINUOUS
 10
2.9999999999999991
 20
-9.6250047309078166
 30
0.0
 11
2.9999999999999991
 21
-10.02102036430343
 31
0.0
  0
LINE
  5
4502
  8
247
  6
CONTINUOUS
 10
5.0999999999160082
 20
-10.648081653943811
 30
0.0
 11
5.0999999999160082
 21
-10.217312423191821
 31
0.0
  0
ARC
  5
4503
  8
247
  6
CONTINUOUS
 10
4.4582995950833597
 20
-9.4211585770698019
 30
0.0
 40
1.5768550576395479
 50
202.3594881415294
 51
254.99324854284691
  0
ARC
  5
4504
  8
247
  6
CONTINUOUS
 10
3.5658188585381358
 20
-9.8868533661330655
 30
0.0
 40
0.6234706797009447
 50
94.994589319075317
 51
155.1663289573041
1001
GENIUS_GENOBJ-N-FIL_13
1002
{
1000
OWNER
1000
GEN
1002
}
1001
GENIUS_GENODEF_13
1002
{
1000
HIER
1070
     0
1002
}
1002
{
1000
MANEDIT
1070
     0
1002
}
1002
{
1000
NOSEL
1070
     0
1002
}
1002
{
1000
BEHIND
1070
     0
1002
}
1002
{
1000
OTHER
1070
     0
1002
}
1002
{
1000
REACTOR
1002
}
  0
ARC
  5
4505
  8
247
  6
CONTINUOUS
 10
4.162102121969439
 20
-10.48352595103264
 30
0.0
 40
0.9749472149106983
 50
15.846096555780679
 51
82.325137004169278
  0
ARC
  5
4506
  8
247
  6
CONTINUOUS
 10
4.3714704019710657
 20
-10.07455363877207
 30
0.0
 40
0.9271945638692009
 50
249.7136016704969
 51
321.78874565641098
1001
GENIUS_GENOBJ-N-FIL_13
1002
{
1000
OWNER
1000
GEN
1002
}
1001
GENIUS_GENODEF_13
1002
{
1000
HIER
1070
     0
1002
}
1002
{
1000
MANEDIT
1070
     0
1002
}
1002
{
1000
NOSEL
1070
     0
1002
}
1002
{
1000
BEHIND
1070
     0
1002
}
1002
{
1000
OTHER
1070
     0
1002
}
1002
{
1000
REACTOR
1002
}
  0
LINE
  5
4507
  8
247
  6
CONTINUOUS
 10
4.2923076922559744
 20
-10.0019278078158
 30
0.0
 11
4.2923076922559744
 21
-9.5173124232198614
 31
0.0
  0
ARC
  5
4508
  8
247
  6
CONTINUOUS
 10
4.25
 20
-13.789341999999889
 30
0.0
 40
1.25
 50
180.0
 51
0.0
  0
LINE
  5
4509
  8
247
  6
CONTINUOUS
 10
2.9999999999999991
 20
-13.789341999999889
 30
0.0
 11
2.9999999999999991
 21
-13.34318815391387
 31
0.0
  0
ARC
  5
450A
  8
247
  6
CONTINUOUS
 10
4.25
 20
-9.1547266156698832
 30
0.0
 40
1.25
 50
0.0
 51
180.0
  0
VIEWPORT
  5
22
 67
     1
  8
0
 10
261.51769911504419
 20
148.5
 30
0.0
 40
523.0353982300885
 41
297.0
 68
     1
 69
     1
1001
ACAD
1000
MVIEW
1002
{
1070
    16
1010
0.0
1020
0.0
1030
0.0
1010
0.0
1020
0.0
1030
1.0
1040
0.0
1040
297.0
1040
261.51769911504419
1040
148.5
1040
50.0
1040
0.0
1040
0.0
1070
     0
1070
   100
1070
     1
1070
     1
1070
     0
1070
     0
1070
     0
1070
     0
1040
0.0
1040
0.0
1040
0.0
1040
1.0
1040
1.0
1040
10.0
1040
10.0
1070
     0
1002
{
1002
}
1002
}
1001
GENIUS_GENODEF_13
1002
{
1000
HIER
1070
     0
1002
}
1002
{
1000
MANEDIT
1070
     0
1002
}
1002
{
1000
NOSEL
1070
     0
1002
}
1002
{
1000
BEHIND
1070
     0
1002
}
1002
{
1000
OTHER
1070
     0
1002
}
1002
{
1000
REACTOR
1002
}
1001
GENIUS_GENOBJ-N-SDF_13
1002
{
1000
OWNER
1000
GEN
1002
}
1001
GENIUS_GENSCREG_15
1000
PF
1040
1.0
1000
DF
1040
1.0
1000
MIN
1011
0.0
1021
0.0
1031
0.0
1021
0.0
1031
0.0
1000
MAX
1011
523.0353982300885
1021
0.0
1031
0.0
1021
297.0
1031
0.0
1000
FLAGS
1070
     4
  0
ENDSEC
  0
EOF
