  0
SECTION
  2
HEADER
  9
$ACADVER
  1
AC1009
  9
$INSBASE
 10
0.0
 20
0.0
 30
0.0
  9
$EXTMIN
 10
-52.799999999999798
 20
-26.833313154349671
 30
0.0
  9
$EXTMAX
 10
50.0
 20
60.909614751167979
 30
0.0
  9
$LIMMIN
 10
0.0
 20
0.0
  9
$LIMMAX
 10
297.0
 20
210.0
  9
$ORTHOMODE
 70
     1
  9
$REGENMODE
 70
     1
  9
$FILLMODE
 70
     1
  9
$QTEXTMODE
 70
     0
  9
$MIRRTEXT
 70
     1
  9
$DRAGMODE
 70
     2
  9
$LTSCALE
 40
10.0
  9
$OSMODE
 70
    37
  9
$ATTMODE
 70
     1
  9
$TEXTSIZE
 40
3.0
  9
$TRACEWID
 40
1.0
  9
$TEXTSTYLE
  7
YOKO
  9
$CLAYER
  8
240
  9
$CELTYPE
  6
BYLAYER
  9
$CECOLOR
 62
   256
  9
$DIMSCALE
 40
1.0
  9
$DIMASZ
 40
2.2299999999999991
  9
$DIMEXO
 40
0.5
  9
$DIMDLI
 40
7.0
  9
$DIMRND
 40
0.0
  9
$DIMDLE
 40
0.0
  9
$DIMEXE
 40
1.0
  9
$DIMTP
 40
0.0
  9
$DIMTM
 40
0.01
  9
$DIMTXT
 40
2.799999999999998
  9
$DIMCEN
 40
0.0
  9
$DIMTSZ
 40
0.0
  9
$DIMTOL
 70
     0
  9
$DIMLIM
 70
     0
  9
$DIMTIH
 70
     0
  9
$DIMTOH
 70
     0
  9
$DIMSE1
 70
     0
  9
$DIMSE2
 70
     0
  9
$DIMTAD
 70
     3
  9
$DIMZIN
 70
     9
  9
$DIMBLK
  1
OPEN
  9
$DIMASO
 70
     1
  9
$DIMSHO
 70
     1
  9
$DIMPOST
  1

  9
$DIMAPOST
  1

  9
$DIMALT
 70
     0
  9
$DIMALTD
 70
     2
  9
$DIMALTF
 40
25.399999999999999
  9
$DIMLFAC
 40
1.0
  9
$DIMTOFL
 70
     1
  9
$DIMTVP
 40
0.0
  9
$DIMTIX
 70
     1
  9
$DIMSOXD
 70
     0
  9
$DIMSAH
 70
     0
  9
$DIMBLK1
  1

  9
$DIMBLK2
  1

  9
$DIMSTYLE
  2
BIGT
  9
$DIMCLRD
 70
   256
  9
$DIMCLRE
 70
   256
  9
$DIMCLRT
 70
    40
  9
$DIMTFAC
 40
1.0
  9
$DIMGAP
 40
1.0
  9
$LUNITS
 70
     2
  9
$LUPREC
 70
     3
  9
$SKETCHINC
 40
1.0
  9
$FILLETRAD
 40
0.0
  9
$AUNITS
 70
     0
  9
$AUPREC
 70
     3
  9
$MENU
  1
.
  9
$ELEVATION
 40
0.0
  9
$PELEVATION
 40
0.0
  9
$THICKNESS
 40
0.0
  9
$LIMCHECK
 70
     0
  9
$BLIPMODE
 70
     0
  9
$CHAMFERA
 40
0.25
  9
$CHAMFERB
 40
0.25
  9
$SKPOLY
 70
     0
  9
$TDCREATE
 40
2455933.7017382761
  9
$TDUPDATE
 40
2459908.4529014472
  9
$TDINDWG
 40
0.0362669907
  9
$TDUSRTIMER
 40
0.0362668056
  9
$USRTIMER
 70
     1
  9
$ANGBASE
 50
0.0
  9
$ANGDIR
 70
     0
  9
$PDMODE
 70
     1
  9
$PDSIZE
 40
0.0
  9
$PLINEWID
 40
0.0
  9
$COORDS
 70
     1
  9
$SPLFRAME
 70
     0
  9
$SPLINETYPE
 70
     6
  9
$SPLINESEGS
 70
     4
  9
$ATTDIA
 70
     1
  9
$ATTREQ
 70
     1
  9
$HANDLING
 70
     1
  9
$HANDSEED
  5
3970
  9
$SURFTAB1
 70
     6
  9
$SURFTAB2
 70
     6
  9
$SURFTYPE
 70
     6
  9
$SURFU
 70
     6
  9
$SURFV
 70
     6
  9
$UCSNAME
  2

  9
$UCSORG
 10
0.0
 20
0.0
 30
0.0
  9
$UCSXDIR
 10
1.0
 20
0.0
 30
0.0
  9
$UCSYDIR
 10
0.0
 20
1.0
 30
0.0
  9
$PUCSNAME
  2

  9
$PUCSORG
 10
0.0
 20
0.0
 30
0.0
  9
$PUCSXDIR
 10
1.0
 20
0.0
 30
0.0
  9
$PUCSYDIR
 10
0.0
 20
1.0
 30
0.0
  9
$USERI1
 70
     1
  9
$USERI2
 70
     0
  9
$USERI3
 70
     0
  9
$USERI4
 70
     0
  9
$USERI5
 70
     0
  9
$USERR1
 40
0.0
  9
$USERR2
 40
0.0
  9
$USERR3
 40
0.0
  9
$USERR4
 40
0.0
  9
$USERR5
 40
0.0
  9
$WORLDVIEW
 70
     1
  9
$SHADEDGE
 70
     3
  9
$SHADEDIF
 70
    70
  9
$TILEMODE
 70
     1
  9
$MAXACTVP
 70
    16
  9
$PLIMCHECK
 70
     0
  9
$PEXTMIN
 10
1.0000000000000000E+020
 20
1.0000000000000000E+020
 30
1.0000000000000000E+020
  9
$PEXTMAX
 10
-1.0000000000000000E+020
 20
-1.0000000000000000E+020
 30
-1.0000000000000000E+020
  9
$PLIMMIN
 10
0.0
 20
0.0
  9
$PLIMMAX
 10
420.0
 20
297.0
  9
$UNITMODE
 70
     0
  9
$VISRETAIN
 70
     1
  9
$PLINEGEN
 70
     0
  9
$PSLTSCALE
 70
     1
  0
ENDSEC
  0
SECTION
  2
TABLES
  0
TABLE
  2
VPORT
 70
     1
  0
VPORT
  2
*ACTIVE
 70
     0
 10
0.0
 20
0.0
 11
1.0
 21
1.0
 12
21.791472085866928
 22
21.534194728179841
 13
0.0
 23
0.0
 14
7.0
 24
7.0
 15
7.0
 25
7.0
 16
0.0
 26
0.0
 36
1.0
 17
0.0
 27
0.0
 37
0.0
 40
157.4624227326722
 41
1.9454545454545451
 42
50.0
 43
0.0
 44
0.0
 50
0.0
 51
0.0
 71
     0
 72
  2000
 73
     1
 74
     0
 75
     0
 76
     0
 77
     0
 78
     0
  0
ENDTAB
  0
TABLE
  2
LTYPE
 70
    17
  0
LTYPE
  2
CONTINUOUS
 70
     0
  3
Solid line
 72
    65
 73
     0
 40
0.0
  0
LTYPE
  2
CENTER2
 70
     0
  3
___ _ ___ _ ___ _ ___ _ ___ _ ___ _ ___ _ ___ _
 72
    65
 73
     4
 40
1.125
 49
0.75
 49
-0.125
 49
0.125
 49
-0.125
  0
LTYPE
  2
HIDDEN2
 70
     0
  3
_ _ _ _ _ _ _ _ _ _ _ _ _ _ _ _ _ _ _ _ _ _ _ _
 72
    65
 73
     2
 40
0.1875
 49
0.125
 49
-0.0625
  0
LTYPE
  2
PHANTOM2
 70
     0
  3
___ _ _ ___ _ _ ___ _ _ ___ _ _ ___ _ _ ___ _ _
 72
    65
 73
     6
 40
1.25
 49
0.625
 49
-0.125
 49
0.125
 49
-0.125
 49
0.125
 49
-0.125
  0
LTYPE
  2
CENTER
 70
     0
  3
____ _ ____ _ ____ _ ____ _ ____ _ ____ _ ____ 
 72
    65
 73
     4
 40
2.0
 49
1.25
 49
-0.25
 49
0.25
 49
-0.25
  0
LTYPE
  2
AMCONSTR
 70
     0
  3
_______________________
 72
    65
 73
     2
 40
9999.0
 49
9999.0
 49
0.0
  0
LTYPE
  2
HIDDEN
 70
     0
  3
Hidden __ __ __ __ __ __ __ __ __ __ __ __ __ _
 72
    65
 73
     2
 40
9.5249999999999986
 49
6.349999999999997
 49
-3.174999999999998
  0
LTYPE
  2
AMZIGZAG2
 70
     0
  3
/\/-/\/-/\/-/\/-/\/-/\/
 72
    65
 73
     2
 40
0.4401
 49
0.0001
 49
-0.4400000000000003
  0
LTYPE
  2
ACANSTGB
 70
     0
  3
__ . . __ . .
 72
    65
 73
     6
 40
0.35433070866
 49
0.15748031496
 49
-0.03937007874
 49
0.03937007874
 49
-0.03937007874
 49
0.03937007874
 49
-0.03937007874
  0
LTYPE
  2
ACANSTGL
 70
     0
  3
_ _ _ _ _
 72
    65
 73
     2
 40
0.11811023622
 49
0.07874015748
 49
-0.03937007874
  0
LTYPE
  2
AM_ISO02W050
 70
     0
  3
__ __ __ __ __ __ __ __ __ __ __ __ __ __ __
 72
    65
 73
     2
 40
7.5
 49
6.0
 49
-1.5
  0
LTYPE
  2
AM_ISO08W050
 70
     0
  3
____ . ____ . ____ . ____ . ____ . ____ . ____
 72
    65
 73
     4
 40
18.0
 49
12.0
 49
-1.5
 49
3.0
 49
-1.5
  0
LTYPE
  2
AM_ISO09W050
 70
     0
  3
_____ . . _____ . . _____ . . ____ .. ____
 72
    65
 73
     6
 40
22.5
 49
12.0
 49
-1.5
 49
3.0
 49
-1.5
 49
3.0
 49
-1.5
  0
LTYPE
  2
AM_ISO08W050X2
 70
     0
  3
__ . __ . __ . __ . __ . __
 72
    65
 73
     4
 40
9.0
 49
6.0
 49
-0.75
 49
1.5
 49
-0.75
  0
LTYPE
  2
AM_ISO02W050X2
 70
     0
  3
 _ _ _ _ _ _ _ _ _ _ _ _
 72
    65
 73
     2
 40
3.75
 49
3.0
 49
-0.75
  0
LTYPE
  2
AMZIGZAG
 70
     0
  3
/\/-/\/-/\/-/\/-/\/-/\/
 72
    65
 73
     2
 40
11.0001
 49
0.0001
 49
-11.0
  0
ENDTAB
  0
TABLE
  2
LAYER
 70
     8
  0
LAYER
  2
0
 70
     0
 62
     7
  6
CONTINUOUS
  0
LAYER
  2
240
 70
     0
 62
     4
  6
CONTINUOUS
  0
LAYER
  2
DEFPOINTS
 70
     0
 62
     7
  6
CONTINUOUS
  0
LAYER
  2
245
 70
     0
 62
     2
  6
CENTER2
  0
LAYER
  2
241
 70
     0
 62
   211
  6
CONTINUOUS
  0
LAYER
  2
247
 70
     0
 62
    60
  6
CONTINUOUS
  0
LAYER
  2
250
 70
     0
 62
     3
  6
CONTINUOUS
  0
LAYER
  2
AM_CL
 70
     0
 62
     1
  6
AMCONSTR
  0
ENDTAB
  0
TABLE
  2
STYLE
 70
     6
  0
STYLE
  2
STANDARD
 70
     0
 40
0.0
 41
1.0
 50
0.0
 71
     0
 42
3.0
  3
romans.shx
  4
extfont.shx
  0
STYLE
  2
ANNOTATIVE
 70
     0
 40
0.0
 41
1.0
 50
0.0
 71
     0
 42
0.2
  3
txt
  4

  0
STYLE
  2
YOKO
 70
     0
 40
0.0
 41
1.0
 50
0.0
 71
     0
 42
3.0
  3
romans.shx
  4
extfont.shx
  0
STYLE
  2
ACANSTS
 70
     0
 40
1.0
 41
1.0
 50
0.0
 71
     0
 42
3.0
  3
romans.shx
  4
extfont.shx
  0
STYLE
  2
ACANSGDT
 70
     0
 40
0.0
 41
1.0
 50
0.0
 71
     0
 42
3.0
  3
amgdt.shx
  4

  0
STYLE
  2

 70
     1
 40
0.0
 41
1.0
 50
0.0
 71
     0
 42
3.0
  3
genltshp.shx
  4

  0
ENDTAB
  0
TABLE
  2
VIEW
 70
     0
  0
ENDTAB
  0
TABLE
  2
UCS
 70
     0
  0
ENDTAB
  0
TABLE
  2
APPID
 70
    39
  0
APPID
  2
ACAD
 70
     0
  0
APPID
  2
ACADANNOTATIVE
 70
     0
  0
APPID
  2
GLOBAL
 70
     0
  0
APPID
  2
DETAIL
 70
     0
  0
APPID
  2
GRPNAME
 70
     0
  0
APPID
  2
GPARA
 70
     0
  0
APPID
  2
MCAD_NO_VIS
 70
     0
  0
APPID
  2
ACAD_TEMP_GRAPHIC
 70
     0
  0
APPID
  2
ACATTRIBSERVICES
 70
     0
  0
APPID
  2
GENIUS_GENSCREG_15
 70
     0
  0
APPID
  2
GENIUS_GENODEF_13
 70
     0
  0
APPID
  2
GENIUS_GENOBJ-N-SDF_13
 70
     0
  0
APPID
  2
GENIUS_GENREC_14
 70
     0
  0
APPID
  2
GENIUS_GENOBJ-N-REC_13
 70
     0
  0
APPID
  2
GENIUS_GENDIMSH_14
 70
     0
  0
APPID
  2
GENIUS_GENOBJ-N-DIM_13
 70
     0
  0
APPID
  2
GENIUS_GENDIM_13
 70
     0
  0
APPID
  2
GENIUS_GENDTOL_13
 70
     0
  0
APPID
  2
GENIUS_GENOLIS_13
 70
     0
  0
APPID
  2
GENIUS_GENOENT_13
 70
     0
  0
APPID
  2
GENIUS_GENOBJ-F-FEM_13
 70
     0
  0
APPID
  2
GENIUS_GENOREF_13
 70
     0
  0
APPID
  2
GENIUS_GEFFEM_13
 70
     0
  0
APPID
  2
GENIUS_GEFFEMP_13
 70
     0
  0
APPID
  2
AD_DRAW
 70
     0
  0
APPID
  2
DESIGNERASSEMBLIES
 70
     0
  0
APPID
  2
ACADM_DIM_EDIT
 70
     0
  0
APPID
  2
AMDT_DM_ADJ
 70
     0
  0
APPID
  2
ITEMNAME
 70
     0
  0
APPID
  2
HATCH_TYPE
 70
     0
  0
APPID
  2
HATCH_DISPLAY
 70
     0
  0
APPID
  2
HATCH_DISTANCE
 70
     0
  0
APPID
  2
ACAD_DSTYLE_DIMBREAK
 70
     0
  0
APPID
  2
ACAD_DSTYLE_DIMJAG
 70
     0
  0
APPID
  2
ACAD_NAV_VCDISPLAY
 70
     0
  0
APPID
  2
GENIUS_GENOBJ-N-FIL_13
 70
     0
  0
APPID
  2
ACAD_EXEMPT_FROM_CAD_STANDARDS
 70
     0
  0
APPID
  2
ACAECLAYERSTANDARD
 70
     0
  0
APPID
  2
ACAD_MLEADERVER
 70
     0
  0
ENDTAB
  0
TABLE
  2
DIMSTYLE
 70
    10
  0
DIMSTYLE
  2
STANDARD
 70
     0
  3

  4

  5

  6

  7

 40
1.0
 41
0.18
 42
0.0625
 43
0.38
 44
0.18
 45
0.0
 46
0.0
 47
0.0
 48
0.0
140
0.18
141
0.09
142
0.0
143
25.399999999999999
144
1.0
145
0.0
146
1.0
147
0.09
 71
     0
 72
     0
 73
     1
 74
     1
 75
     0
 76
     0
 77
     0
 78
     0
170
     0
171
     2
172
     0
173
     0
174
     0
175
     0
176
     0
177
     0
178
     0
  0
DIMSTYLE
  2
ANNOTATIVE
 70
     0
  3

  4

  5

  6

  7

 40
1.0
 41
0.18
 42
0.0625
 43
0.38
 44
0.18
 45
0.0
 46
0.0
 47
0.0
 48
0.0
140
0.18
141
0.09
142
0.0
143
25.399999999999999
144
1.0
145
0.0
146
1.0
147
0.09
 71
     0
 72
     0
 73
     1
 74
     1
 75
     0
 76
     0
 77
     0
 78
     0
170
     0
171
     2
172
     0
173
     0
174
     0
175
     0
176
     0
177
     0
178
     0
  0
DIMSTYLE
  2
BIGT
 70
     0
  3

  4

  5

  6

  7

 40
1.0
 41
2.2299999999999991
 42
0.5
 43
7.0
 44
1.0
 45
0.0
 46
0.0
 47
0.0
 48
0.01
140
2.799999999999998
141
0.0
142
0.0
143
25.399999999999999
144
1.0
145
0.0
146
1.0
147
1.0
 71
     0
 72
     0
 73
     0
 74
     0
 75
     0
 76
     0
 77
     3
 78
     9
170
     0
171
     2
172
     1
173
     0
174
     1
175
     0
176
   256
177
   256
178
    40
  0
DIMSTYLE
  2
AM_ANSI
 70
     0
  3

  4
mm
  5

  6

  7

 40
1.0
 41
0.1
 42
0.05
 43
0.5
 44
0.1
 45
0.0
 46
0.0
 47
0.1
 48
0.1
140
0.12
141
0.0
142
0.0
143
25.399999999999999
144
1.0
145
0.0
146
0.71
147
0.06
 71
     0
 72
     0
 73
     1
 74
     1
 75
     0
 76
     0
 77
     0
 78
     7
170
     0
171
     2
172
     0
173
     0
174
     0
175
     0
176
   256
177
   256
178
     2
  0
DIMSTYLE
  2
AM_ANSI$3
 70
     0
  3

  4
mm
  5

  6

  7

 40
1.0
 41
0.1
 42
0.05
 43
0.5
 44
0.1
 45
0.0
 46
0.0
 47
0.1
 48
0.1
140
0.12
141
0.0
142
0.0
143
25.399999999999999
144
1.0
145
0.0
146
0.71
147
0.06
 71
     0
 72
     0
 73
     1
 74
     1
 75
     0
 76
     0
 77
     0
 78
     7
170
     0
171
     2
172
     0
173
     0
174
     0
175
     0
176
   256
177
   256
178
     2
  0
DIMSTYLE
  2
AM_ANSI$4
 70
     0
  3

  4
mm
  5

  6

  7

 40
1.0
 41
0.1
 42
0.05
 43
0.5
 44
0.1
 45
0.0
 46
0.0
 47
0.1
 48
0.1
140
0.12
141
0.0
142
0.0
143
25.399999999999999
144
1.0
145
0.0
146
0.71
147
0.06
 71
     0
 72
     0
 73
     1
 74
     1
 75
     0
 76
     0
 77
     0
 78
     7
170
     0
171
     2
172
     0
173
     0
174
     0
175
     0
176
   256
177
   256
178
     2
  0
DIMSTYLE
  2
AM_ANSI$7
 70
     0
  3

  4
mm
  5

  6

  7

 40
1.0
 41
0.1
 42
0.05
 43
0.5
 44
0.1
 45
0.0
 46
0.0
 47
0.1
 48
0.1
140
0.24
141
0.0
142
0.0
143
25.399999999999999
144
1.0
145
0.0
146
0.71
147
0.06
 71
     0
 72
     0
 73
     1
 74
     1
 75
     0
 76
     0
 77
     0
 78
     7
170
     0
171
     2
172
     0
173
     0
174
     0
175
     0
176
   256
177
   256
178
     2
  0
DIMSTYLE
  2
AM_ANSI$SF
 70
     0
  3

  4
mm
  5

  6

  7

 40
1.0
 41
0.1
 42
0.05
 43
0.5
 44
0.1
 45
0.0
 46
0.0
 47
0.1
 48
0.1
140
0.12
141
0.0
142
0.0
143
25.399999999999999
144
1.0
145
0.0
146
0.71
147
0.06
 71
     0
 72
     0
 73
     1
 74
     1
 75
     1
 76
     1
 77
     0
 78
     7
170
     0
171
     2
172
     0
173
     0
174
     0
175
     0
176
   256
177
   256
178
     2
  0
DIMSTYLE
  2
AM_ANSI$SH
 70
     0
  3

  4
mm
  5

  6

  7

 40
1.0
 41
0.1
 42
0.05
 43
0.5
 44
0.1
 45
0.0
 46
0.0
 47
0.1
 48
0.1
140
0.12
141
0.0
142
0.0
143
25.399999999999999
144
1.0
145
0.0
146
0.71
147
0.06
 71
     0
 72
     0
 73
     1
 74
     1
 75
     1
 76
     1
 77
     0
 78
     7
170
     0
171
     2
172
     0
173
     1
174
     0
175
     0
176
   256
177
   256
178
     2
  0
ENDTAB
  0
ENDSEC
  0
SECTION
  2
BLOCKS
  0
BLOCK
  8
0
  2
$MODEL_SPACE
 70
     0
 10
0.0
 20
0.0
 30
0.0
  3
$MODEL_SPACE
  1

  0
ENDBLK
  5
37CF
  8
0
  0
BLOCK
 67
     1
  8
0
  2
$PAPER_SPACE
 70
     0
 10
0.0
 20
0.0
 30
0.0
  3
$PAPER_SPACE
  1

  0
ENDBLK
  5
37CB
 67
     1
  8
0
  0
BLOCK
  8
0
  2
_OPEN
 70
     0
 10
0.0
 20
0.0
 30
0.0
  3
_OPEN
  1

  0
LINE
  5
1DA7
  8
0
  6
BYBLOCK
 62
     0
 10
-1.0
 20
0.1666666666666666
 30
0.0
 11
0.0
 21
0.0
 31
0.0
  0
LINE
  5
1DA8
  8
0
  6
BYBLOCK
 62
     0
 10
-1.0
 20
-0.1666666666666666
 30
0.0
 11
0.0
 21
0.0
 31
0.0
  0
LINE
  5
1DA9
  8
0
  6
BYBLOCK
 62
     0
 10
0.0
 20
0.0
 30
0.0
 11
-1.0
 21
0.0
 31
0.0
  0
ENDBLK
  5
1DAA
  8
0
  0
BLOCK
  8
0
  2
_ACMFILLEDHALF
 70
     0
 10
0.0
 20
0.0
 30
0.0
  3
_ACMFILLEDHALF
  1

  0
TRACE
  5
3867
  8
240
 62
     0
 10
-0.8
 20
0.0
 30
0.0
 11
-1.0
 21
0.166666666
 31
0.0
 12
0.0
 22
0.0
 32
0.0
 13
0.0
 23
0.0
 33
0.0
  0
LINE
  5
3868
  8
240
 62
     0
 10
-1.0
 20
0.0
 30
0.0
 11
-0.8
 21
0.0
 31
0.0
  0
ENDBLK
  5
3866
  8
0
  0
ENDSEC
  0
SECTION
  2
ENTITIES
  0
TEXT
  5
16B2
  8
241
  6
CONTINUOUS
 10
-36.881494308516842
 20
55.909614751167958
 30
0.0
 40
5.0
  1
CKB4-C4252-45B-20
  7
YOKO
 11
-36.881494308516842
 21
55.909614751167958
 31
0.0
 73
     1
  0
LINE
  5
1816
  8
250
  6
CONTINUOUS
 10
12.11066316989416
 20
26.0
 30
0.0
 11
-49.99999999999978
 21
26.000000000000011
 31
0.0
  0
LINE
  5
1817
  8
250
  6
CONTINUOUS
 10
-48.99999999999978
 20
23.77000000000001
 30
0.0
 11
-48.999999999999801
 21
-4.5333333333339052
 31
0.0
  0
LINE
  5
181A
  8
250
  6
CONTINUOUS
 10
7.110663993074656
 20
20.999999999999989
 30
0.0
 11
-42.999999999999822
 21
21.000000000000011
 31
0.0
  0
LINE
  5
181B
  8
250
  6
CONTINUOUS
 10
-41.999999999999829
 20
18.77
 30
0.0
 11
-41.999999999999837
 21
-4.533333333333835
 31
0.0
  0
LINE
  5
181E
  8
250
  6
CONTINUOUS
 10
-0.5
 20
-19.500000402331381
 30
0.0
 11
-36.000000000000007
 21
-19.50000040233137
 31
0.0
  0
LINE
  5
181F
  8
250
  6
CONTINUOUS
 10
-0.5
 20
19.50000040233132
 30
0.0
 11
-36.0
 21
19.500000402331331
 31
0.0
  0
LINE
  5
1820
  8
250
  6
CONTINUOUS
 10
-35.000000000000021
 20
-17.27000040233137
 30
0.0
 11
-35.0
 21
17.27000040233133
 31
0.0
  0
LINE
  5
1824
  8
250
  6
CONTINUOUS
 10
15.08933765056706
 20
26.0
 30
0.0
 11
43.0
 21
25.999999999999989
 31
0.0
  0
LINE
  5
1825
  8
250
  6
CONTINUOUS
 10
42.0
 20
23.769999999999978
 30
0.0
 11
41.999999999999993
 21
-4.5333333333333403
 31
0.0
  0
LINE
  5
1828
  8
250
  6
CONTINUOUS
 10
20.089336724489002
 20
21.0
 30
0.0
 11
36.0
 21
20.999999999999989
 31
0.0
  0
LINE
  5
1829
  8
250
  6
CONTINUOUS
 10
35.0
 20
18.769999999999989
 30
0.0
 11
35.0
 21
-4.5333333333333341
 31
0.0
  0
LINE
  5
182C
  8
250
  6
CONTINUOUS
 10
14.80710731074214
 20
-26.282230392098459
 30
0.0
 11
50.0
 21
-26.282230392098469
 31
0.0
  0
LINE
  5
182D
  8
250
  6
CONTINUOUS
 10
14.80710731074214
 20
26.282230392098398
 30
0.0
 11
50.0
 21
26.282230392098391
 31
0.0
  0
LINE
  5
182E
  8
250
  6
CONTINUOUS
 10
48.999999999999979
 20
-24.052230392098469
 30
0.0
 11
49.0
 21
24.052230392098391
 31
0.0
  0
LINE
  5
1832
  8
250
  6
CONTINUOUS
 10
13.953553952890671
 20
26.635783815433481
 30
0.0
 11
8.6791695844016274
 21
31.910169160821031
 31
0.0
  0
ARC
  5
1833
  8
250
  6
CONTINUOUS
 10
19.963961443863809
 20
20.625375211238829
 30
0.0
 40
14.959107174147009
 50
98.549186239965664
 51
126.4508084539972
  0
LINE
  5
1837
  8
250
  6
CONTINUOUS
 10
0.0
 20
20.00000040233132
 30
0.0
 11
0.0000000000000014
 21
43.0
 31
0.0
  0
LINE
  5
1838
  8
250
  6
CONTINUOUS
 10
19.963961443863809
 20
21.125375211238829
 30
0.0
 11
19.963961443863809
 21
43.0
 31
0.0
  0
LINE
  5
1839
  8
250
  6
CONTINUOUS
 10
2.2299999999999991
 20
42.0
 30
0.0
 11
17.733961443863809
 21
42.0
 31
0.0
  0
TEXT
  5
183D
  8
250
  6
CONTINUOUS
 10
40.838282923057321
 20
-3.7999999999999989
 30
0.0
 40
2.799999999999998
  1
\U+220552
 50
90.0
  0
LINE
  5
183E
  8
250
  6
CONTINUOUS
 10
41.62833333333333
 20
23.769999999999978
 30
0.0
 11
42.0
 21
25.999999999999989
 31
0.0
  0
LINE
  5
183F
  8
250
  6
CONTINUOUS
 10
42.371666666666663
 20
23.769999999999978
 30
0.0
 11
42.0
 21
25.999999999999989
 31
0.0
  0
LINE
  5
1840
  8
250
  6
CONTINUOUS
 10
42.0
 20
25.999999999999989
 30
0.0
 11
42.0
 21
23.769999999999978
 31
0.0
  0
TEXT
  5
1841
  8
250
  6
CONTINUOUS
 10
33.838282923057349
 20
-3.7999999999999918
 30
0.0
 40
2.799999999999998
  1
\U+220542
 50
90.0
  0
LINE
  5
1842
  8
250
  6
CONTINUOUS
 10
34.62833333333333
 20
18.769999999999989
 30
0.0
 11
35.0
 21
20.999999999999989
 31
0.0
  0
LINE
  5
1843
  8
250
  6
CONTINUOUS
 10
35.37166666666667
 20
18.769999999999989
 30
0.0
 11
35.0
 21
20.999999999999989
 31
0.0
  0
LINE
  5
1844
  8
250
  6
CONTINUOUS
 10
35.0
 20
20.999999999999989
 30
0.0
 11
35.0
 21
18.769999999999989
 31
0.0
  0
TEXT
  5
1845
  8
250
  6
CONTINUOUS
 10
47.999999999999993
 20
-5.895238095238124
 30
0.0
 40
3.0
  1
\U+2205
 50
90.0
  0
TEXT
  5
1846
  8
250
  6
CONTINUOUS
 10
47.899999999999991
 20
-3.1809523809524101
 30
0.0
 40
2.799999999999998
  1
52.7
 50
90.0
  0
LINE
  5
1847
  8
250
  6
CONTINUOUS
 10
48.62833333333333
 20
24.052230392098391
 30
0.0
 11
49.0
 21
26.282230392098391
 31
0.0
  0
LINE
  5
1848
  8
250
  6
CONTINUOUS
 10
49.37166666666667
 20
24.052230392098391
 30
0.0
 11
49.0
 21
26.282230392098391
 31
0.0
  0
LINE
  5
1849
  8
250
  6
CONTINUOUS
 10
49.0
 20
26.282230392098391
 30
0.0
 11
49.0
 21
24.052230392098391
 31
0.0
  0
LINE
  5
184A
  8
250
  6
CONTINUOUS
 10
49.371666666666663
 20
-24.052230392098469
 30
0.0
 11
48.999999999999979
 21
-26.282230392098469
 31
0.0
  0
LINE
  5
184B
  8
250
  6
CONTINUOUS
 10
48.628333333333302
 20
-24.052230392098469
 30
0.0
 11
48.999999999999979
 21
-26.282230392098469
 31
0.0
  0
LINE
  5
184C
  8
250
  6
CONTINUOUS
 10
48.999999999999979
 20
-26.282230392098469
 30
0.0
 11
48.999999999999979
 21
-24.052230392098469
 31
0.0
  0
TEXT
  5
184D
  8
250
  6
CONTINUOUS
 10
10.17933313995553
 20
34.128792581663362
 30
0.0
 40
2.799999999999998
  1
45\U+00B0
 50
20.105146991762489
  0
LINE
  5
184E
  8
250
  6
CONTINUOUS
 10
11.318759144119159
 20
32.37632535741966
 30
0.0
 11
9.3862763001045586
 21
31.20306231415087
 31
0.0
  0
LINE
  5
184F
  8
250
  6
CONTINUOUS
 10
10.833782868247409
 20
32.939656926112569
 30
0.0
 11
9.3862763001045586
 21
31.20306231415087
 31
0.0
  0
LINE
  5
1850
  8
250
  6
CONTINUOUS
 10
9.3862763001045586
 20
31.20306231415087
 30
0.0
 11
11.07627100618328
 21
32.657991141766111
 31
0.0
  0
LINE
  5
1851
  8
250
  6
CONTINUOUS
 10
17.712461926358351
 20
35.788898710036563
 30
0.0
 11
19.96396144386382
 21
35.584482385385861
 31
0.0
  0
LINE
  5
1852
  8
250
  6
CONTINUOUS
 10
17.76786741660705
 20
35.04763311924286
 30
0.0
 11
19.96396144386382
 21
35.584482385385861
 31
0.0
  0
LINE
  5
1853
  8
250
  6
CONTINUOUS
 10
19.96396144386382
 20
35.584482385385861
 30
0.0
 11
17.740164671482699
 21
35.418265914639711
 31
0.0
  0
TEXT
  5
1854
  8
250
  6
CONTINUOUS
 10
7.3153140552652332
 20
43.0
 30
0.0
 40
2.799999999999998
  1
20
  0
LINE
  5
1855
  8
250
  6
CONTINUOUS
 10
17.733961443863809
 20
42.371666666666663
 30
0.0
 11
19.963961443863809
 21
42.0
 31
0.0
  0
LINE
  5
1856
  8
250
  6
CONTINUOUS
 10
17.733961443863809
 20
41.62833333333333
 30
0.0
 11
19.963961443863809
 21
42.0
 31
0.0
  0
LINE
  5
1857
  8
250
  6
CONTINUOUS
 10
19.963961443863809
 20
42.0
 30
0.0
 11
17.733961443863809
 21
42.0
 31
0.0
  0
LINE
  5
1858
  8
250
  6
CONTINUOUS
 10
2.2299999999999991
 20
41.62833333333333
 30
0.0
 11
0.0000000000000014
 21
42.0
 31
0.0
  0
LINE
  5
1859
  8
250
  6
CONTINUOUS
 10
2.2299999999999991
 20
42.371666666666663
 30
0.0
 11
0.0000000000000014
 21
42.0
 31
0.0
  0
LINE
  5
185A
  8
250
  6
CONTINUOUS
 10
0.0000000000000014
 20
42.0
 30
0.0
 11
2.2299999999999991
 21
42.0
 31
0.0
  0
TEXT
  5
185B
  8
250
  6
CONTINUOUS
 10
-49.999999999999801
 20
-3.800000000000578
 30
0.0
 40
2.799999999999998
  1
\U+220552
 50
90.0
  0
LINE
  5
185C
  8
250
  6
CONTINUOUS
 10
-49.371666666666442
 20
23.77000000000001
 30
0.0
 11
-48.99999999999978
 21
26.000000000000011
 31
0.0
  0
LINE
  5
185D
  8
250
  6
CONTINUOUS
 10
-48.628333333333131
 20
23.77000000000001
 30
0.0
 11
-48.99999999999978
 21
26.000000000000011
 31
0.0
  0
LINE
  5
185E
  8
250
  6
CONTINUOUS
 10
-48.99999999999978
 20
26.000000000000011
 30
0.0
 11
-48.99999999999978
 21
23.77000000000001
 31
0.0
  0
TEXT
  5
185F
  8
250
  6
CONTINUOUS
 10
-42.999999999999822
 20
-3.8000000000005101
 30
0.0
 40
2.799999999999998
  1
\U+220542
 50
90.0
  0
LINE
  5
1860
  8
250
  6
CONTINUOUS
 10
-42.371666666666492
 20
18.77
 30
0.0
 11
-41.999999999999829
 21
21.000000000000011
 31
0.0
  0
LINE
  5
1861
  8
250
  6
CONTINUOUS
 10
-41.62833333333316
 20
18.77
 30
0.0
 11
-41.999999999999829
 21
21.000000000000011
 31
0.0
  0
LINE
  5
1862
  8
250
  6
CONTINUOUS
 10
-41.999999999999829
 20
21.000000000000011
 30
0.0
 11
-41.999999999999829
 21
18.77
 31
0.0
  0
TEXT
  5
1863
  8
250
  6
CONTINUOUS
 10
-36.000000000000007
 20
-3.8285714285714469
 30
0.0
 40
3.0
  1
\U+2205
 50
90.0
  0
TEXT
  5
1864
  8
250
  6
CONTINUOUS
 10
-36.100000000000009
 20
-1.1142857142857341
 30
0.0
 40
2.799999999999998
  1
39
 50
90.0
  0
LINE
  5
1865
  8
250
  6
CONTINUOUS
 10
-35.37166666666667
 20
17.27000040233133
 30
0.0
 11
-35.0
 21
19.500000402331331
 31
0.0
  0
LINE
  5
1866
  8
250
  6
CONTINUOUS
 10
-34.62833333333333
 20
17.27000040233133
 30
0.0
 11
-35.0
 21
19.500000402331331
 31
0.0
  0
LINE
  5
1867
  8
250
  6
CONTINUOUS
 10
-35.0
 20
19.500000402331331
 30
0.0
 11
-35.0
 21
17.27000040233133
 31
0.0
  0
LINE
  5
1868
  8
250
  6
CONTINUOUS
 10
-34.628333333333337
 20
-17.27000040233137
 30
0.0
 11
-35.000000000000021
 21
-19.50000040233137
 31
0.0
  0
LINE
  5
1869
  8
250
  6
CONTINUOUS
 10
-35.371666666666691
 20
-17.27000040233137
 30
0.0
 11
-35.000000000000021
 21
-19.50000040233137
 31
0.0
  0
LINE
  5
186A
  8
250
  6
CONTINUOUS
 10
-35.000000000000021
 20
-19.50000040233137
 30
0.0
 11
-35.000000000000021
 21
-17.27000040233137
 31
0.0
  0
LINE
  5
2A52
  8
245
  6
CENTER2
 10
-27.484650638786889
 20
0.0
 30
0.0
 11
22.827617634603939
 21
0.0
 31
0.0
  0
LINE
  5
2A53
  8
241
  6
CONTINUOUS
 10
19.963961443863809
 20
9.0136500075459196
 30
0.0
 11
14.30710731074214
 21
11.842076666653121
 31
0.0
  0
LINE
  5
2A54
  8
240
  6
CONTINUOUS
 10
19.963961443863809
 20
-20.62537521123889
 30
0.0
 11
14.30710731074214
 21
-26.282230392098459
 31
0.0
  0
LINE
  5
2AD7
  8
240
  6
CONTINUOUS
 10
19.963961443863809
 20
-11.611726135015511
 30
0.0
 11
19.500000402331349
 21
-11.84370662236342
 31
0.0
  0
LINE
  5
2AD8
  8
241
  6
CONTINUOUS
 10
19.500000402331349
 20
-11.84370662236342
 30
0.0
 11
14.30710731074214
 21
-14.440152794122721
 31
0.0
  0
LINE
  5
2B5C
  8
241
  6
CONTINUOUS
 10
14.30710731074214
 20
5.478115752339332
 30
0.0
 11
19.500000402331349
 21
8.0745627790364694
 31
0.0
  0
LINE
  5
2B5D
  8
240
  6
CONTINUOUS
 10
19.500000402331349
 20
8.0745627790364694
 30
0.0
 11
19.963961443863809
 21
8.3065433427691175
 31
0.0
  0
LINE
  5
2B5E
  8
241
  6
CONTINUOUS
 10
19.075420044828199
 20
12.015154585242239
 30
0.0
 11
14.304107986390591
 21
14.400810003280601
 31
0.0
  0
LINE
  5
2B5F
  8
240
  6
CONTINUOUS
 10
19.963961443863809
 20
20.625375211238829
 30
0.0
 11
14.30710731074214
 21
26.282230392098398
 31
0.0
  0
LINE
  5
2B60
  8
240
  6
CONTINUOUS
 10
0.0
 20
-19.500000402331381
 30
0.0
 11
0.0
 21
-11.00000000000003
 31
0.0
  0
LINE
  5
2B61
  8
240
  6
CONTINUOUS
 10
0.0
 20
10.99999999999997
 30
0.0
 11
0.0
 21
19.50000040233132
 31
0.0
  0
LINE
  5
2B62
  8
241
  6
CONTINUOUS
 10
6.5999999642372131
 20
-19.500000402331381
 30
0.0
 11
6.5999999642372131
 21
5.7318819308905162
 31
0.0
  0
LINE
  5
2B63
  8
240
  6
CONTINUOUS
 10
12.89289351552725
 20
-26.282230392098459
 30
0.0
 11
7.2360392659902573
 21
-20.62537521123889
 31
0.0
  0
LINE
  5
2B64
  8
241
  6
CONTINUOUS
 10
14.20000055804848
 20
-25.845456868410139
 30
0.0
 11
14.20000055804848
 21
-25.224981829524069
 31
0.0
  0
LINE
  5
2B65
  8
241
  6
CONTINUOUS
 10
13.0000002682209
 20
-25.845456868410139
 30
0.0
 11
13.0000002682209
 21
-25.224981829524069
 31
0.0
  0
LINE
  5
2B66
  8
240
  6
CONTINUOUS
 10
14.30710731074214
 20
-26.282230392098459
 30
0.0
 11
12.89289351552725
 21
-26.282230392098459
 31
0.0
  0
LINE
  5
2B67
  8
241
  6
CONTINUOUS
 10
13.0000002682209
 20
-25.845456868410139
 30
0.0
 11
14.20000055804848
 21
-25.845456868410139
 31
0.0
  0
LINE
  5
2B68
  8
241
  6
CONTINUOUS
 10
12.89289351552725
 20
-14.440152794122721
 30
0.0
 11
6.913636790364535
 21
-11.450524923742201
 31
0.0
  0
LINE
  5
2B69
  8
241
  6
CONTINUOUS
 10
14.30710731074214
 20
-14.440152794122721
 30
0.0
 11
14.3040331642997
 21
-11.417393900071501
 31
0.0
  0
LINE
  5
2B6A
  8
241
  6
CONTINUOUS
 10
12.89366511628031
 20
-13.68162501603368
 30
0.0
 11
12.89289351552725
 21
-14.440152794122721
 31
0.0
  0
LINE
  5
2DEF
  8
240
  6
CONTINUOUS
 10
7.2360392659902573
 20
-20.62537521123889
 30
0.0
 11
7.2360392659902573
 21
-20.130619075501901
 31
0.0
  0
LINE
  5
2EB4
  8
241
  6
CONTINUOUS
 10
13.0000002682209
 20
-25.224981829524069
 30
0.0
 11
14.20000055804848
 21
-25.224981829524069
 31
0.0
  0
LINE
  5
2F38
  8
241
  6
CONTINUOUS
 10
14.30710731074214
 20
-14.440152794122721
 30
0.0
 11
12.89289351552725
 21
-14.440152794122721
 31
0.0
  0
POLYLINE
  5
2FBD
  8
241
  6
CONTINUOUS
 66
     1
 10
0.0
 20
0.0
 30
0.0
 70
     8
  0
VERTEX
  5
2FBE
  8
241
  6
CONTINUOUS
 10
6.599999999999997
 20
-13.255100000000001
 30
0.0
 70
    32
  0
VERTEX
  5
2FBF
  8
241
  6
CONTINUOUS
 10
6.6001199999999987
 20
-13.2555
 30
0.0
 70
    32
  0
VERTEX
  5
2FC0
  8
241
  6
CONTINUOUS
 10
6.6002400000000003
 20
-13.2559
 30
0.0
 70
    32
  0
VERTEX
  5
2FC1
  8
241
  6
CONTINUOUS
 10
6.6003600000000002
 20
-13.256399999999999
 30
0.0
 70
    32
  0
VERTEX
  5
2FC2
  8
241
  6
CONTINUOUS
 10
6.6004800000000001
 20
-13.2568
 30
0.0
 70
    32
  0
VERTEX
  5
2FC3
  8
241
  6
CONTINUOUS
 10
6.6006
 20
-13.257199999999999
 30
0.0
 70
    32
  0
VERTEX
  5
2FC4
  8
241
  6
CONTINUOUS
 10
6.600719999999999
 20
-13.2577
 30
0.0
 70
    32
  0
VERTEX
  5
2FC5
  8
241
  6
CONTINUOUS
 10
6.600839999999998
 20
-13.258100000000001
 30
0.0
 70
    32
  0
VERTEX
  5
2FC6
  8
241
  6
CONTINUOUS
 10
6.6009599999999979
 20
-13.2585
 30
0.0
 70
    32
  0
VERTEX
  5
2FC7
  8
241
  6
CONTINUOUS
 10
6.6010799999999987
 20
-13.259
 30
0.0
 70
    32
  0
VERTEX
  5
2FC8
  8
241
  6
CONTINUOUS
 10
6.6012000000000004
 20
-13.259399999999999
 30
0.0
 70
    32
  0
VERTEX
  5
2FC9
  8
241
  6
CONTINUOUS
 10
6.6013200000000003
 20
-13.2598
 30
0.0
 70
    32
  0
VERTEX
  5
2FCA
  8
241
  6
CONTINUOUS
 10
6.6014399999999993
 20
-13.260300000000001
 30
0.0
 70
    32
  0
VERTEX
  5
2FCB
  8
241
  6
CONTINUOUS
 10
6.6015600000000001
 20
-13.2607
 30
0.0
 70
    32
  0
VERTEX
  5
2FCC
  8
241
  6
CONTINUOUS
 10
6.6016799999999991
 20
-13.261100000000001
 30
0.0
 70
    32
  0
VERTEX
  5
2FCD
  8
241
  6
CONTINUOUS
 10
6.601799999999999
 20
-13.2616
 30
0.0
 70
    32
  0
VERTEX
  5
2FCE
  8
241
  6
CONTINUOUS
 10
6.601919999999998
 20
-13.262
 30
0.0
 70
    32
  0
VERTEX
  5
2FCF
  8
241
  6
CONTINUOUS
 10
6.602039999999997
 20
-13.2624
 30
0.0
 70
    32
  0
VERTEX
  5
2FD0
  8
241
  6
CONTINUOUS
 10
6.6021599999999987
 20
-13.2629
 30
0.0
 70
    32
  0
VERTEX
  5
2FD1
  8
241
  6
CONTINUOUS
 10
6.6022800000000004
 20
-13.263299999999999
 30
0.0
 70
    32
  0
VERTEX
  5
2FD2
  8
241
  6
CONTINUOUS
 10
6.6024000000000003
 20
-13.2637
 30
0.0
 70
    32
  0
VERTEX
  5
2FD3
  8
241
  6
CONTINUOUS
 10
6.6025199999999993
 20
-13.264200000000001
 30
0.0
 70
    32
  0
VERTEX
  5
2FD4
  8
241
  6
CONTINUOUS
 10
6.6026399999999992
 20
-13.2646
 30
0.0
 70
    32
  0
VERTEX
  5
2FD5
  8
241
  6
CONTINUOUS
 10
6.60276
 20
-13.265000000000001
 30
0.0
 70
    32
  0
VERTEX
  5
2FD6
  8
241
  6
CONTINUOUS
 10
6.6028799999999981
 20
-13.265499999999999
 30
0.0
 70
    32
  0
VERTEX
  5
2FD7
  8
241
  6
CONTINUOUS
 10
6.6029999999999971
 20
-13.2659
 30
0.0
 70
    32
  0
VERTEX
  5
2FD8
  8
241
  6
CONTINUOUS
 10
6.603119999999997
 20
-13.266299999999999
 30
0.0
 70
    32
  0
VERTEX
  5
2FD9
  8
241
  6
CONTINUOUS
 10
6.6032399999999987
 20
-13.2668
 30
0.0
 70
    32
  0
VERTEX
  5
2FDA
  8
241
  6
CONTINUOUS
 10
6.6033600000000003
 20
-13.267200000000001
 30
0.0
 70
    32
  0
VERTEX
  5
2FDB
  8
241
  6
CONTINUOUS
 10
6.6034800000000002
 20
-13.2676
 30
0.0
 70
    32
  0
VERTEX
  5
2FDC
  8
241
  6
CONTINUOUS
 10
6.6036000000000001
 20
-13.2681
 30
0.0
 70
    32
  0
VERTEX
  5
2FDD
  8
241
  6
CONTINUOUS
 10
6.60372
 20
-13.2685
 30
0.0
 70
    32
  0
VERTEX
  5
2FDE
  8
241
  6
CONTINUOUS
 10
6.603839999999999
 20
-13.2689
 30
0.0
 70
    32
  0
VERTEX
  5
2FDF
  8
241
  6
CONTINUOUS
 10
6.6039599999999981
 20
-13.269399999999999
 30
0.0
 70
    32
  0
VERTEX
  5
2FE0
  8
241
  6
CONTINUOUS
 10
6.6040899999999993
 20
-13.2698
 30
0.0
 70
    32
  0
VERTEX
  5
2FE1
  8
241
  6
CONTINUOUS
 10
6.604210000000001
 20
-13.270200000000001
 30
0.0
 70
    32
  0
VERTEX
  5
2FE2
  8
241
  6
CONTINUOUS
 10
6.60433
 20
-13.2707
 30
0.0
 70
    32
  0
VERTEX
  5
2FE3
  8
241
  6
CONTINUOUS
 10
6.604449999999999
 20
-13.271100000000001
 30
0.0
 70
    32
  0
VERTEX
  5
2FE4
  8
241
  6
CONTINUOUS
 10
6.6045699999999981
 20
-13.2715
 30
0.0
 70
    32
  0
VERTEX
  5
2FE5
  8
241
  6
CONTINUOUS
 10
6.6046899999999971
 20
-13.272
 30
0.0
 70
    32
  0
VERTEX
  5
2FE6
  8
241
  6
CONTINUOUS
 10
6.6048099999999987
 20
-13.272399999999999
 30
0.0
 70
    32
  0
VERTEX
  5
2FE7
  8
241
  6
CONTINUOUS
 10
6.6049300000000004
 20
-13.2728
 30
0.0
 70
    32
  0
VERTEX
  5
2FE8
  8
241
  6
CONTINUOUS
 10
6.6050500000000003
 20
-13.273300000000001
 30
0.0
 70
    32
  0
VERTEX
  5
2FE9
  8
241
  6
CONTINUOUS
 10
6.6051799999999981
 20
-13.2737
 30
0.0
 70
    32
  0
VERTEX
  5
2FEA
  8
241
  6
CONTINUOUS
 10
6.6052999999999971
 20
-13.274100000000001
 30
0.0
 70
    32
  0
VERTEX
  5
2FEB
  8
241
  6
CONTINUOUS
 10
6.6054199999999987
 20
-13.2746
 30
0.0
 70
    32
  0
VERTEX
  5
2FEC
  8
241
  6
CONTINUOUS
 10
6.6055399999999986
 20
-13.275
 30
0.0
 70
    32
  0
VERTEX
  5
2FED
  8
241
  6
CONTINUOUS
 10
6.6056600000000003
 20
-13.275399999999999
 30
0.0
 70
    32
  0
VERTEX
  5
2FEE
  8
241
  6
CONTINUOUS
 10
6.6057800000000002
 20
-13.2759
 30
0.0
 70
    32
  0
VERTEX
  5
2FEF
  8
241
  6
CONTINUOUS
 10
6.6059000000000001
 20
-13.276300000000001
 30
0.0
 70
    32
  0
VERTEX
  5
2FF0
  8
241
  6
CONTINUOUS
 10
6.6060299999999987
 20
-13.2767
 30
0.0
 70
    32
  0
VERTEX
  5
2FF1
  8
241
  6
CONTINUOUS
 10
6.6061500000000004
 20
-13.277200000000001
 30
0.0
 70
    32
  0
VERTEX
  5
2FF2
  8
241
  6
CONTINUOUS
 10
6.6062700000000003
 20
-13.2776
 30
0.0
 70
    32
  0
VERTEX
  5
2FF3
  8
241
  6
CONTINUOUS
 10
6.6063899999999993
 20
-13.278
 30
0.0
 70
    32
  0
VERTEX
  5
2FF4
  8
241
  6
CONTINUOUS
 10
6.6065100000000001
 20
-13.278499999999999
 30
0.0
 70
    32
  0
VERTEX
  5
2FF5
  8
241
  6
CONTINUOUS
 10
6.60663
 20
-13.2789
 30
0.0
 70
    32
  0
VERTEX
  5
2FF6
  8
241
  6
CONTINUOUS
 10
6.6067600000000004
 20
-13.279299999999999
 30
0.0
 70
    32
  0
VERTEX
  5
2FF7
  8
241
  6
CONTINUOUS
 10
6.6068800000000003
 20
-13.2798
 30
0.0
 70
    32
  0
VERTEX
  5
2FF8
  8
241
  6
CONTINUOUS
 10
6.6070000000000002
 20
-13.280200000000001
 30
0.0
 70
    32
  0
VERTEX
  5
2FF9
  8
241
  6
CONTINUOUS
 10
6.6071200000000001
 20
-13.2806
 30
0.0
 70
    32
  0
VERTEX
  5
2FFA
  8
241
  6
CONTINUOUS
 10
6.6072399999999991
 20
-13.2811
 30
0.0
 70
    32
  0
VERTEX
  5
2FFB
  8
241
  6
CONTINUOUS
 10
6.6073699999999986
 20
-13.281499999999999
 30
0.0
 70
    32
  0
VERTEX
  5
2FFC
  8
241
  6
CONTINUOUS
 10
6.6074900000000003
 20
-13.2819
 30
0.0
 70
    32
  0
VERTEX
  5
2FFD
  8
241
  6
CONTINUOUS
 10
6.6076100000000002
 20
-13.282400000000001
 30
0.0
 70
    32
  0
VERTEX
  5
2FFE
  8
241
  6
CONTINUOUS
 10
6.6077300000000001
 20
-13.2828
 30
0.0
 70
    32
  0
VERTEX
  5
2FFF
  8
241
  6
CONTINUOUS
 10
6.6078599999999987
 20
-13.283200000000001
 30
0.0
 70
    32
  0
VERTEX
  5
3000
  8
241
  6
CONTINUOUS
 10
6.6079800000000004
 20
-13.2837
 30
0.0
 70
    32
  0
VERTEX
  5
3001
  8
241
  6
CONTINUOUS
 10
6.6081000000000003
 20
-13.2841
 30
0.0
 70
    32
  0
VERTEX
  5
3002
  8
241
  6
CONTINUOUS
 10
6.6082199999999993
 20
-13.2845
 30
0.0
 70
    32
  0
VERTEX
  5
3003
  8
241
  6
CONTINUOUS
 10
6.6083499999999971
 20
-13.2849
 30
0.0
 70
    32
  0
VERTEX
  5
3004
  8
241
  6
CONTINUOUS
 10
6.6084699999999987
 20
-13.285399999999999
 30
0.0
 70
    32
  0
VERTEX
  5
3005
  8
241
  6
CONTINUOUS
 10
6.6085899999999986
 20
-13.2858
 30
0.0
 70
    32
  0
VERTEX
  5
3006
  8
241
  6
CONTINUOUS
 10
6.6087100000000003
 20
-13.286199999999999
 30
0.0
 70
    32
  0
VERTEX
  5
3007
  8
241
  6
CONTINUOUS
 10
6.608839999999998
 20
-13.2867
 30
0.0
 70
    32
  0
VERTEX
  5
3008
  8
241
  6
CONTINUOUS
 10
6.6089599999999979
 20
-13.287100000000001
 30
0.0
 70
    32
  0
VERTEX
  5
3009
  8
241
  6
CONTINUOUS
 10
6.6090799999999987
 20
-13.2875
 30
0.0
 70
    32
  0
VERTEX
  5
300A
  8
241
  6
CONTINUOUS
 10
6.6092000000000004
 20
-13.288
 30
0.0
 70
    32
  0
VERTEX
  5
300B
  8
241
  6
CONTINUOUS
 10
6.609329999999999
 20
-13.288399999999999
 30
0.0
 70
    32
  0
VERTEX
  5
300C
  8
241
  6
CONTINUOUS
 10
6.609449999999998
 20
-13.2888
 30
0.0
 70
    32
  0
VERTEX
  5
300D
  8
241
  6
CONTINUOUS
 10
6.6095699999999971
 20
-13.289300000000001
 30
0.0
 70
    32
  0
VERTEX
  5
300E
  8
241
  6
CONTINUOUS
 10
6.6097000000000001
 20
-13.2897
 30
0.0
 70
    32
  0
VERTEX
  5
300F
  8
241
  6
CONTINUOUS
 10
6.60982
 20
-13.290100000000001
 30
0.0
 70
    32
  0
VERTEX
  5
3010
  8
241
  6
CONTINUOUS
 10
6.609939999999999
 20
-13.2906
 30
0.0
 70
    32
  0
VERTEX
  5
3011
  8
241
  6
CONTINUOUS
 10
6.610059999999998
 20
-13.291
 30
0.0
 70
    32
  0
VERTEX
  5
3012
  8
241
  6
CONTINUOUS
 10
6.6101899999999993
 20
-13.291399999999999
 30
0.0
 70
    32
  0
VERTEX
  5
3013
  8
241
  6
CONTINUOUS
 10
6.610310000000001
 20
-13.2919
 30
0.0
 70
    32
  0
VERTEX
  5
3014
  8
241
  6
CONTINUOUS
 10
6.61043
 20
-13.292299999999999
 30
0.0
 70
    32
  0
VERTEX
  5
3015
  8
241
  6
CONTINUOUS
 10
6.6105600000000004
 20
-13.2927
 30
0.0
 70
    32
  0
VERTEX
  5
3016
  8
241
  6
CONTINUOUS
 10
6.6106800000000003
 20
-13.293200000000001
 30
0.0
 70
    32
  0
VERTEX
  5
3017
  8
241
  6
CONTINUOUS
 10
6.6108000000000002
 20
-13.2936
 30
0.0
 70
    32
  0
VERTEX
  5
3018
  8
241
  6
CONTINUOUS
 10
6.610929999999998
 20
-13.294
 30
0.0
 70
    32
  0
VERTEX
  5
3019
  8
241
  6
CONTINUOUS
 10
6.611049999999997
 20
-13.294499999999999
 30
0.0
 70
    32
  0
VERTEX
  5
301A
  8
241
  6
CONTINUOUS
 10
6.6111699999999987
 20
-13.2949
 30
0.0
 70
    32
  0
VERTEX
  5
301B
  8
241
  6
CONTINUOUS
 10
6.6112999999999991
 20
-13.295299999999999
 30
0.0
 70
    32
  0
VERTEX
  5
301C
  8
241
  6
CONTINUOUS
 10
6.6114199999999981
 20
-13.2958
 30
0.0
 70
    32
  0
VERTEX
  5
301D
  8
241
  6
CONTINUOUS
 10
6.6115500000000003
 20
-13.296200000000001
 30
0.0
 70
    32
  0
VERTEX
  5
301E
  8
241
  6
CONTINUOUS
 10
6.6116699999999993
 20
-13.2966
 30
0.0
 70
    32
  0
VERTEX
  5
301F
  8
241
  6
CONTINUOUS
 10
6.6117899999999992
 20
-13.2971
 30
0.0
 70
    32
  0
VERTEX
  5
3020
  8
241
  6
CONTINUOUS
 10
6.6119199999999987
 20
-13.297499999999999
 30
0.0
 70
    32
  0
VERTEX
  5
3021
  8
241
  6
CONTINUOUS
 10
6.6120399999999986
 20
-13.2979
 30
0.0
 70
    32
  0
VERTEX
  5
3022
  8
241
  6
CONTINUOUS
 10
6.6121600000000003
 20
-13.298400000000001
 30
0.0
 70
    32
  0
VERTEX
  5
3023
  8
241
  6
CONTINUOUS
 10
6.612289999999998
 20
-13.2988
 30
0.0
 70
    32
  0
VERTEX
  5
3024
  8
241
  6
CONTINUOUS
 10
6.6124099999999979
 20
-13.299200000000001
 30
0.0
 70
    32
  0
VERTEX
  5
3025
  8
241
  6
CONTINUOUS
 10
6.6125399999999992
 20
-13.2997
 30
0.0
 70
    32
  0
VERTEX
  5
3026
  8
241
  6
CONTINUOUS
 10
6.61266
 20
-13.3001
 30
0.0
 70
    32
  0
VERTEX
  5
3027
  8
241
  6
CONTINUOUS
 10
6.6127799999999981
 20
-13.3005
 30
0.0
 70
    32
  0
VERTEX
  5
3028
  8
241
  6
CONTINUOUS
 10
6.6129100000000003
 20
-13.301
 30
0.0
 70
    32
  0
VERTEX
  5
3029
  8
241
  6
CONTINUOUS
 10
6.6130300000000002
 20
-13.301399999999999
 30
0.0
 70
    32
  0
VERTEX
  5
302A
  8
241
  6
CONTINUOUS
 10
6.6131599999999979
 20
-13.3018
 30
0.0
 70
    32
  0
VERTEX
  5
302B
  8
241
  6
CONTINUOUS
 10
6.6132799999999987
 20
-13.302300000000001
 30
0.0
 70
    32
  0
VERTEX
  5
302C
  8
241
  6
CONTINUOUS
 10
6.61341
 20
-13.3027
 30
0.0
 70
    32
  0
VERTEX
  5
302D
  8
241
  6
CONTINUOUS
 10
6.613529999999999
 20
-13.303100000000001
 30
0.0
 70
    32
  0
VERTEX
  5
302E
  8
241
  6
CONTINUOUS
 10
6.613649999999998
 20
-13.303599999999999
 30
0.0
 70
    32
  0
VERTEX
  5
302F
  8
241
  6
CONTINUOUS
 10
6.6137800000000002
 20
-13.304
 30
0.0
 70
    32
  0
VERTEX
  5
3030
  8
241
  6
CONTINUOUS
 10
6.6139000000000001
 20
-13.304399999999999
 30
0.0
 70
    32
  0
VERTEX
  5
3031
  8
241
  6
CONTINUOUS
 10
6.6140299999999987
 20
-13.3049
 30
0.0
 70
    32
  0
VERTEX
  5
3032
  8
241
  6
CONTINUOUS
 10
6.6141500000000004
 20
-13.305300000000001
 30
0.0
 70
    32
  0
VERTEX
  5
3033
  8
241
  6
CONTINUOUS
 10
6.614279999999999
 20
-13.3057
 30
0.0
 70
    32
  0
VERTEX
  5
3034
  8
241
  6
CONTINUOUS
 10
6.6143999999999981
 20
-13.3062
 30
0.0
 70
    32
  0
VERTEX
  5
3035
  8
241
  6
CONTINUOUS
 10
6.6145300000000002
 20
-13.3066
 30
0.0
 70
    32
  0
VERTEX
  5
3036
  8
241
  6
CONTINUOUS
 10
6.6146500000000001
 20
-13.307
 30
0.0
 70
    32
  0
VERTEX
  5
3037
  8
241
  6
CONTINUOUS
 10
6.6147799999999979
 20
-13.307499999999999
 30
0.0
 70
    32
  0
VERTEX
  5
3038
  8
241
  6
CONTINUOUS
 10
6.6148999999999987
 20
-13.3079
 30
0.0
 70
    32
  0
VERTEX
  5
3039
  8
241
  6
CONTINUOUS
 10
6.6150299999999991
 20
-13.308299999999999
 30
0.0
 70
    32
  0
VERTEX
  5
303A
  8
241
  6
CONTINUOUS
 10
6.6151499999999981
 20
-13.3088
 30
0.0
 70
    32
  0
VERTEX
  5
303B
  8
241
  6
CONTINUOUS
 10
6.6152800000000003
 20
-13.309200000000001
 30
0.0
 70
    32
  0
VERTEX
  5
303C
  8
241
  6
CONTINUOUS
 10
6.6154000000000002
 20
-13.3096
 30
0.0
 70
    32
  0
VERTEX
  5
303D
  8
241
  6
CONTINUOUS
 10
6.6155299999999979
 20
-13.3101
 30
0.0
 70
    32
  0
SEQEND
  5
303E
  8
241
  6
CONTINUOUS
  0
LINE
  5
303F
  8
241
  6
CONTINUOUS
 10
13.0000002682209
 20
-11.46780513226989
 30
0.0
 11
13.0000002682209
 21
-7.5249806977808751
 31
0.0
  0
LINE
  5
3040
  8
241
  6
CONTINUOUS
 10
14.20000055804848
 20
-11.46780513226989
 30
0.0
 11
14.20000055804848
 21
-7.5249806977808751
 31
0.0
  0
LINE
  5
3041
  8
241
  6
CONTINUOUS
 10
12.38063882194897
 20
-11.1574561922481
 30
0.0
 11
12.89366511628031
 21
-13.68162501603368
 31
0.0
  0
LINE
  5
3042
  8
241
  6
CONTINUOUS
 10
14.3040331642997
 20
-11.417393900071501
 30
0.0
 11
12.89366511628031
 21
-13.68162501603368
 31
0.0
  0
LINE
  5
3043
  8
241
  6
CONTINUOUS
 10
13.0000002682209
 20
-11.46780513226989
 30
0.0
 11
14.20000055804848
 21
-11.46780513226989
 31
0.0
  0
LINE
  5
3044
  8
241
  6
CONTINUOUS
 10
13.0000002682209
 20
-7.5249806977808751
 30
0.0
 11
14.20000055804848
 21
-7.5249806977808751
 31
0.0
  0
LINE
  5
3045
  8
240
  6
CONTINUOUS
 10
12.89289351552725
 20
26.282230392098398
 30
0.0
 11
7.2360392659902573
 21
20.625375211238829
 31
0.0
  0
LINE
  5
3046
  8
241
  6
CONTINUOUS
 10
7.2360392659902573
 20
9.0136500075459196
 30
0.0
 11
7.6264943927526421
 21
11.76611147820946
 31
0.0
  0
LINE
  5
3047
  8
241
  6
CONTINUOUS
 10
12.89289351552725
 20
11.842076666653121
 30
0.0
 11
7.2360392659902573
 21
9.0136500075459196
 31
0.0
  0
LINE
  5
3048
  8
241
  6
CONTINUOUS
 10
6.5999999642372122
 20
7.5077002838048346
 30
0.0
 11
6.5999999642372131
 21
19.50000040233132
 31
0.0
  0
LINE
  5
3049
  8
241
  6
CONTINUOUS
 10
7.2360392659902573
 20
8.3065433427691175
 30
0.0
 11
12.89289351552725
 21
5.478115752339332
 31
0.0
  0
LINE
  5
304A
  8
241
  6
CONTINUOUS
 10
7.2360392659902573
 20
9.0136500075459196
 30
0.0
 11
7.2360392659902573
 21
8.3065433427691175
 31
0.0
  0
LINE
  5
304C
  8
241
  6
CONTINUOUS
 10
12.89289351552725
 20
5.478115752339332
 30
0.0
 11
14.30710731074214
 21
5.478115752339332
 31
0.0
  0
LINE
  5
304D
  8
241
  6
CONTINUOUS
 10
7.2360392659902573
 20
19.211161881685221
 30
0.0
 11
8.3272093906998617
 21
18.119992688298201
 31
0.0
  0
LINE
  5
3090
  8
240
  6
CONTINUOUS
 10
7.2360392659902573
 20
20.625375211238829
 30
0.0
 11
7.2360392659902573
 21
20.17086564300098
 31
0.0
  0
LINE
  5
3091
  8
241
  6
CONTINUOUS
 10
7.2360392659902573
 20
20.17086564300098
 30
0.0
 11
7.2360392659902573
 21
19.211161881685221
 31
0.0
  0
POLYLINE
  5
3092
  8
241
  6
CONTINUOUS
 66
     1
 10
0.0
 20
0.0
 30
0.0
 70
     8
  0
VERTEX
  5
3093
  8
241
  6
CONTINUOUS
 10
6.599999999999997
 20
19.0136
 30
0.0
 70
    32
  0
VERTEX
  5
3094
  8
241
  6
CONTINUOUS
 10
6.6001199999999987
 20
19.0136
 30
0.0
 70
    32
  0
VERTEX
  5
3095
  8
241
  6
CONTINUOUS
 10
6.6002400000000003
 20
19.0136
 30
0.0
 70
    32
  0
VERTEX
  5
3096
  8
241
  6
CONTINUOUS
 10
6.6003600000000002
 20
19.0136
 30
0.0
 70
    32
  0
VERTEX
  5
3097
  8
241
  6
CONTINUOUS
 10
6.6004800000000001
 20
19.0136
 30
0.0
 70
    32
  0
VERTEX
  5
3098
  8
241
  6
CONTINUOUS
 10
6.6006
 20
19.0137
 30
0.0
 70
    32
  0
VERTEX
  5
3099
  8
241
  6
CONTINUOUS
 10
6.600719999999999
 20
19.0137
 30
0.0
 70
    32
  0
VERTEX
  5
309A
  8
241
  6
CONTINUOUS
 10
6.600839999999998
 20
19.0137
 30
0.0
 70
    32
  0
VERTEX
  5
309B
  8
241
  6
CONTINUOUS
 10
6.6009599999999979
 20
19.0137
 30
0.0
 70
    32
  0
VERTEX
  5
309C
  8
241
  6
CONTINUOUS
 10
6.6010799999999987
 20
19.0137
 30
0.0
 70
    32
  0
VERTEX
  5
309D
  8
241
  6
CONTINUOUS
 10
6.6012000000000004
 20
19.0137
 30
0.0
 70
    32
  0
VERTEX
  5
309E
  8
241
  6
CONTINUOUS
 10
6.6013200000000003
 20
19.0137
 30
0.0
 70
    32
  0
VERTEX
  5
309F
  8
241
  6
CONTINUOUS
 10
6.6014399999999993
 20
19.0137
 30
0.0
 70
    32
  0
VERTEX
  5
30A0
  8
241
  6
CONTINUOUS
 10
6.6015600000000001
 20
19.0137
 30
0.0
 70
    32
  0
VERTEX
  5
30A1
  8
241
  6
CONTINUOUS
 10
6.6016799999999991
 20
19.0137
 30
0.0
 70
    32
  0
VERTEX
  5
30A2
  8
241
  6
CONTINUOUS
 10
6.601799999999999
 20
19.0138
 30
0.0
 70
    32
  0
VERTEX
  5
30A3
  8
241
  6
CONTINUOUS
 10
6.601919999999998
 20
19.0138
 30
0.0
 70
    32
  0
VERTEX
  5
30A4
  8
241
  6
CONTINUOUS
 10
6.602039999999997
 20
19.0138
 30
0.0
 70
    32
  0
VERTEX
  5
30A5
  8
241
  6
CONTINUOUS
 10
6.6021599999999987
 20
19.0138
 30
0.0
 70
    32
  0
VERTEX
  5
30A6
  8
241
  6
CONTINUOUS
 10
6.6022800000000004
 20
19.0138
 30
0.0
 70
    32
  0
VERTEX
  5
30A7
  8
241
  6
CONTINUOUS
 10
6.6024000000000003
 20
19.0138
 30
0.0
 70
    32
  0
VERTEX
  5
30A8
  8
241
  6
CONTINUOUS
 10
6.6025199999999993
 20
19.0138
 30
0.0
 70
    32
  0
VERTEX
  5
30A9
  8
241
  6
CONTINUOUS
 10
6.6026399999999992
 20
19.0138
 30
0.0
 70
    32
  0
VERTEX
  5
30AA
  8
241
  6
CONTINUOUS
 10
6.60276
 20
19.0138
 30
0.0
 70
    32
  0
VERTEX
  5
30AB
  8
241
  6
CONTINUOUS
 10
6.6028799999999981
 20
19.0139
 30
0.0
 70
    32
  0
VERTEX
  5
30AC
  8
241
  6
CONTINUOUS
 10
6.6029999999999971
 20
19.0139
 30
0.0
 70
    32
  0
VERTEX
  5
30AD
  8
241
  6
CONTINUOUS
 10
6.603119999999997
 20
19.0139
 30
0.0
 70
    32
  0
VERTEX
  5
30AE
  8
241
  6
CONTINUOUS
 10
6.6032399999999987
 20
19.0139
 30
0.0
 70
    32
  0
VERTEX
  5
30AF
  8
241
  6
CONTINUOUS
 10
6.6033600000000003
 20
19.0139
 30
0.0
 70
    32
  0
VERTEX
  5
30B0
  8
241
  6
CONTINUOUS
 10
6.6034800000000002
 20
19.0139
 30
0.0
 70
    32
  0
VERTEX
  5
30B1
  8
241
  6
CONTINUOUS
 10
6.6036000000000001
 20
19.0139
 30
0.0
 70
    32
  0
VERTEX
  5
30B2
  8
241
  6
CONTINUOUS
 10
6.60372
 20
19.0139
 30
0.0
 70
    32
  0
VERTEX
  5
30B3
  8
241
  6
CONTINUOUS
 10
6.603839999999999
 20
19.0139
 30
0.0
 70
    32
  0
VERTEX
  5
30B4
  8
241
  6
CONTINUOUS
 10
6.6039599999999981
 20
19.013999999999999
 30
0.0
 70
    32
  0
VERTEX
  5
30B5
  8
241
  6
CONTINUOUS
 10
6.6040899999999993
 20
19.013999999999999
 30
0.0
 70
    32
  0
VERTEX
  5
30B6
  8
241
  6
CONTINUOUS
 10
6.604210000000001
 20
19.013999999999999
 30
0.0
 70
    32
  0
VERTEX
  5
30B7
  8
241
  6
CONTINUOUS
 10
6.60433
 20
19.013999999999999
 30
0.0
 70
    32
  0
VERTEX
  5
30B8
  8
241
  6
CONTINUOUS
 10
6.604449999999999
 20
19.013999999999999
 30
0.0
 70
    32
  0
VERTEX
  5
30B9
  8
241
  6
CONTINUOUS
 10
6.6045699999999981
 20
19.013999999999999
 30
0.0
 70
    32
  0
VERTEX
  5
30BA
  8
241
  6
CONTINUOUS
 10
6.6046899999999971
 20
19.013999999999999
 30
0.0
 70
    32
  0
VERTEX
  5
30BB
  8
241
  6
CONTINUOUS
 10
6.6048099999999987
 20
19.013999999999999
 30
0.0
 70
    32
  0
VERTEX
  5
30BC
  8
241
  6
CONTINUOUS
 10
6.6049300000000004
 20
19.013999999999999
 30
0.0
 70
    32
  0
VERTEX
  5
30BD
  8
241
  6
CONTINUOUS
 10
6.6050500000000003
 20
19.014099999999999
 30
0.0
 70
    32
  0
VERTEX
  5
30BE
  8
241
  6
CONTINUOUS
 10
6.6051799999999981
 20
19.014099999999999
 30
0.0
 70
    32
  0
VERTEX
  5
30BF
  8
241
  6
CONTINUOUS
 10
6.6052999999999971
 20
19.014099999999999
 30
0.0
 70
    32
  0
VERTEX
  5
30C0
  8
241
  6
CONTINUOUS
 10
6.6054199999999987
 20
19.014099999999999
 30
0.0
 70
    32
  0
VERTEX
  5
30C1
  8
241
  6
CONTINUOUS
 10
6.6055399999999986
 20
19.014099999999999
 30
0.0
 70
    32
  0
VERTEX
  5
30C2
  8
241
  6
CONTINUOUS
 10
6.6056600000000003
 20
19.014099999999999
 30
0.0
 70
    32
  0
VERTEX
  5
30C3
  8
241
  6
CONTINUOUS
 10
6.6057800000000002
 20
19.014099999999999
 30
0.0
 70
    32
  0
VERTEX
  5
30C4
  8
241
  6
CONTINUOUS
 10
6.6059000000000001
 20
19.014099999999999
 30
0.0
 70
    32
  0
VERTEX
  5
30C5
  8
241
  6
CONTINUOUS
 10
6.6060299999999987
 20
19.014199999999999
 30
0.0
 70
    32
  0
VERTEX
  5
30C6
  8
241
  6
CONTINUOUS
 10
6.6061500000000004
 20
19.014199999999999
 30
0.0
 70
    32
  0
VERTEX
  5
30C7
  8
241
  6
CONTINUOUS
 10
6.6062700000000003
 20
19.014199999999999
 30
0.0
 70
    32
  0
VERTEX
  5
30C8
  8
241
  6
CONTINUOUS
 10
6.6063899999999993
 20
19.014199999999999
 30
0.0
 70
    32
  0
VERTEX
  5
30C9
  8
241
  6
CONTINUOUS
 10
6.6065100000000001
 20
19.014199999999999
 30
0.0
 70
    32
  0
VERTEX
  5
30CA
  8
241
  6
CONTINUOUS
 10
6.60663
 20
19.014199999999999
 30
0.0
 70
    32
  0
VERTEX
  5
30CB
  8
241
  6
CONTINUOUS
 10
6.6067600000000004
 20
19.014199999999999
 30
0.0
 70
    32
  0
VERTEX
  5
30CC
  8
241
  6
CONTINUOUS
 10
6.6068800000000003
 20
19.014199999999999
 30
0.0
 70
    32
  0
VERTEX
  5
30CD
  8
241
  6
CONTINUOUS
 10
6.6070000000000002
 20
19.014299999999999
 30
0.0
 70
    32
  0
VERTEX
  5
30CE
  8
241
  6
CONTINUOUS
 10
6.6071200000000001
 20
19.014299999999999
 30
0.0
 70
    32
  0
VERTEX
  5
30CF
  8
241
  6
CONTINUOUS
 10
6.6072399999999991
 20
19.014299999999999
 30
0.0
 70
    32
  0
VERTEX
  5
30D0
  8
241
  6
CONTINUOUS
 10
6.6073699999999986
 20
19.014299999999999
 30
0.0
 70
    32
  0
VERTEX
  5
30D1
  8
241
  6
CONTINUOUS
 10
6.6074900000000003
 20
19.014299999999999
 30
0.0
 70
    32
  0
VERTEX
  5
30D2
  8
241
  6
CONTINUOUS
 10
6.6076100000000002
 20
19.014299999999999
 30
0.0
 70
    32
  0
VERTEX
  5
30D3
  8
241
  6
CONTINUOUS
 10
6.6077300000000001
 20
19.014299999999999
 30
0.0
 70
    32
  0
VERTEX
  5
30D4
  8
241
  6
CONTINUOUS
 10
6.6078599999999987
 20
19.014299999999999
 30
0.0
 70
    32
  0
VERTEX
  5
30D5
  8
241
  6
CONTINUOUS
 10
6.6079800000000004
 20
19.014299999999999
 30
0.0
 70
    32
  0
VERTEX
  5
30D6
  8
241
  6
CONTINUOUS
 10
6.6081000000000003
 20
19.014399999999998
 30
0.0
 70
    32
  0
VERTEX
  5
30D7
  8
241
  6
CONTINUOUS
 10
6.6082199999999993
 20
19.014399999999998
 30
0.0
 70
    32
  0
VERTEX
  5
30D8
  8
241
  6
CONTINUOUS
 10
6.6083499999999971
 20
19.014399999999998
 30
0.0
 70
    32
  0
VERTEX
  5
30D9
  8
241
  6
CONTINUOUS
 10
6.6084699999999987
 20
19.014399999999998
 30
0.0
 70
    32
  0
VERTEX
  5
30DA
  8
241
  6
CONTINUOUS
 10
6.6085899999999986
 20
19.014399999999998
 30
0.0
 70
    32
  0
VERTEX
  5
30DB
  8
241
  6
CONTINUOUS
 10
6.6087100000000003
 20
19.014399999999998
 30
0.0
 70
    32
  0
VERTEX
  5
30DC
  8
241
  6
CONTINUOUS
 10
6.608839999999998
 20
19.014399999999998
 30
0.0
 70
    32
  0
VERTEX
  5
30DD
  8
241
  6
CONTINUOUS
 10
6.6089599999999979
 20
19.014500000000002
 30
0.0
 70
    32
  0
VERTEX
  5
30DE
  8
241
  6
CONTINUOUS
 10
6.6090799999999987
 20
19.014500000000002
 30
0.0
 70
    32
  0
VERTEX
  5
30DF
  8
241
  6
CONTINUOUS
 10
6.6092000000000004
 20
19.014500000000002
 30
0.0
 70
    32
  0
VERTEX
  5
30E0
  8
241
  6
CONTINUOUS
 10
6.609329999999999
 20
19.014500000000002
 30
0.0
 70
    32
  0
VERTEX
  5
30E1
  8
241
  6
CONTINUOUS
 10
6.609449999999998
 20
19.014500000000002
 30
0.0
 70
    32
  0
VERTEX
  5
30E2
  8
241
  6
CONTINUOUS
 10
6.6095699999999971
 20
19.014500000000002
 30
0.0
 70
    32
  0
VERTEX
  5
30E3
  8
241
  6
CONTINUOUS
 10
6.6097000000000001
 20
19.014500000000002
 30
0.0
 70
    32
  0
VERTEX
  5
30E4
  8
241
  6
CONTINUOUS
 10
6.60982
 20
19.014500000000002
 30
0.0
 70
    32
  0
VERTEX
  5
30E5
  8
241
  6
CONTINUOUS
 10
6.609939999999999
 20
19.014600000000002
 30
0.0
 70
    32
  0
VERTEX
  5
30E6
  8
241
  6
CONTINUOUS
 10
6.610059999999998
 20
19.014600000000002
 30
0.0
 70
    32
  0
VERTEX
  5
30E7
  8
241
  6
CONTINUOUS
 10
6.6101899999999993
 20
19.014600000000002
 30
0.0
 70
    32
  0
VERTEX
  5
30E8
  8
241
  6
CONTINUOUS
 10
6.610310000000001
 20
19.014600000000002
 30
0.0
 70
    32
  0
VERTEX
  5
30E9
  8
241
  6
CONTINUOUS
 10
6.61043
 20
19.014600000000002
 30
0.0
 70
    32
  0
VERTEX
  5
30EA
  8
241
  6
CONTINUOUS
 10
6.6105600000000004
 20
19.014600000000002
 30
0.0
 70
    32
  0
VERTEX
  5
30EB
  8
241
  6
CONTINUOUS
 10
6.6106800000000003
 20
19.014600000000002
 30
0.0
 70
    32
  0
VERTEX
  5
30EC
  8
241
  6
CONTINUOUS
 10
6.6108000000000002
 20
19.014600000000002
 30
0.0
 70
    32
  0
VERTEX
  5
30ED
  8
241
  6
CONTINUOUS
 10
6.610929999999998
 20
19.014700000000001
 30
0.0
 70
    32
  0
VERTEX
  5
30EE
  8
241
  6
CONTINUOUS
 10
6.611049999999997
 20
19.014700000000001
 30
0.0
 70
    32
  0
VERTEX
  5
30EF
  8
241
  6
CONTINUOUS
 10
6.6111699999999987
 20
19.014700000000001
 30
0.0
 70
    32
  0
VERTEX
  5
30F0
  8
241
  6
CONTINUOUS
 10
6.6112999999999991
 20
19.014700000000001
 30
0.0
 70
    32
  0
VERTEX
  5
30F1
  8
241
  6
CONTINUOUS
 10
6.6114199999999981
 20
19.014700000000001
 30
0.0
 70
    32
  0
VERTEX
  5
30F2
  8
241
  6
CONTINUOUS
 10
6.6115500000000003
 20
19.014700000000001
 30
0.0
 70
    32
  0
VERTEX
  5
30F3
  8
241
  6
CONTINUOUS
 10
6.6116699999999993
 20
19.014700000000001
 30
0.0
 70
    32
  0
VERTEX
  5
30F4
  8
241
  6
CONTINUOUS
 10
6.6117899999999992
 20
19.014800000000001
 30
0.0
 70
    32
  0
VERTEX
  5
30F5
  8
241
  6
CONTINUOUS
 10
6.6119199999999987
 20
19.014800000000001
 30
0.0
 70
    32
  0
VERTEX
  5
30F6
  8
241
  6
CONTINUOUS
 10
6.6120399999999986
 20
19.014800000000001
 30
0.0
 70
    32
  0
VERTEX
  5
30F7
  8
241
  6
CONTINUOUS
 10
6.6121600000000003
 20
19.014800000000001
 30
0.0
 70
    32
  0
VERTEX
  5
30F8
  8
241
  6
CONTINUOUS
 10
6.612289999999998
 20
19.014800000000001
 30
0.0
 70
    32
  0
VERTEX
  5
30F9
  8
241
  6
CONTINUOUS
 10
6.6124099999999979
 20
19.014800000000001
 30
0.0
 70
    32
  0
VERTEX
  5
30FA
  8
241
  6
CONTINUOUS
 10
6.6125399999999992
 20
19.014800000000001
 30
0.0
 70
    32
  0
VERTEX
  5
30FB
  8
241
  6
CONTINUOUS
 10
6.61266
 20
19.014900000000001
 30
0.0
 70
    32
  0
VERTEX
  5
30FC
  8
241
  6
CONTINUOUS
 10
6.6127799999999981
 20
19.014900000000001
 30
0.0
 70
    32
  0
VERTEX
  5
30FD
  8
241
  6
CONTINUOUS
 10
6.6129100000000003
 20
19.014900000000001
 30
0.0
 70
    32
  0
VERTEX
  5
30FE
  8
241
  6
CONTINUOUS
 10
6.6130300000000002
 20
19.014900000000001
 30
0.0
 70
    32
  0
VERTEX
  5
30FF
  8
241
  6
CONTINUOUS
 10
6.6131599999999979
 20
19.014900000000001
 30
0.0
 70
    32
  0
VERTEX
  5
3100
  8
241
  6
CONTINUOUS
 10
6.6132799999999987
 20
19.014900000000001
 30
0.0
 70
    32
  0
VERTEX
  5
3101
  8
241
  6
CONTINUOUS
 10
6.61341
 20
19.014900000000001
 30
0.0
 70
    32
  0
VERTEX
  5
3102
  8
241
  6
CONTINUOUS
 10
6.613529999999999
 20
19.015000000000001
 30
0.0
 70
    32
  0
VERTEX
  5
3103
  8
241
  6
CONTINUOUS
 10
6.613649999999998
 20
19.015000000000001
 30
0.0
 70
    32
  0
VERTEX
  5
3104
  8
241
  6
CONTINUOUS
 10
6.6137800000000002
 20
19.015000000000001
 30
0.0
 70
    32
  0
VERTEX
  5
3105
  8
241
  6
CONTINUOUS
 10
6.6139000000000001
 20
19.015000000000001
 30
0.0
 70
    32
  0
VERTEX
  5
3106
  8
241
  6
CONTINUOUS
 10
6.6140299999999987
 20
19.015000000000001
 30
0.0
 70
    32
  0
VERTEX
  5
3107
  8
241
  6
CONTINUOUS
 10
6.6141500000000004
 20
19.015000000000001
 30
0.0
 70
    32
  0
VERTEX
  5
3108
  8
241
  6
CONTINUOUS
 10
6.614279999999999
 20
19.015000000000001
 30
0.0
 70
    32
  0
VERTEX
  5
3109
  8
241
  6
CONTINUOUS
 10
6.6143999999999981
 20
19.0151
 30
0.0
 70
    32
  0
VERTEX
  5
310A
  8
241
  6
CONTINUOUS
 10
6.6145300000000002
 20
19.0151
 30
0.0
 70
    32
  0
VERTEX
  5
310B
  8
241
  6
CONTINUOUS
 10
6.6146500000000001
 20
19.0151
 30
0.0
 70
    32
  0
VERTEX
  5
310C
  8
241
  6
CONTINUOUS
 10
6.6147799999999979
 20
19.0151
 30
0.0
 70
    32
  0
VERTEX
  5
310D
  8
241
  6
CONTINUOUS
 10
6.6148999999999987
 20
19.0151
 30
0.0
 70
    32
  0
VERTEX
  5
310E
  8
241
  6
CONTINUOUS
 10
6.6150299999999991
 20
19.0151
 30
0.0
 70
    32
  0
VERTEX
  5
310F
  8
241
  6
CONTINUOUS
 10
6.6151499999999981
 20
19.0151
 30
0.0
 70
    32
  0
VERTEX
  5
3110
  8
241
  6
CONTINUOUS
 10
6.6152800000000003
 20
19.0152
 30
0.0
 70
    32
  0
VERTEX
  5
3111
  8
241
  6
CONTINUOUS
 10
6.6154000000000002
 20
19.0152
 30
0.0
 70
    32
  0
VERTEX
  5
3112
  8
241
  6
CONTINUOUS
 10
6.6155299999999979
 20
19.0152
 30
0.0
 70
    32
  0
SEQEND
  5
3113
  8
241
  6
CONTINUOUS
  0
LINE
  5
3114
  8
241
  6
CONTINUOUS
 10
13.0000002682209
 20
14.232445567680371
 30
0.0
 11
13.0000002682209
 21
17.699999734759299
 31
0.0
  0
LINE
  5
3115
  8
241
  6
CONTINUOUS
 10
14.20000055804848
 20
14.37765080481765
 30
0.0
 11
14.20000055804848
 21
17.699999734759299
 31
0.0
  0
LINE
  5
3116
  8
241
  6
CONTINUOUS
 10
12.39780616015196
 20
14.15176689624783
 30
0.0
 11
7.6264943927526421
 21
11.76611147820946
 31
0.0
  0
LINE
  5
3117
  8
241
  6
CONTINUOUS
 10
12.39780616015196
 20
14.15176689624783
 30
0.0
 11
14.256690163165331
 21
14.400810003280601
 31
0.0
  0
LINE
  5
3118
  8
241
  6
CONTINUOUS
 10
12.39780616015196
 20
14.15176689624783
 30
0.0
 11
12.89366511628031
 21
12.50018086284396
 31
0.0
  0
LINE
  5
3119
  8
241
  6
CONTINUOUS
 10
14.256690163165331
 20
14.400810003280601
 30
0.0
 11
14.304107986390591
 21
14.400810003280601
 31
0.0
  0
LINE
  5
311A
  8
241
  6
CONTINUOUS
 10
14.256690163165331
 20
14.400810003280601
 30
0.0
 11
12.89366511628031
 21
12.50018086284396
 31
0.0
  0
LINE
  5
311B
  8
241
  6
CONTINUOUS
 10
12.89366511628031
 20
12.50018086284396
 30
0.0
 11
12.89289351552725
 21
11.842076666653121
 31
0.0
  0
LINE
  5
311C
  8
241
  6
CONTINUOUS
 10
14.30710731074214
 20
11.842076666653121
 30
0.0
 11
14.304107986390591
 21
14.400810003280601
 31
0.0
  0
LINE
  5
311D
  8
241
  6
CONTINUOUS
 10
14.30710731074214
 20
11.842076666653121
 30
0.0
 11
12.89289351552725
 21
11.842076666653121
 31
0.0
  0
LINE
  5
3161
  8
241
  6
CONTINUOUS
 10
13.0000002682209
 20
17.699999734759299
 30
0.0
 11
14.20000055804848
 21
17.699999734759299
 31
0.0
  0
LINE
  5
3162
  8
240
  6
CONTINUOUS
 10
14.30710731074214
 20
26.282230392098398
 30
0.0
 11
12.89289351552725
 21
26.282230392098398
 31
0.0
  0
LINE
  5
3163
  8
241
  6
CONTINUOUS
 10
19.500000402331349
 20
-8.3950432017445848
 30
0.0
 11
19.500000402331349
 21
-8.1154052168131177
 31
0.0
  0
LINE
  5
3164
  8
240
  6
CONTINUOUS
 10
19.500000402331349
 20
-8.1154052168131177
 30
0.0
 11
19.500000402331349
 21
8.0745627790364676
 31
0.0
  0
LINE
  5
32AA
  8
240
  6
CONTINUOUS
 10
19.963961443863809
 20
-19.211161881685278
 30
0.0
 11
19.963961443863809
 21
-20.62537521123889
 31
0.0
  0
LINE
  5
32AB
  8
240
  6
CONTINUOUS
 10
19.500000402331349
 20
-18.74720118939879
 30
0.0
 11
19.500000402331349
 21
-11.84370662236342
 31
0.0
  0
LINE
  5
32AC
  8
240
  6
CONTINUOUS
 10
19.500000402331349
 20
-18.74720118939879
 30
0.0
 11
19.963961443863809
 21
-19.211161881685278
 31
0.0
  0
LINE
  5
33F2
  8
240
  6
CONTINUOUS
 10
19.963961443863809
 20
-10.90461947023871
 30
0.0
 11
19.57350652810419
 21
-8.1521579995751665
 31
0.0
  0
LINE
  5
33F3
  8
241
  6
CONTINUOUS
 10
19.86353678512387
 20
-10.903024114668399
 30
0.0
 11
19.963961443863809
 21
-11.611726135015511
 31
0.0
  0
LINE
  5
34B6
  8
241
  6
CONTINUOUS
 10
19.075420044828199
 20
-9.1053089126944808
 30
0.0
 11
19.86353678512387
 21
-10.903024114668399
 31
0.0
  0
LINE
  5
34B7
  8
240
  6
CONTINUOUS
 10
19.963961443863809
 20
-10.90461947023871
 30
0.0
 11
19.963961443863809
 21
-11.611726135015511
 31
0.0
  0
LINE
  5
34B8
  8
240
  6
CONTINUOUS
 10
19.500000402331349
 20
-8.1154052168131177
 30
0.0
 11
19.57350652810419
 21
-8.1521579995751665
 31
0.0
  0
LINE
  5
34B9
  8
240
  6
CONTINUOUS
 10
19.86353678512387
 20
9.7215808928012564
 30
0.0
 11
19.963961443863809
 21
9.0136500075459196
 31
0.0
  0
LINE
  5
34BA
  8
240
  6
CONTINUOUS
 10
19.963961443863809
 20
8.3065433427691175
 30
0.0
 11
19.963961443863809
 21
9.0136500075459196
 31
0.0
  0
LINE
  5
34BB
  8
240
  6
CONTINUOUS
 10
19.500000402331349
 20
11.222876678927699
 30
0.0
 11
19.500000402331349
 21
18.747201371340392
 31
0.0
  0
LINE
  5
34BC
  8
241
  6
CONTINUOUS
 10
19.075420044828199
 20
12.015154585242239
 30
0.0
 11
19.500000402331349
 21
11.222876678927699
 31
0.0
  0
LINE
  5
34BD
  8
240
  6
CONTINUOUS
 10
19.500000402331349
 20
11.222876678927699
 30
0.0
 11
19.57350652810419
 21
11.08571235090491
 31
0.0
  0
LINE
  5
34BF
  8
240
  6
CONTINUOUS
 10
19.57350652810419
 20
11.08571235090491
 30
0.0
 11
19.86353678512387
 21
9.7215808928012564
 31
0.0
  0
LINE
  5
34C0
  8
241
  6
CONTINUOUS
 10
18.997983250301331
 20
18.245184794068312
 30
0.0
 11
19.500000402331349
 21
18.747201371340392
 31
0.0
  0
LINE
  5
34C1
  8
240
  6
CONTINUOUS
 10
19.500000402331349
 20
18.747201371340392
 30
0.0
 11
19.963961443863809
 21
19.211161881685221
 31
0.0
  0
LINE
  5
34C2
  8
240
  6
CONTINUOUS
 10
19.963961443863809
 20
19.211161881685221
 30
0.0
 11
19.963961443863809
 21
20.625375211238829
 31
0.0
  0
LINE
  5
34E1
  8
240
  6
CONTINUOUS
 10
6.5999999642372131
 20
19.50000040233132
 30
0.0
 11
7.2360392659902573
 21
20.17086564300098
 31
0.0
  0
LINE
  5
34E2
  8
241
  6
CONTINUOUS
 10
10.700000402331391
 20
17.699999999999989
 30
0.0
 11
16.53160241598199
 21
17.703744188065219
 31
0.0
  0
ARC
  5
34E3
  8
241
  6
CONTINUOUS
 10
10.734333430995511
 20
24.80662520212379
 30
0.0
 40
7.1067081352985619
 50
234.57996299558619
 51
269.72319880668931
  0
ARC
  5
34E4
  8
241
  6
CONTINUOUS
 10
16.282312810216609
 20
24.81694949456061
 30
0.0
 40
7.1175722714909524
 50
272.00716811937269
 51
296.87699217469549
  0
ARC
  5
35A7
  8
241
  6
CONTINUOUS
 10
13.570083387556471
 20
-1.4266004926690381
 30
0.0
 40
7.2415496485275579
 50
35.027760865060991
 51
46.233275876951161
  0
ARC
  5
35AA
  8
241
  6
CONTINUOUS
 10
-2.810116629263641
 20
8.6579190551561158
 30
0.0
 40
23.478294894214521
 50
316.42759723398058
 51
341.85001745975222
  0
ARC
  5
35AB
  8
241
  6
CONTINUOUS
 10
29.711698214382729
 20
8.6951460294708092
 30
0.0
 40
23.288910650604809
 50
187.37643907746011
 51
224.1448131134749
  0
LINE
  5
35AC
  8
241
  6
CONTINUOUS
 10
6.913636790364535
 20
-8.4162194404296145
 30
0.0
 11
6.913636790364535
 21
-11.450524923742201
 31
0.0
  0
LINE
  5
35AD
  8
241
  6
CONTINUOUS
 10
19.500000402339762
 20
-8.3950435604296274
 30
0.0
 11
19.075420044828199
 21
-9.1053089126944808
 31
0.0
  0
LINE
  5
35AE
  8
241
  6
CONTINUOUS
 10
19.075420044828199
 20
-9.1053089126944808
 30
0.0
 11
14.200000402331399
 21
-11.46780536180475
 31
0.0
  0
LINE
  5
35AF
  8
241
  6
CONTINUOUS
 10
19.500000402325892
 20
-20.489005221389959
 30
0.0
 11
14.20000055804848
 21
-25.845456868410139
 31
0.0
  0
LINE
  5
35B0
  8
240
  6
CONTINUOUS
 10
6.5999999642372131
 20
-19.500000402331381
 30
0.0
 11
7.2360392659902573
 21
-20.130619075501901
 31
0.0
  0
LINE
  5
35B1
  8
241
  6
CONTINUOUS
 10
7.2360392659902573
 20
-20.130619075501901
 30
0.0
 11
13.0000002682209
 21
-25.845456868410139
 31
0.0
  0
LINE
  5
35B2
  8
241
  6
CONTINUOUS
 10
19.500000402331349
 20
-18.74720118939879
 30
0.0
 11
19.500000402325892
 21
-20.489005221389959
 31
0.0
  0
LINE
  5
35B3
  8
241
  6
CONTINUOUS
 10
0.0
 20
10.99999999999997
 30
0.0
 11
0.0
 21
-11.00000000000003
 31
0.0
  0
LINE
  5
3886
  8
240
  6
CONTINUOUS
 10
0.0
 20
19.50000040233132
 30
0.0
 11
6.5999999642372131
 21
19.50000040233132
 31
0.0
  0
LINE
  5
3887
  8
240
  6
CONTINUOUS
 10
0.0
 20
-19.500000402331381
 30
0.0
 11
6.5999999642372131
 21
-19.500000402331381
 31
0.0
  0
LINE
  5
38B9
  8
250
  6
CONTINUOUS
 10
-20.56157713
 20
-18.08947963
 30
0.0
 11
-33.761577129999999
 21
-18.08947963
 31
0.0
1001
ITEMNAME
1000
LNSP2
  0
LINE
  5
38BA
  8
240
  6
CONTINUOUS
 10
-24.0
 20
11.0
 30
0.0
 11
-10.33347186
 21
11.0
 31
0.0
  0
LINE
  5
38BB
  8
240
  6
CONTINUOUS
 10
-10.33347186
 20
-11.0
 30
0.0
 11
-24.0
 21
-11.0
 31
0.0
  0
LINE
  5
38BC
  8
240
  6
CONTINUOUS
 10
-24.0
 20
-11.0
 30
0.0
 11
-24.0
 21
11.0
 31
0.0
  0
LINE
  5
38BD
  8
241
  6
CONTINUOUS
 10
-1.66652814
 20
-11.0
 30
0.0
 11
-10.33347186
 21
-11.0
 31
0.0
  0
LINE
  5
38BE
  8
240
  6
CONTINUOUS
 10
-1.66652814
 20
-11.0
 30
0.0
 11
-2.98
 21
-13.275
 31
0.0
  0
LINE
  5
38BF
  8
240
  6
CONTINUOUS
 10
-9.0199999999999996
 20
-13.275
 30
0.0
 11
-2.98
 21
-13.275
 31
0.0
  0
LINE
  5
38C0
  8
240
  6
CONTINUOUS
 10
-10.33347186
 20
-11.0
 30
0.0
 11
-9.0199999999999996
 21
-13.275
 31
0.0
  0
LINE
  5
38C1
  8
240
  6
CONTINUOUS
 10
0.0
 20
-11.0
 30
0.0
 11
-1.66652814
 21
-11.0
 31
0.0
  0
LINE
  5
38C2
  8
241
  6
CONTINUOUS
 10
-1.66652814
 20
11.0
 30
0.0
 11
-10.33347186
 21
11.0
 31
0.0
  0
LINE
  5
38C3
  8
240
  6
CONTINUOUS
 10
-1.66652814
 20
11.0
 30
0.0
 11
-2.98
 21
13.275
 31
0.0
  0
LINE
  5
38C4
  8
245
  6
CENTER2
 10
-10.0
 20
5.0
 30
0.0
 11
-10.0
 21
-5.0
 31
0.0
  0
CIRCLE
  5
38C5
  8
241
  6
CONTINUOUS
 10
-10.0
 20
0.0
 30
0.0
 40
4.0
  0
CIRCLE
  5
38C6
  8
241
  6
CONTINUOUS
 10
-10.0
 20
0.0
 30
0.0
 40
3.0
  0
LINE
  5
38C7
  8
240
  6
CONTINUOUS
 10
-9.0199999999999996
 20
13.275
 30
0.0
 11
-2.98
 21
13.275
 31
0.0
  0
LINE
  5
38C8
  8
240
  6
CONTINUOUS
 10
-10.33347186
 20
11.0
 30
0.0
 11
-9.0199999999999996
 21
13.275
 31
0.0
  0
LINE
  5
38C9
  8
240
  6
CONTINUOUS
 10
0.0
 20
11.0
 30
0.0
 11
-1.66652814
 21
11.0
 31
0.0
  0
TEXT
  5
38CA
  8
250
  6
CONTINUOUS
 10
-31.361577130000001
 20
-17.08947963
 30
0.0
 40
2.799999999999998
  1
CK4
  7
YOKO
1001
ITEMNAME
1000
LNSP3
1001
ACAD
1000
MTEXTBEGIN
1070
    73
1070
     1
1070
    44
1040
1.0
1070
    74
1070
     0
1000
MTEXTEND
1000
MTEXTBEGIN
1070
    73
1070
     1
1070
    44
1040
1.0
1070
    74
1070
     0
1000
MTEXTEND
  0
LINE
  5
38CB
  8
250
  6
CONTINUOUS
 10
-17.58346415147205
 20
-12.93123664958941
 30
0.0
 11
-20.56157713
 21
-18.08947963
 31
0.0
1001
ACAD
1000
DSTYLE
1002
{
1070
     6
1000
OPEN
1070
   343
1005
0
1002
}
  0
LINE
  5
38CC
  8
250
  6
CONTINUOUS
 10
-17.905336932841081
 20
-12.74540331229406
 30
0.0
 11
-16.468464149999999
 21
-11.0
 31
0.0
  0
LINE
  5
38CD
  8
250
  6
CONTINUOUS
 10
-17.26159137010303
 20
-13.117069986884751
 30
0.0
 11
-16.468464149999999
 21
-11.0
 31
0.0
  0
LINE
  5
38CE
  8
250
  6
CONTINUOUS
 10
-16.468464149999999
 20
-11.0
 30
0.0
 11
-17.583464151472061
 21
-12.93123664958941
 31
0.0
  0
LINE
  5
38CF
  8
247
  6
CONTINUOUS
 10
4.177731469662791
 20
-14.25000000000002
 30
0.0
 11
4.1777314696628487
 21
-9.6153846156700418
 31
0.0
  0
LINE
  5
38D0
  8
247
  6
CONTINUOUS
 10
1.677731469662846
 20
-13.454893499987961
 30
0.0
 11
3.7777314695788582
 21
-14.05705881005737
 31
0.0
  0
LINE
  5
38D1
  8
247
  6
CONTINUOUS
 10
2.6738853157768459
 20
-12.82515140351904
 30
0.0
 11
2.6738853157768459
 21
-13.740536018867051
 31
0.0
  0
ARC
  5
38D2
  8
247
  6
CONTINUOUS
 10
2.0624505369569501
 20
-12.58726340194681
 30
0.0
 40
0.3876715809326743
 50
72.997889675291987
 51
172.92416621851231
  0
ARC
  5
38D3
  8
247
  6
CONTINUOUS
 10
1.9829546006908649
 20
-12.882477556804121
 30
0.0
 40
0.6933047965358772
 50
4.7429368522013924
 51
73.849226273266353
1001
GENIUS_GENOBJ-N-FIL_13
1002
{
1000
OWNER
1000
GEN
1002
}
1001
GENIUS_GENODEF_13
1002
{
1000
HIER
1070
     0
1002
}
1002
{
1000
MANEDIT
1070
     0
1002
}
1002
{
1000
NOSEL
1070
     0
1002
}
1002
{
1000
BEHIND
1070
     0
1002
}
1002
{
1000
OTHER
1070
     0
1002
}
1002
{
1000
REACTOR
1002
}
  0
LINE
  5
38D4
  8
247
  6
CONTINUOUS
 10
3.7777314695788582
 20
-13.14167419470937
 30
0.0
 11
3.7777314695788582
 21
-14.05705881005737
 31
0.0
  0
LINE
  5
38D5
  8
247
  6
CONTINUOUS
 10
1.677731469662846
 20
-13.454893499987961
 30
0.0
 11
1.677731469662846
 21
-12.539508884639959
 31
0.0
  0
ARC
  5
38D6
  8
247
  6
CONTINUOUS
 10
3.065148432430723
 20
-12.87830647626684
 30
0.0
 40
0.394857301075386
 50
65.990941652528889
 51
172.26344345906949
  0
ARC
  5
38D7
  8
247
  6
CONTINUOUS
 10
3.0689317969954191
 20
-13.21244661042692
 30
0.0
 40
0.7123241612361686
 50
5.701985164258037
 51
77.277338436822262
1001
GENIUS_GENOBJ-N-FIL_13
1002
{
1000
OWNER
1000
GEN
1002
}
1001
GENIUS_GENODEF_13
1002
{
1000
HIER
1070
     0
1002
}
1002
{
1000
MANEDIT
1070
     0
1002
}
1002
{
1000
NOSEL
1070
     0
1002
}
1002
{
1000
BEHIND
1070
     0
1002
}
1002
{
1000
OTHER
1070
     0
1002
}
1002
{
1000
REACTOR
1002
}
  0
LINE
  5
38D8
  8
247
  6
CONTINUOUS
 10
3.7777314695788582
 20
-12.18398188706338
 30
0.0
 11
1.67773146966285
 21
-11.581816576993971
 31
0.0
  0
LINE
  5
38D9
  8
247
  6
CONTINUOUS
 10
1.67773146966285
 20
-10.08566273090797
 30
0.0
 11
1.67773146966285
 21
-10.48167836430359
 31
0.0
  0
LINE
  5
38DA
  8
247
  6
CONTINUOUS
 10
3.7777314695788582
 20
-11.108739653943969
 30
0.0
 11
3.7777314695788582
 21
-10.677970423191979
 31
0.0
  0
ARC
  5
38DB
  8
247
  6
CONTINUOUS
 10
3.1360310647462111
 20
-9.8818165770699729
 30
0.0
 40
1.576855057639547
 50
202.35948814152729
 51
254.993248542846
  0
ARC
  5
38DC
  8
247
  6
CONTINUOUS
 10
2.2435503282009881
 20
-10.347511366133221
 30
0.0
 40
0.6234706797009447
 50
94.994589319075374
 51
155.16632895730359
1001
GENIUS_GENOBJ-N-FIL_13
1002
{
1000
OWNER
1000
GEN
1002
}
1001
GENIUS_GENODEF_13
1002
{
1000
HIER
1070
     0
1002
}
1002
{
1000
MANEDIT
1070
     0
1002
}
1002
{
1000
NOSEL
1070
     0
1002
}
1002
{
1000
BEHIND
1070
     0
1002
}
1002
{
1000
OTHER
1070
     0
1002
}
1002
{
1000
REACTOR
1002
}
  0
ARC
  5
38DD
  8
247
  6
CONTINUOUS
 10
2.8398335916322921
 20
-10.94418395103278
 30
0.0
 40
0.9749472149106981
 50
15.846096555779971
 51
82.325137004169136
  0
ARC
  5
38DE
  8
247
  6
CONTINUOUS
 10
3.049201871633918
 20
-10.53521163877223
 30
0.0
 40
0.9271945638692009
 50
249.71360167049701
 51
321.78874565640962
1001
GENIUS_GENOBJ-N-FIL_13
1002
{
1000
OWNER
1000
GEN
1002
}
1001
GENIUS_GENODEF_13
1002
{
1000
HIER
1070
     0
1002
}
1002
{
1000
MANEDIT
1070
     0
1002
}
1002
{
1000
NOSEL
1070
     0
1002
}
1002
{
1000
BEHIND
1070
     0
1002
}
1002
{
1000
OTHER
1070
     0
1002
}
1002
{
1000
REACTOR
1002
}
  0
LINE
  5
38DF
  8
247
  6
CONTINUOUS
 10
2.9700391619188249
 20
-10.462585807815961
 30
0.0
 11
2.9700391619188249
 21
-9.9779704232199755
 31
0.0
  0
ARC
  5
38E0
  8
247
  6
CONTINUOUS
 10
2.9277314696628469
 20
-14.25000000000002
 30
0.0
 40
1.25
 50
180.0
 51
0.0
  0
LINE
  5
38E1
  8
247
  6
CONTINUOUS
 10
1.677731469662846
 20
-14.25000000000002
 30
0.0
 11
1.677731469662846
 21
-13.80384615391401
 31
0.0
  0
ARC
  5
38E2
  8
247
  6
CONTINUOUS
 10
2.9277314696628469
 20
-9.6153846156700293
 30
0.0
 40
1.25
 50
0.0
 51
180.0
  0
ARC
  5
38E3
  8
241
  6
CONTINUOUS
 10
4.5236840332359867
 20
9.0677543340010036
 30
0.0
 40
15.0092132189561
 50
339.46557861934127
 51
356.2058440466663
  0
ARC
  5
38E4
  8
241
  6
CONTINUOUS
 10
13.499030555772711
 20
10.42500767662996
 30
0.0
 40
8.3462474370248074
 50
214.43760711516711
 51
307.49422175700141
  0
ARC
  5
38E5
  8
241
  6
CONTINUOUS
 10
8.5308554686352132
 20
6.6229809816121223
 30
0.0
 40
2.1238952946264602
 50
127.56363628061079
 51
205.60424623718109
  0
LINE
  5
38ED
  8
241
  6
CONTINUOUS
 10
6.913636790364535
 20
-8.4162194404296145
 30
0.0
 11
13.0000002682209
 21
-11.46780513226989
 31
0.0
  0
ARC
  5
38EF
  8
241
  6
CONTINUOUS
 10
12.958882327126551
 20
-11.710721594017761
 30
0.0
 40
6.5424697700130858
 50
193.9973980863117
 51
358.83530136017498
  0
ARC
  5
38F6
  8
241
  6
CONTINUOUS
 10
30.89406729227386
 20
-7.9686567863498192
 30
0.0
 40
24.85917111765761
 50
192.4077899608709
 51
223.96058299221031
  0
ARC
  5
38F7
  8
241
  6
CONTINUOUS
 10
-7.0785084949262744
 20
-5.4643494265831603
 30
0.0
 40
29.03889702591486
 50
317.11818032275789
 51
336.24447992335422
  0
VIEWPORT
  5
22
 67
     1
  8
0
 10
261.51769911504419
 20
148.5
 30
0.0
 40
523.0353982300885
 41
297.0
 68
     1
 69
     1
1001
ACAD
1000
MVIEW
1002
{
1070
    16
1010
0.0
1020
0.0
1030
0.0
1010
0.0
1020
0.0
1030
1.0
1040
0.0
1040
297.0
1040
261.51769911504419
1040
148.5
1040
50.0
1040
0.0
1040
0.0
1070
     0
1070
   100
1070
     1
1070
     1
1070
     0
1070
     0
1070
     0
1070
     0
1040
0.0
1040
0.0
1040
0.0
1040
1.0
1040
1.0
1040
10.0
1040
10.0
1070
     0
1002
{
1002
}
1002
}
1001
GENIUS_GENODEF_13
1002
{
1000
HIER
1070
     0
1002
}
1002
{
1000
MANEDIT
1070
     0
1002
}
1002
{
1000
NOSEL
1070
     0
1002
}
1002
{
1000
BEHIND
1070
     0
1002
}
1002
{
1000
OTHER
1070
     0
1002
}
1002
{
1000
REACTOR
1002
}
1001
GENIUS_GENOBJ-N-SDF_13
1002
{
1000
OWNER
1000
GEN
1002
}
1001
GENIUS_GENSCREG_15
1000
PF
1040
1.0
1000
DF
1040
1.0
1000
MIN
1011
0.0
1021
0.0
1031
0.0
1021
0.0
1031
0.0
1000
MAX
1011
523.0353982300885
1021
0.0
1031
0.0
1021
297.0
1031
0.0
1000
FLAGS
1070
     4
  0
ENDSEC
  0
EOF
