  0
SECTION
  2
HEADER
  9
$ACADVER
  1
AC1009
  9
$INSBASE
 10
0.0
 20
0.0
 30
0.0
  9
$EXTMIN
 10
-36.382297869028093
 20
-24.28256751837807
 30
0.0
  9
$EXTMAX
 10
56.999987405636247
 20
54.0
 30
0.0
  9
$LIMMIN
 10
0.0
 20
0.0
  9
$LIMMAX
 10
297.0
 20
210.0
  9
$ORTHOMODE
 70
     0
  9
$REGENMODE
 70
     1
  9
$FILLMODE
 70
     1
  9
$QTEXTMODE
 70
     0
  9
$MIRRTEXT
 70
     1
  9
$DRAGMODE
 70
     2
  9
$LTSCALE
 40
10.0
  9
$OSMODE
 70
  3071
  9
$ATTMODE
 70
     1
  9
$TEXTSIZE
 40
3.0
  9
$TRACEWID
 40
1.0
  9
$TEXTSTYLE
  7
YOKO
  9
$CLAYER
  8
240
  9
$CELTYPE
  6
BYLAYER
  9
$CECOLOR
 62
   256
  9
$DIMSCALE
 40
1.0
  9
$DIMASZ
 40
2.2299999999999991
  9
$DIMEXO
 40
0.5
  9
$DIMDLI
 40
2.5
  9
$DIMRND
 40
0.0
  9
$DIMDLE
 40
0.0
  9
$DIMEXE
 40
1.0
  9
$DIMTP
 40
0.0
  9
$DIMTM
 40
0.0
  9
$DIMTXT
 40
3.0
  9
$DIMCEN
 40
0.0
  9
$DIMTSZ
 40
0.0
  9
$DIMTOL
 70
     0
  9
$DIMLIM
 70
     0
  9
$DIMTIH
 70
     0
  9
$DIMTOH
 70
     0
  9
$DIMSE1
 70
     0
  9
$DIMSE2
 70
     0
  9
$DIMTAD
 70
     3
  9
$DIMZIN
 70
     8
  9
$DIMBLK
  1
OPEN
  9
$DIMASO
 70
     1
  9
$DIMSHO
 70
     1
  9
$DIMPOST
  1

  9
$DIMAPOST
  1

  9
$DIMALT
 70
     0
  9
$DIMALTD
 70
     2
  9
$DIMALTF
 40
25.399999999999999
  9
$DIMLFAC
 40
1.0
  9
$DIMTOFL
 70
     1
  9
$DIMTVP
 40
0.0
  9
$DIMTIX
 70
     0
  9
$DIMSOXD
 70
     0
  9
$DIMSAH
 70
     0
  9
$DIMBLK1
  1

  9
$DIMBLK2
  1

  9
$DIMSTYLE
  2
BIGT
  9
$DIMCLRD
 70
   256
  9
$DIMCLRE
 70
   256
  9
$DIMCLRT
 70
    40
  9
$DIMTFAC
 40
1.0
  9
$DIMGAP
 40
1.0
  9
$LUNITS
 70
     2
  9
$LUPREC
 70
     2
  9
$SKETCHINC
 40
1.0
  9
$FILLETRAD
 40
0.0
  9
$AUNITS
 70
     0
  9
$AUPREC
 70
     3
  9
$MENU
  1
.
  9
$ELEVATION
 40
0.0
  9
$PELEVATION
 40
0.0
  9
$THICKNESS
 40
0.0
  9
$LIMCHECK
 70
     0
  9
$BLIPMODE
 70
     0
  9
$CHAMFERA
 40
10.0
  9
$CHAMFERB
 40
10.0
  9
$SKPOLY
 70
     0
  9
$TDCREATE
 40
2452366.5944417249
  9
$TDUPDATE
 40
2455812.5763883451
  9
$TDINDWG
 40
0.0099643056
  9
$TDUSRTIMER
 40
0.0099641204
  9
$USRTIMER
 70
     1
  9
$ANGBASE
 50
0.0
  9
$ANGDIR
 70
     0
  9
$PDMODE
 70
    35
  9
$PDSIZE
 40
2.0
  9
$PLINEWID
 40
0.0
  9
$COORDS
 70
     1
  9
$SPLFRAME
 70
     0
  9
$SPLINETYPE
 70
     6
  9
$SPLINESEGS
 70
     8
  9
$ATTDIA
 70
     1
  9
$ATTREQ
 70
     1
  9
$HANDLING
 70
     1
  9
$HANDSEED
  5
109C
  9
$SURFTAB1
 70
     6
  9
$SURFTAB2
 70
     6
  9
$SURFTYPE
 70
     6
  9
$SURFU
 70
     6
  9
$SURFV
 70
     6
  9
$UCSNAME
  2

  9
$UCSORG
 10
0.0
 20
0.0
 30
0.0
  9
$UCSXDIR
 10
1.0
 20
0.0
 30
0.0
  9
$UCSYDIR
 10
0.0
 20
1.0
 30
0.0
  9
$PUCSNAME
  2

  9
$PUCSORG
 10
0.0
 20
0.0
 30
0.0
  9
$PUCSXDIR
 10
1.0
 20
0.0
 30
0.0
  9
$PUCSYDIR
 10
0.0
 20
1.0
 30
0.0
  9
$USERI1
 70
     1
  9
$USERI2
 70
     0
  9
$USERI3
 70
     0
  9
$USERI4
 70
     0
  9
$USERI5
 70
     0
  9
$USERR1
 40
0.0
  9
$USERR2
 40
0.0
  9
$USERR3
 40
0.0
  9
$USERR4
 40
0.0
  9
$USERR5
 40
0.0
  9
$WORLDVIEW
 70
     1
  9
$SHADEDGE
 70
     3
  9
$SHADEDIF
 70
    70
  9
$TILEMODE
 70
     1
  9
$MAXACTVP
 70
    16
  9
$PLIMCHECK
 70
     0
  9
$PEXTMIN
 10
1.0000000000000000E+020
 20
1.0000000000000000E+020
 30
1.0000000000000000E+020
  9
$PEXTMAX
 10
-1.0000000000000000E+020
 20
-1.0000000000000000E+020
 30
-1.0000000000000000E+020
  9
$PLIMMIN
 10
0.0
 20
0.0
  9
$PLIMMAX
 10
420.0
 20
297.0
  9
$UNITMODE
 70
     0
  9
$VISRETAIN
 70
     0
  9
$PLINEGEN
 70
     0
  9
$PSLTSCALE
 70
     1
  0
ENDSEC
  0
SECTION
  2
TABLES
  0
TABLE
  2
VPORT
 70
     1
  0
VPORT
  2
*ACTIVE
 70
     0
 10
0.0
 20
0.0
 11
1.0
 21
1.0
 12
10.31422129455893
 22
14.861056311696411
 13
0.0
 23
0.0
 14
7.0
 24
7.0
 15
7.0
 25
7.0
 16
0.0
 26
0.0
 36
1.0
 17
0.0
 27
0.0
 37
0.0
 40
78.930590582386671
 41
1.8471023427866831
 42
50.0
 43
0.0
 44
0.0
 50
0.0
 51
0.0
 71
     0
 72
  2000
 73
     1
 74
     0
 75
     0
 76
     0
 77
     0
 78
     0
  0
ENDTAB
  0
TABLE
  2
LTYPE
 70
    16
  0
LTYPE
  2
CONTINUOUS
 70
     0
  3
Solid line
 72
    65
 73
     0
 40
0.0
  0
LTYPE
  2
CENTER2
 70
     0
  3
___ _ ___ _ ___ _ ___ _ ___ _ ___ _ ___ _ ___ _
 72
    65
 73
     4
 40
1.125
 49
0.75
 49
-0.125
 49
0.125
 49
-0.125
  0
LTYPE
  2
HIDDEN
 70
     0
  3
Hidden __ __ __ __ __ __ __ __ __ __ __ __ __ _
 72
    65
 73
     2
 40
9.5249999999999986
 49
6.3499999999999979
 49
-3.174999999999998
  0
LTYPE
  2
PHANTOM2
 70
     0
  3
Phantom (.5x) ___ _ _ ___ _ _ ___ _ _ ___ _ _
 72
    65
 73
     6
 40
31.75
 49
15.875
 49
-3.174999999999998
 49
3.174999999999998
 49
-3.174999999999998
 49
3.174999999999998
 49
-3.174999999999998
  0
LTYPE
  2
CENTER
 70
     0
  3
Center ____ _ ____ _ ____ _ ____ _ ____ _ ____
 72
    65
 73
     4
 40
50.799999999999997
 49
31.75
 49
-6.3499999999999979
 49
6.3499999999999979
 49
-6.3499999999999979
  0
LTYPE
  2
AMCONSTR
 70
     0
  3
_______________________
 72
    65
 73
     2
 40
9999.0
 49
9999.0
 49
0.0
  0
LTYPE
  2
HIDDEN2
 70
     0
  3
Hidden (.5x) _ _ _ _ _ _ _ _ _ _ _ _ _ _ _ _ _
 72
    65
 73
     2
 40
0.1875
 49
0.125
 49
-0.0625
  0
LTYPE
  2
AMZIGZAG2
 70
     0
  3
/\/-/\/-/\/-/\/-/\/-/\/
 72
    65
 73
     2
 40
0.4401
 49
0.0001
 49
-0.4400000000000001
  0
LTYPE
  2
ACANSTGB
 70
     0
  3
__ . . __ . .
 72
    65
 73
     6
 40
0.35433070866
 49
0.15748031496
 49
-0.03937007874
 49
0.03937007874
 49
-0.03937007874
 49
0.03937007874
 49
-0.03937007874
  0
LTYPE
  2
ACANSTGL
 70
     0
  3
_ _ _ _ _
 72
    65
 73
     2
 40
0.11811023622
 49
0.07874015748
 49
-0.03937007874
  0
ENDTAB
  0
TABLE
  2
LAYER
 70
     6
  0
LAYER
  2
0
 70
     0
 62
     7
  6
CONTINUOUS
  0
LAYER
  2
240
 70
     0
 62
     4
  6
CONTINUOUS
  0
LAYER
  2
241
 70
     0
 62
   211
  6
CONTINUOUS
  0
LAYER
  2
245
 70
     0
 62
     2
  6
CENTER2
  0
LAYER
  2
250
 70
     0
 62
     3
  6
CONTINUOUS
  0
LAYER
  2
DEFPOINTS
 70
     0
 62
     7
  6
CONTINUOUS
  0
ENDTAB
  0
TABLE
  2
STYLE
 70
     5
  0
STYLE
  2
STANDARD
 70
     0
 40
0.0
 41
1.0
 50
0.0
 71
     0
 42
3.0
  3
romans.shx
  4
BIGFONT.SHX
  0
STYLE
  2
YOKO
 70
     0
 40
0.0
 41
1.0
 50
0.0
 71
     0
 42
3.0
  3
romans.shx
  4
extfont.shx
  0
STYLE
  2

 70
     1
 40
0.0
 41
1.0
 50
0.0
 71
     0
 42
3.0
  3
genltshp.shx
  4

  0
STYLE
  2
ACANSGDT
 70
     0
 40
0.0
 41
1.0
 50
0.0
 71
     0
 42
3.0
  3
amgdt.shx
  4

  0
ENDTAB
  0
TABLE
  2
VIEW
 70
     0
  0
ENDTAB
  0
TABLE
  2
UCS
 70
     0
  0
ENDTAB
  0
TABLE
  2
APPID
 70
    28
  0
APPID
  2
ACAD
 70
     0
  0
APPID
  2
ACADANNOTATIVE
 70
     0
  0
APPID
  2
GLOBAL
 70
     0
  0
APPID
  2
DETAIL
 70
     0
  0
APPID
  2
GRPNAME
 70
     0
  0
APPID
  2
GPARA
 70
     0
  0
APPID
  2
HATCH_TYPE
 70
     0
  0
APPID
  2
HATCH_DISPLAY
 70
     0
  0
APPID
  2
HATCH_DISTANCE
 70
     0
  0
APPID
  2
ITEMNAME
 70
     0
  0
APPID
  2
MCAD_NO_VIS
 70
     0
  0
APPID
  2
ACAD_TEMP_GRAPHIC
 70
     0
  0
APPID
  2
AD_DRAW
 70
     0
  0
APPID
  2
ACATTRIBSERVICES
 70
     0
  0
APPID
  2
DESIGNERASSEMBLIES
 70
     0
  0
APPID
  2
ACADM_DIM_EDIT
 70
     0
  0
APPID
  2
AMDT_DM_ADJ
 70
     0
  0
APPID
  2
GENIUS_GENSCREG_15
 70
     0
  0
APPID
  2
GENIUS_GENODEF_13
 70
     0
  0
APPID
  2
GENIUS_GENOBJ-N-SDF_13
 70
     0
  0
APPID
  2
ACAD_DSTYLE_DIMJAG
 70
     0
  0
APPID
  2
ACAD_DSTYLE_DIMBREAK
 70
     0
  0
APPID
  2
ACAD_EXEMPT_FROM_CAD_STANDARDS
 70
     0
  0
APPID
  2
ACAD_MLEADERVER
 70
     0
  0
APPID
  2
ACAD_DSTYLE_DIMARC_LENGTH_
 70
     0
  0
APPID
  2
ACAD_DSTYLE_DIM_LINETYPE
 70
     0
  0
APPID
  2
ACAD_DSTYLE_DIM_EXT1_LINETYPE
 70
     0
  0
APPID
  2
ACAD_DSTYLE_DIM_EXT2_LINETYPE
 70
     0
  0
ENDTAB
  0
TABLE
  2
DIMSTYLE
 70
     8
  0
DIMSTYLE
  2
STANDARD
 70
     0
  3

  4

  5

  6

  7

 40
1.0
 41
2.0
 42
2.0
 43
3.75
 44
2.0
 45
0.0
 46
0.0
 47
0.0
 48
0.0
140
4.0
141
0.09
142
0.0
143
25.399999999999999
144
1.0
145
0.0
146
1.0
147
1.0
 71
     0
 72
     0
 73
     1
 74
     1
 75
     0
 76
     0
 77
     0
 78
     8
170
     0
171
     2
172
     0
173
     1
174
     0
175
     0
176
   256
177
   256
178
   256
  0
DIMSTYLE
  2
BIGT
 70
     0
  3

  4

  5

  6

  7

 40
1.0
 41
2.2299999999999991
 42
0.5
 43
2.5
 44
1.0
 45
0.0
 46
0.0
 47
0.0
 48
0.0
140
3.5
141
0.0
142
0.0
143
25.399999999999999
144
1.0
145
0.0
146
1.0
147
1.0
 71
     0
 72
     0
 73
     0
 74
     0
 75
     0
 76
     0
 77
     3
 78
     9
170
     0
171
     2
172
     1
173
     0
174
     0
175
     0
176
   256
177
   256
178
    40
  0
DIMSTYLE
  2
AM_ANSI
 70
     0
  3

  4
mm
  5

  6

  7

 40
1.0
 41
0.12
 42
0.05
 43
0.5
 44
0.1
 45
0.0
 46
0.0
 47
0.1
 48
0.1
140
0.12
141
0.0
142
0.0
143
25.399999999999999
144
1.0
145
0.0
146
0.71
147
0.06
 71
     0
 72
     0
 73
     1
 74
     1
 75
     0
 76
     0
 77
     0
 78
     7
170
     0
171
     2
172
     0
173
     0
174
     0
175
     0
176
   256
177
   256
178
     2
  0
DIMSTYLE
  2
AM_ANSI$3
 70
     0
  3

  4
mm
  5

  6

  7

 40
1.0
 41
0.12
 42
0.05
 43
0.5
 44
0.1
 45
0.0
 46
0.0
 47
0.1
 48
0.1
140
0.12
141
0.0
142
0.0
143
25.399999999999999
144
1.0
145
0.0
146
0.71
147
0.06
 71
     0
 72
     0
 73
     1
 74
     1
 75
     0
 76
     0
 77
     0
 78
     7
170
     0
171
     2
172
     0
173
     0
174
     0
175
     0
176
   256
177
   256
178
     2
  0
DIMSTYLE
  2
AM_ANSI$4
 70
     0
  3

  4
mm
  5

  6

  7

 40
1.0
 41
0.12
 42
0.05
 43
0.5
 44
0.1
 45
0.0
 46
0.0
 47
0.1
 48
0.1
140
0.12
141
0.0
142
0.0
143
25.399999999999999
144
1.0
145
0.0
146
0.71
147
0.06
 71
     0
 72
     0
 73
     1
 74
     1
 75
     0
 76
     0
 77
     0
 78
     7
170
     0
171
     2
172
     0
173
     0
174
     0
175
     0
176
   256
177
   256
178
     2
  0
DIMSTYLE
  2
AM_ANSI$7
 70
     0
  3

  4
mm
  5

  6

  7

 40
1.0
 41
0.12
 42
0.05
 43
0.5
 44
0.1
 45
0.0
 46
0.0
 47
0.1
 48
0.1
140
0.12
141
0.0
142
0.0
143
25.399999999999999
144
1.0
145
0.0
146
0.71
147
0.06
 71
     0
 72
     0
 73
     1
 74
     1
 75
     0
 76
     0
 77
     0
 78
     7
170
     0
171
     2
172
     0
173
     0
174
     0
175
     0
176
   256
177
   256
178
     2
  0
DIMSTYLE
  2
AM_ANSI$SF
 70
     0
  3

  4
mm
  5

  6

  7

 40
1.0
 41
0.12
 42
0.05
 43
0.5
 44
0.1
 45
0.0
 46
0.0
 47
0.1
 48
0.1
140
0.12
141
0.0
142
0.0
143
25.399999999999999
144
1.0
145
0.0
146
0.71
147
0.06
 71
     0
 72
     0
 73
     1
 74
     1
 75
     1
 76
     1
 77
     0
 78
     7
170
     0
171
     2
172
     0
173
     0
174
     0
175
     0
176
   256
177
   256
178
     2
  0
DIMSTYLE
  2
AM_ANSI$SH
 70
     0
  3

  4
mm
  5

  6
GENAXEH
  7

 40
1.0
 41
0.12
 42
0.05
 43
0.5
 44
0.1
 45
0.0
 46
0.0
 47
0.1
 48
0.1
140
0.12
141
0.0
142
0.0
143
25.399999999999999
144
1.0
145
0.0
146
0.71
147
0.06
 71
     0
 72
     0
 73
     1
 74
     1
 75
     1
 76
     1
 77
     0
 78
     7
170
     0
171
     2
172
     0
173
     1
174
     0
175
     0
176
   256
177
   256
178
     2
  0
ENDTAB
  0
ENDSEC
  0
SECTION
  2
BLOCKS
  0
BLOCK
  8
0
  2
$MODEL_SPACE
 70
     0
 10
0.0
 20
0.0
 30
0.0
  3
$MODEL_SPACE
  1

  0
ENDBLK
  5
D1A
  8
0
  0
BLOCK
 67
     1
  8
0
  2
$PAPER_SPACE
 70
     0
 10
0.0
 20
0.0
 30
0.0
  3
$PAPER_SPACE
  1

  0
ENDBLK
  5
D16
 67
     1
  8
0
  0
BLOCK
  8
0
  2
_OPEN
 70
     0
 10
0.0
 20
0.0
 30
0.0
  3
_OPEN
  1

  0
LINE
  5
595
  8
0
  6
BYBLOCK
 62
     0
 10
-1.0
 20
0.1666666666666666
 30
0.0
 11
0.0
 21
0.0
 31
0.0
  0
LINE
  5
596
  8
0
  6
BYBLOCK
 62
     0
 10
-1.0
 20
-0.1666666666666666
 30
0.0
 11
0.0
 21
0.0
 31
0.0
  0
LINE
  5
597
  8
0
  6
BYBLOCK
 62
     0
 10
0.0
 20
0.0
 30
0.0
 11
-1.0
 21
0.0
 31
0.0
  0
ENDBLK
  5
599
  8
0
  0
BLOCK
  8
0
  2
GENAXEH
 70
     0
 10
0.0
 20
0.0
 30
0.0
  3
GENAXEH
  1

  0
LINE
  5
B93
  8
0
 10
-1.0
 20
0.0
 30
0.0
 11
1.0
 21
0.0
 31
0.0
  0
ENDBLK
  5
B95
  8
0
  0
ENDSEC
  0
SECTION
  2
ENTITIES
  0
TEXT
  5
8DB
  8
241
 10
-21.0
 20
49.0
 30
0.0
 40
5.0
  1
CKB4-C1040C
  7
YOKO
 11
-21.0
 21
49.0
 31
0.0
 73
     1
  0
LINE
  5
90E
  8
250
 10
-22.239440726170951
 20
-24.28256751837807
 30
0.0
 11
-36.382297869028093
 21
-24.28256751837807
 31
0.0
1001
ITEMNAME
1000
LNSP2
  0
LINE
  5
BA4
  8
250
 10
0.0000029999999782
 20
19.499999999999972
 30
0.0
 11
0.0000029999999793
 21
36.0
 31
0.0
  0
LINE
  5
BA5
  8
250
 10
35.000002999999992
 20
4.9813229999999731
 30
0.0
 11
35.000002999999992
 21
36.0
 31
0.0
  0
LINE
  5
BA6
  8
250
 10
2.2300029999999791
 20
35.0
 30
0.0
 11
32.770002999999988
 21
35.0
 31
0.0
  0
LINE
  5
BAA
  8
250
 10
20.14699358206434
 20
20.0
 30
0.0
 11
56.999987405636247
 21
19.999999999999972
 31
0.0
  0
LINE
  5
BAB
  8
250
 10
55.99998740563624
 20
17.769999999999989
 30
0.0
 11
55.99998740563624
 21
-4.7857167435173711
 31
0.0
  0
LINE
  5
BAE
  8
250
 10
35.14701171491064
 20
4.9999999999999698
 30
0.0
 11
49.999996313844527
 21
4.999999999999968
 31
0.0
  0
LINE
  5
BAF
  8
250
 10
48.999996313844527
 20
2.769999999999968
 30
0.0
 11
48.999996313844527
 21
-5.0000000000000009
 31
0.0
  0
TEXT
  5
BB4
  8
250
 10
-33.810869297599517
 20
-23.28256751837807
 30
0.0
 40
3.0
  1
CK4
  7
YOKO
1001
ITEMNAME
1000
LNSP3
1001
ACAD
1000
MTEXTBEGIN
1070
    73
1070
     1
1070
    44
1040
1.0
1070
    74
1070
     0
1000
MTEXTEND
  0
LINE
  5
BB5
  8
250
 10
-15.685746793905979
 20
-12.93123665043929
 30
0.0
 11
-22.239440726170951
 21
-24.28256751837807
 31
0.0
1001
ACAD
1000
DSTYLE
1002
{
1070
     5
1000
OPEN
1070
    78
1070
     8
1070
   140
1040
3.0
1002
}
  0
LINE
  5
BB6
  8
250
 10
-16.007619568979202
 20
-12.745403317105961
 30
0.0
 11
-14.570746793905981
 21
-11.0
 31
0.0
  0
LINE
  5
BB7
  8
250
 10
-15.36387401883276
 20
-13.11706998377263
 30
0.0
 11
-14.570746793905981
 21
-11.0
 31
0.0
  0
LINE
  5
BB8
  8
250
 10
-14.570746793905981
 20
-11.0
 30
0.0
 11
-15.685746793905979
 21
-12.93123665043929
 31
0.0
  0
LINE
  5
BB9
  8
250
 10
48.62832964717785
 20
2.769999999999968
 30
0.0
 11
48.999996313844527
 21
4.999999999999968
 31
0.0
  0
LINE
  5
BBA
  8
250
 10
49.371662980511211
 20
2.769999999999968
 30
0.0
 11
48.999996313844527
 21
4.999999999999968
 31
0.0
  0
LINE
  5
BBB
  8
250
 10
48.999996313844527
 20
4.999999999999968
 30
0.0
 11
48.999996313844527
 21
2.769999999999968
 31
0.0
  0
TEXT
  5
BBC
  8
250
 10
47.99950647304081
 20
-4.6117731504437121
 30
0.0
 40
3.0
  1
\U+2205
 50
90.0
  0
TEXT
  5
BBD
  8
250
 10
47.99950647304081
 20
-1.8974874361579981
 30
0.0
 40
3.0
  1
10
 50
90.0
  0
TEXT
  5
BBE
  8
250
 10
54.999987405636261
 20
-4.0714310292316469
 30
0.0
 40
3.0
  1
\U+2205
 50
90.0
1001
ACAD
1000
MTEXTBEGIN
1070
    73
1070
     1
1070
    44
1040
1.0
1070
    74
1070
     0
1000
MTEXTEND
  0
TEXT
  5
BBF
  8
250
 10
54.999987405636261
 20
-1.357145314945934
 30
0.0
 40
3.0
  1
40
 50
90.0
1001
ACAD
1000
MTEXTBEGIN
1070
    73
1070
     1
1070
    44
1040
1.0
1070
    74
1070
     0
1000
MTEXTEND
  0
LINE
  5
BC0
  8
250
 10
55.628320738969578
 20
17.769999999999989
 30
0.0
 11
55.99998740563624
 21
19.999999999999989
 31
0.0
  0
LINE
  5
BC1
  8
250
 10
56.371654072302903
 20
17.769999999999989
 30
0.0
 11
55.99998740563624
 21
19.999999999999989
 31
0.0
  0
LINE
  5
BC2
  8
250
 10
55.99998740563624
 20
19.999999999999989
 30
0.0
 11
55.99998740563624
 21
17.769999999999989
 31
0.0
  0
TEXT
  5
BC3
  8
250
 10
14.642860142857129
 20
36.0
 30
0.0
 40
3.0
  1
35
1001
ACAD
1000
MTEXTBEGIN
1070
    73
1070
     1
1070
    44
1040
1.0
1070
    74
1070
     0
1000
MTEXTEND
  0
LINE
  5
BC4
  8
250
 10
32.770003000000003
 20
35.37166666666667
 30
0.0
 11
35.000002999999992
 21
35.0
 31
0.0
  0
LINE
  5
BC5
  8
250
 10
32.770003000000003
 20
34.62833333333333
 30
0.0
 11
35.000002999999992
 21
35.0
 31
0.0
  0
LINE
  5
BC6
  8
250
 10
35.000002999999992
 20
35.0
 30
0.0
 11
32.770003000000003
 21
35.0
 31
0.0
  0
LINE
  5
BC7
  8
250
 10
2.2300029999999782
 20
34.62833333333333
 30
0.0
 11
0.0000029999999792
 21
35.0
 31
0.0
  0
LINE
  5
BC8
  8
250
 10
2.2300029999999782
 20
35.371666666666663
 30
0.0
 11
0.0000029999999792
 21
35.0
 31
0.0
  0
LINE
  5
BC9
  8
250
 10
0.0000029999999792
 20
35.0
 30
0.0
 11
2.2300029999999782
 21
35.0
 31
0.0
  0
ARC
  5
DF0
  8
241
 10
25.27362100000002
 20
5.5974439999999932
 30
0.0
 40
5.0
 50
225.0
 51
279.99999999999932
  0
LINE
  5
DF1
  8
240
 10
16.869170000000022
 20
-22.353553000000009
 30
0.0
 11
34.509720999999978
 21
-4.7130220000000094
 31
0.0
  0
LINE
  5
DF2
  8
241
 10
23.790897000000001
 20
2.385716999999969
 30
0.0
 11
8.2098130000000253
 21
17.966800999999968
 31
0.0
  0
LINE
  5
DF3
  8
241
 10
19.165489999999998
 20
20.481499999999969
 30
0.0
 11
34.882843000000008
 21
4.764165999999987
 31
0.0
  0
LINE
  5
DF4
  8
245
 10
-25.72116699999998
 20
0.0
 30
0.0
 11
35.964984000000008
 21
0.0
 31
0.0
  0
LINE
  5
DF6
  8
240
 10
-23.999999999999972
 20
10.74640999999996
 30
0.0
 11
-23.999999999999972
 21
-10.74641000000002
 31
0.0
  0
LINE
  5
DF7
  8
241
 10
0.0
 20
11.0
 30
0.0
 11
0.0
 21
0.0
 31
0.0
  0
LINE
  5
DF8
  8
241
 10
-21.641015999999979
 20
10.69909999999998
 30
0.0
 11
-21.641015999999681
 21
0.0000000000000284
 31
0.0
  0
LINE
  5
DF9
  8
241
 10
-19.499999999999972
 20
11.0
 30
0.0
 11
-19.5
 21
0.0000000000000284
 31
0.0
  0
CIRCLE
  5
DFA
  8
241
 10
-10.0
 20
0.0
 30
0.0
 40
3.0
  0
CIRCLE
  5
DFB
  8
241
 10
-10.0
 20
0.0
 30
0.0
 40
4.046999999999997
  0
LINE
  5
DFC
  8
245
 10
-10.0
 20
4.8456679999999883
 30
0.0
 11
-10.0
 21
-5.0356900000000451
 31
0.0
  0
LINE
  5
DFD
  8
241
 10
19.884063999999981
 20
-11.077435000000021
 30
0.0
 11
19.884063999999981
 21
3.9159339999999911
 31
0.0
  0
LINE
  5
DFE
  8
240
 10
-23.999999999999972
 20
-10.74641000000002
 30
0.0
 11
-23.699999999999989
 21
-10.91961500000002
 31
0.0
  0
LINE
  5
DFF
  8
240
 10
-1.599999999999965
 20
-11.0
 30
0.0
 11
-0.0000000000001421
 21
-11.00000000000049
 31
0.0
  0
LINE
  5
E00
  8
240
 10
-19.499999999999972
 20
-11.0
 30
0.0
 11
-10.24695073403316
 21
-11.0
 31
0.0
  0
LINE
  5
E01
  8
241
 10
-21.641015999999979
 20
-10.69910000000004
 30
0.0
 11
-21.641015999999791
 21
0.0000000000000284
 31
0.0
  0
LINE
  5
E02
  8
241
 10
-19.499999999999972
 20
-11.0
 30
0.0
 11
-19.49999999999967
 21
0.0000000000000284
 31
0.0
  0
LINE
  5
E03
  8
240
 10
-21.641015999999979
 20
-10.69910000000004
 30
0.0
 11
-19.499999999999972
 21
-11.0
 31
0.0
  0
LINE
  5
E04
  8
240
 10
-21.641015999999979
 20
-10.69910000000004
 30
0.0
 11
-23.295810999999979
 21
-10.990883999999991
 31
0.0
  0
ARC
  5
E05
  8
240
 10
-23.39999999999997
 20
-10.39999999999997
 30
0.0
 40
0.6
 50
239.99999999999909
 51
280.00000000000011
  0
LINE
  5
E06
  8
240
 10
-8.5581199999999704
 20
-13.27499999999997
 30
0.0
 11
-3.4418799999999679
 21
-13.27499999999997
 31
0.0
  0
LINE
  5
E07
  8
241
 10
-10.24695073403316
 20
-11.0
 30
0.0
 11
-1.753049265966808
 21
-11.0
 31
0.0
  0
LINE
  5
E08
  8
240
 10
-10.14281999999997
 20
-11.330218
 30
0.0
 11
-9.2509399999999822
 21
-12.875
 31
0.0
  0
ARC
  5
E09
  8
240
 10
-8.5581199999999704
 20
-12.475000000000019
 30
0.0
 40
0.8
 50
209.9999999999996
 51
270.0
  0
ARC
  5
E0A
  8
240
 10
-9.4499999999999869
 20
-10.93021800000002
 30
0.0
 40
0.8
 50
185.00411600000041
 51
209.9999999999996
  0
LINE
  5
E0B
  8
240
 10
-1.857178999999973
 20
-11.330218
 30
0.0
 11
-2.7490599999999841
 21
-12.875
 31
0.0
  0
ARC
  5
E0C
  8
240
 10
-3.4418799999999679
 20
-12.475000000000019
 30
0.0
 40
0.8
 50
270.0
 51
330.00000000000028
  0
ARC
  5
E0D
  8
240
 10
-2.5499999999999798
 20
-10.93021800000002
 30
0.0
 40
0.8
 50
330.00000000000028
 51
354.99588399999948
  0
LINE
  5
E0E
  8
240
 10
-1.753049265966808
 20
-11.0
 30
0.0
 11
-1.599999999999965
 21
-11.0
 31
0.0
  0
LINE
  5
E0F
  8
240
 10
0.0
 20
-19.000000000000011
 30
0.0
 11
-0.0000000000001421
 21
-11.00000000000049
 31
0.0
  0
LINE
  5
E10
  8
241
 10
4.5
 20
-19.536566000000018
 30
0.0
 11
4.5
 21
-9.9747490000000152
 31
0.0
  0
ARC
  5
E11
  8
241
 10
1.696152000000011
 20
-21.776312000000011
 30
0.0
 40
8.0
 50
0.0
 51
47.527172999999713
  0
ARC
  5
E12
  8
241
 10
24.722722999999998
 20
-20.625671000000011
 30
0.0
 40
8.0
 50
143.36145599999949
 51
180.0
  0
LINE
  5
E13
  8
240
 10
9.9641019999999951
 20
-22.49999900000001
 30
0.0
 11
16.515616999999992
 21
-22.49999900000001
 31
0.0
  0
LINE
  5
E14
  8
240
 10
4.7320510000000091
 20
-19.633973999999998
 30
0.0
 11
9.4641019999999951
 21
-22.36602400000001
 31
0.0
  0
LINE
  5
E15
  8
240
 10
0.5
 20
-19.49999900000001
 30
0.0
 11
4.2320510000000091
 21
-19.49999900000001
 31
0.0
  0
LINE
  5
E16
  8
240
 10
0.5
 20
-19.500000000000011
 30
0.0
 11
3.536053000000007
 21
-19.500000000000011
 31
0.0
  0
ARC
  5
E17
  8
240
 10
0.5
 20
-19.000000000000011
 30
0.0
 40
0.5
 50
180.0
 51
270.0
  0
ARC
  5
E18
  8
240
 10
4.2320510000000091
 20
-20.49999900000001
 30
0.0
 40
1.0
 50
59.999999999999851
 51
90.0
  0
ARC
  5
E19
  8
240
 10
9.9641019999999951
 20
-21.49999900000001
 30
0.0
 40
1.0
 50
239.9999999999998
 51
270.0
  0
LINE
  5
E1A
  8
241
 10
9.6961520000000121
 20
-22.255414000000009
 30
0.0
 11
9.6961520000000121
 21
-21.776312000000011
 31
0.0
  0
ARC
  5
E1B
  8
240
 10
16.515616999999992
 20
-21.99999900000001
 30
0.0
 40
0.5
 50
270.0
 51
314.99996600000043
  0
LINE
  5
E1C
  8
241
 10
16.722722999999998
 20
-22.137606000000009
 30
0.0
 11
16.722722999999998
 21
-20.625671000000011
 31
0.0
  0
LINE
  5
E1D
  8
241
 10
0.0
 20
0.0
 30
0.0
 11
0.0
 21
-11.0
 31
0.0
  0
ARC
  5
E2C
  8
241
 10
12.5
 20
-9.9747490000000152
 30
0.0
 40
8.0
 50
180.0
 51
227.5271729999991
  0
LINE
  5
E30
  8
240
 10
0.0
 20
-11.0
 30
0.0
 11
0.0
 21
-11.58301299999999
 31
0.0
  0
ARC
  5
E85
  8
241
 10
11.88406399999999
 20
-11.077435000000021
 30
0.0
 40
8.0
 50
323.36145800000031
 51
0.0
  0
LINE
  5
E86
  8
240
 10
-23.999999999999972
 20
10.74640999999996
 30
0.0
 11
-23.699999999999989
 21
10.91961500000002
 31
0.0
  0
LINE
  5
E87
  8
240
 10
-1.599999999999965
 20
11.0
 30
0.0
 11
-0.0000000000001279
 21
11.000000000000419
 31
0.0
  0
LINE
  5
E88
  8
240
 10
-19.499999999999972
 20
11.0
 30
0.0
 11
-10.24695073403316
 21
11.0
 31
0.0
  0
LINE
  5
E89
  8
240
 10
-21.641015999999979
 20
10.69909999999998
 30
0.0
 11
-19.499999999999972
 21
11.0
 31
0.0
  0
ARC
  5
E8A
  8
240
 10
-23.39999999999997
 20
10.39999999999997
 30
0.0
 40
0.6
 50
79.999999999999815
 51
120.0000000000008
  0
LINE
  5
E8B
  8
240
 10
-21.641015999999979
 20
10.69909999999998
 30
0.0
 11
-23.295810999999979
 21
10.99088499999999
 31
0.0
  0
LINE
  5
E8C
  8
240
 10
-8.5581199999999704
 20
13.27499999999997
 30
0.0
 11
-3.4418799999999679
 21
13.27499999999997
 31
0.0
  0
LINE
  5
E8D
  8
241
 10
-10.24695073403316
 20
11.0
 30
0.0
 11
-1.753049265966808
 21
11.0
 31
0.0
  0
LINE
  5
E8E
  8
240
 10
-10.14281999999997
 20
11.330218
 30
0.0
 11
-9.2509399999999822
 21
12.875
 31
0.0
  0
ARC
  5
E8F
  8
240
 10
-9.4499999999999869
 20
10.930217999999959
 30
0.0
 40
0.8
 50
149.9999999999998
 51
174.99588399999939
  0
ARC
  5
E90
  8
240
 10
-8.5581199999999704
 20
12.474999999999961
 30
0.0
 40
0.8
 50
90.0
 51
149.9999999999998
  0
LINE
  5
E91
  8
240
 10
-1.857178999999973
 20
11.330218
 30
0.0
 11
-2.7490599999999841
 21
12.875
 31
0.0
  0
ARC
  5
E92
  8
240
 10
-2.5499999999999798
 20
10.930217999999959
 30
0.0
 40
0.8
 50
5.0041160000005682
 51
29.999999999999719
  0
LINE
  5
E93
  8
240
 10
-1.753049265966808
 20
11.0
 30
0.0
 11
-1.599999999999965
 21
11.0
 31
0.0
  0
ARC
  5
E94
  8
240
 10
-3.4418799999999679
 20
12.474999999999961
 30
0.0
 40
0.8
 50
29.999999999999719
 51
90.0
  0
LINE
  5
E95
  8
240
 10
0.0
 20
19.00000099999999
 30
0.0
 11
-0.0000000000001279
 21
11.000000000000419
 31
0.0
  0
LINE
  5
E96
  8
241
 10
21.738087
 20
2.0619100000000099
 30
0.0
 11
4.2999979999999871
 21
19.499999999999972
 31
0.0
  0
LINE
  5
E97
  8
240
 10
9.9641019999999951
 20
22.499999999999972
 30
0.0
 11
16.515616999999992
 21
22.499999999999972
 31
0.0
  0
LINE
  5
E98
  8
241
 10
8.4765420000000216
 20
18.812757999999999
 30
0.0
 11
18.621192000000001
 21
20.60153399999998
 31
0.0
  0
LINE
  5
E99
  8
240
 10
4.7320510000000091
 20
19.633974999999989
 30
0.0
 11
9.4641019999999951
 21
22.366024999999961
 31
0.0
  0
LINE
  5
E9A
  8
240
 10
0.5
 20
19.499999999999972
 30
0.0
 11
4.2320510000000091
 21
19.499999999999972
 31
0.0
  0
ARC
  5
E9B
  8
240
 10
0.5
 20
18.999999999999961
 30
0.0
 40
0.5
 50
90.0
 51
180.0
  0
ARC
  5
E9C
  8
240
 10
4.2320510000000091
 20
20.499999999999972
 30
0.0
 40
1.0
 50
270.0
 51
299.99999999999972
  0
ARC
  5
E9D
  8
241
 10
8.563366000000002
 20
18.32035399999998
 30
0.0
 40
0.5
 50
100.0000000000001
 51
225.00000200000059
  0
ARC
  5
E9E
  8
240
 10
9.9641019999999951
 20
21.499999999999972
 30
0.0
 40
1.0
 50
90.0
 51
120.0000000000001
  0
ARC
  5
E9F
  8
240
 10
16.515616999999992
 20
21.999999999999972
 30
0.0
 40
0.5
 50
45.000034000000127
 51
90.0
  0
ARC
  5
EA0
  8
241
 10
18.812355999999991
 20
20.12752799999998
 30
0.0
 40
0.5
 50
45.000034000000127
 51
100.0000000000001
  0
LINE
  5
EA1
  8
240
 10
16.869170000000022
 20
22.353553999999971
 30
0.0
 11
18.621192000000001
 21
20.60153399999998
 31
0.0
  0
LINE
  5
EA2
  8
241
 10
18.621192000000001
 20
20.60153399999998
 30
0.0
 11
18.725532000000008
 21
20.61993199999997
 31
0.0
  0
LINE
  5
EA3
  8
240
 10
34.799613000000022
 20
-4.0928890000000271
 30
0.0
 11
34.799612999999972
 21
4.1103496560017998
 31
0.0
  0
ARC
  5
EA4
  8
240
 10
33.802615000000003
 20
-4.005914999999999
 30
0.0
 40
1.0
 50
314.99996600000043
 51
0.0
  0
LINE
  5
EA5
  8
241
 10
26.141862000000032
 20
0.6734050000000025
 30
0.0
 11
34.799613000000022
 21
2.1999999999999882
 31
0.0
  0
LINE
  5
EA6
  8
241
 10
24.231275000000011
 20
2.2468669999999791
 30
0.0
 11
34.669459000000018
 21
4.0873999999999997
 31
0.0
  0
ARC
  5
EA7
  8
241
 10
24.144451
 20
2.739269999999975
 30
0.0
 40
0.5
 50
225.00000200000059
 51
279.99999999999932
  0
ARC
  5
EA8
  8
241
 10
34.599999999999987
 20
4.4813229999999731
 30
0.0
 40
0.4
 50
279.99999999999932
 51
45.000034000000127
  0
VIEWPORT
  5
22
 67
     1
  8
0
 10
261.51769911504419
 20
148.5
 30
0.0
 40
523.0353982300885
 41
297.0
 68
     1
 69
     1
1001
ACAD
1000
MVIEW
1002
{
1070
    16
1010
0.0
1020
0.0
1030
0.0
1010
0.0
1020
0.0
1030
1.0
1040
0.0
1040
297.0
1040
261.51769911504419
1040
148.5
1040
50.0
1040
0.0
1040
0.0
1070
     0
1070
   100
1070
     1
1070
     1
1070
     0
1070
     0
1070
     0
1070
     0
1040
0.0
1040
0.0
1040
0.0
1040
1.0
1040
1.0
1040
10.0
1040
10.0
1070
     0
1002
{
1002
}
1002
}
1001
GENIUS_GENODEF_13
1002
{
1000
HIER
1070
     0
1002
}
1002
{
1000
MANEDIT
1070
     0
1002
}
1002
{
1000
NOSEL
1070
     0
1002
}
1002
{
1000
BEHIND
1070
     0
1002
}
1002
{
1000
OTHER
1070
     0
1002
}
1002
{
1000
REACTOR
1002
}
1001
GENIUS_GENOBJ-N-SDF_13
1002
{
1000
OWNER
1000
GEN
1002
}
1001
GENIUS_GENSCREG_15
1000
PF
1040
1.0
1000
DF
1040
1.0
1000
MIN
1011
0.0
1021
6.6749594872528440E+094
1031
0.0
1021
0.0
1031
0.0
1000
MAX
1011
523.0353982300885
1021
6.6749594872528440E+094
1031
0.0
1021
297.0
1031
0.0
1000
FLAGS
1070
     4
  0
ENDSEC
  0
EOF
