  0
SECTION
  2
HEADER
  9
$ACADVER
  1
AC1009
  9
$INSBASE
 10
0.0
 20
0.0
 30
0.0
  9
$EXTMIN
 10
-29.5910725600000006
 20
-16.9377449099999993
 30
0.0
  9
$EXTMAX
 10
46.8625071499999919
 20
47.0
 30
0.0
  9
$LIMMIN
 10
0.0
 20
0.0
  9
$LIMMAX
 10
420.0
 20
297.0
  9
$ORTHOMODE
 70
     1
  9
$REGENMODE
 70
     1
  9
$FILLMODE
 70
     1
  9
$QTEXTMODE
 70
     0
  9
$MIRRTEXT
 70
     1
  9
$DRAGMODE
 70
     2
  9
$LTSCALE
 40
10.0
  9
$OSMODE
 70
   807
  9
$ATTMODE
 70
     1
  9
$TEXTSIZE
 40
3.0
  9
$TRACEWID
 40
1.0
  9
$TEXTSTYLE
  7
YOKO
  9
$CLAYER
  8
240
  9
$CELTYPE
  6
BYLAYER
  9
$CECOLOR
 62
   256
  9
$DIMSCALE
 40
1.0
  9
$DIMASZ
 40
2.2299999999999991
  9
$DIMEXO
 40
0.5
  9
$DIMDLI
 40
2.5
  9
$DIMRND
 40
0.0
  9
$DIMDLE
 40
0.0
  9
$DIMEXE
 40
1.0
  9
$DIMTP
 40
0.0
  9
$DIMTM
 40
0.0
  9
$DIMTXT
 40
2.799999999999998
  9
$DIMCEN
 40
0.0
  9
$DIMTSZ
 40
0.0
  9
$DIMTOL
 70
     0
  9
$DIMLIM
 70
     0
  9
$DIMTIH
 70
     0
  9
$DIMTOH
 70
     0
  9
$DIMSE1
 70
     0
  9
$DIMSE2
 70
     0
  9
$DIMTAD
 70
     3
  9
$DIMZIN
 70
     8
  9
$DIMBLK
  1

  9
$DIMASO
 70
     1
  9
$DIMSHO
 70
     1
  9
$DIMPOST
  1

  9
$DIMAPOST
  1

  9
$DIMALT
 70
     0
  9
$DIMALTD
 70
     2
  9
$DIMALTF
 40
25.3999999999999986
  9
$DIMLFAC
 40
1.0
  9
$DIMTOFL
 70
     1
  9
$DIMTVP
 40
0.0
  9
$DIMTIX
 70
     1
  9
$DIMSOXD
 70
     0
  9
$DIMSAH
 70
     1
  9
$DIMBLK1
  1
OPEN
  9
$DIMBLK2
  1
OPEN
  9
$DIMSTYLE
  2
BIGT
  9
$DIMCLRD
 70
   256
  9
$DIMCLRE
 70
   256
  9
$DIMCLRT
 70
    40
  9
$DIMTFAC
 40
1.0
  9
$DIMGAP
 40
1.0
  9
$LUNITS
 70
     2
  9
$LUPREC
 70
     2
  9
$SKETCHINC
 40
1.0
  9
$FILLETRAD
 40
0.0
  9
$AUNITS
 70
     0
  9
$AUPREC
 70
     3
  9
$MENU
  1
.
  9
$ELEVATION
 40
0.0
  9
$PELEVATION
 40
0.0
  9
$THICKNESS
 40
0.0
  9
$LIMCHECK
 70
     0
  9
$BLIPMODE
 70
     0
  9
$CHAMFERA
 40
10.0
  9
$CHAMFERB
 40
10.0
  9
$SKPOLY
 70
     0
  9
$TDCREATE
 40
2455447.6400231481529772
  9
$TDUPDATE
 40
2458295.6425231480970979
  9
$TDINDWG
 40
0.0126109838
  9
$TDUSRTIMER
 40
0.0126107986
  9
$USRTIMER
 70
     1
  9
$ANGBASE
 50
0.0
  9
$ANGDIR
 70
     0
  9
$PDMODE
 70
     1
  9
$PDSIZE
 40
-5.0
  9
$PLINEWID
 40
0.0
  9
$COORDS
 70
     1
  9
$SPLFRAME
 70
     0
  9
$SPLINETYPE
 70
     6
  9
$SPLINESEGS
 70
     8
  9
$ATTDIA
 70
     1
  9
$ATTREQ
 70
     1
  9
$HANDLING
 70
     1
  9
$HANDSEED
  5
EC3
  9
$SURFTAB1
 70
     6
  9
$SURFTAB2
 70
     6
  9
$SURFTYPE
 70
     6
  9
$SURFU
 70
     6
  9
$SURFV
 70
     6
  9
$UCSNAME
  2

  9
$UCSORG
 10
0.0
 20
0.0
 30
0.0
  9
$UCSXDIR
 10
1.0
 20
0.0
 30
0.0
  9
$UCSYDIR
 10
0.0
 20
1.0
 30
0.0
  9
$PUCSNAME
  2

  9
$PUCSORG
 10
0.0
 20
0.0
 30
0.0
  9
$PUCSXDIR
 10
1.0
 20
0.0
 30
0.0
  9
$PUCSYDIR
 10
0.0
 20
1.0
 30
0.0
  9
$USERI1
 70
     1
  9
$USERI2
 70
     0
  9
$USERI3
 70
     0
  9
$USERI4
 70
     0
  9
$USERI5
 70
     0
  9
$USERR1
 40
0.0
  9
$USERR2
 40
0.0
  9
$USERR3
 40
0.0
  9
$USERR4
 40
0.0
  9
$USERR5
 40
0.0
  9
$WORLDVIEW
 70
     1
  9
$SHADEDGE
 70
     3
  9
$SHADEDIF
 70
    70
  9
$TILEMODE
 70
     1
  9
$MAXACTVP
 70
    16
  9
$PLIMCHECK
 70
     0
  9
$PEXTMIN
 10
1.0000000000000000E+20
 20
1.0000000000000000E+20
 30
1.0000000000000000E+20
  9
$PEXTMAX
 10
-1.0000000000000000E+20
 20
-1.0000000000000000E+20
 30
-1.0000000000000000E+20
  9
$PLIMMIN
 10
0.0
 20
0.0
  9
$PLIMMAX
 10
420.0
 20
297.0
  9
$UNITMODE
 70
     0
  9
$VISRETAIN
 70
     0
  9
$PLINEGEN
 70
     0
  9
$PSLTSCALE
 70
     1
  0
ENDSEC
  0
SECTION
  2
TABLES
  0
TABLE
  2
VPORT
 70
     1
  0
VPORT
  2
*ACTIVE
 70
     0
 10
0.0
 20
0.0
 11
1.0
 21
1.0
 12
32.7492661595303716
 22
12.4089008918297399
 13
0.0
 23
0.0
 14
7.0
 24
7.0
 15
7.0
 25
7.0
 16
0.0
 26
0.0
 36
1.0
 17
0.0
 27
0.0
 37
0.0
 40
105.4514994351166024
 41
1.887387387387387
 42
50.0
 43
0.0
 44
0.0
 50
0.0
 51
0.0
 71
     0
 72
  2000
 73
     1
 74
     0
 75
     0
 76
     1
 77
     0
 78
     0
  0
ENDTAB
  0
TABLE
  2
LTYPE
 70
    22
  0
LTYPE
  2
CONTINUOUS
 70
     0
  3
Solid line
 72
    65
 73
     0
 40
0.0
  0
LTYPE
  2
CENTER2
 70
     0
  3
___ _ ___ _ ___ _ ___ _ ___ _ ___ _ ___ _ ___ _
 72
    65
 73
     4
 40
1.125
 49
0.75
 49
-0.125
 49
0.125
 49
-0.125
  0
LTYPE
  2
HIDDEN2
 70
     0
  3
_ _ _ _ _ _ _ _ _ _ _ _ _ _ _ _ _ _ _ _ _ _ _ _
 72
    65
 73
     2
 40
0.1875
 49
0.125
 49
-0.0625
  0
LTYPE
  2
HIDDEN
 70
     0
  3
Hidden __ __ __ __ __ __ __ __ __ __ __ __ __ _
 72
    65
 73
     2
 40
9.5249999999999986
 49
6.3499999999999979
 49
-3.174999999999998
  0
LTYPE
  2
PHANTOM2
 70
     0
  3
Phantom (.5x) ___ _ _ ___ _ _ ___ _ _ ___ _ _
 72
    65
 73
     6
 40
31.75
 49
15.875
 49
-3.174999999999998
 49
3.174999999999998
 49
-3.174999999999998
 49
3.174999999999998
 49
-3.174999999999998
  0
LTYPE
  2
CENTER
 70
     0
  3
Center ____ _ ____ _ ____ _ ____ _ ____ _ ____
 72
    65
 73
     4
 40
50.7999999999999972
 49
31.75
 49
-6.3499999999999979
 49
6.3499999999999979
 49
-6.3499999999999979
  0
LTYPE
  2
AMCONSTR
 70
     0
  3
_______________________
 72
    65
 73
     2
 40
9999.0
 49
9999.0
 49
0.0
  0
LTYPE
  2
AMZIGZAG2
 70
     0
  3
/\/-/\/-/\/-/\/-/\/-/\/
 72
    65
 73
     2
 40
0.4401
 49
0.0001
 49
-0.4400000000000003
  0
LTYPE
  2
ACANSTGB
 70
     0
  3
__ . . __ . .
 72
    65
 73
     6
 40
0.35433070866
 49
0.15748031496
 49
-0.03937007874
 49
0.03937007874
 49
-0.03937007874
 49
0.03937007874
 49
-0.03937007874
  0
LTYPE
  2
ACANSTGL
 70
     0
  3
_ _ _ _ _
 72
    65
 73
     2
 40
0.11811023622
 49
0.07874015748
 49
-0.03937007874
  0
ENDTAB
  0
TABLE
  2
LAYER
 70
     9
  0
LAYER
  2
0
 70
     0
 62
     7
  6
CONTINUOUS
  0
LAYER
  2
240
 70
     0
 62
     4
  6
CONTINUOUS
  0
LAYER
  2
241
 70
     0
 62
   211
  6
CONTINUOUS
  0
LAYER
  2
242
 70
     0
 62
     3
  6
CONTINUOUS
  0
LAYER
  2
245
 70
     0
 62
     2
  6
CENTER2
  0
LAYER
  2
250
 70
     0
 62
     3
  6
CONTINUOUS
  0
LAYER
  2
DEFPOINTS
 70
     0
 62
     7
  6
CONTINUOUS
  0
LAYER
  2
243
 70
     0
 62
   211
  6
HIDDEN2
  0
LAYER
  2
247
 70
     0
 62
    60
  6
CONTINUOUS
  0
ENDTAB
  0
TABLE
  2
STYLE
 70
     9
  0
STYLE
  2
STANDARD
 70
     0
 40
0.0
 41
1.0
 50
0.0
 71
     0
 42
3.0
  3
romans.shx
  4
BIGFONT.SHX
  0
STYLE
  2
YOKO
 70
     0
 40
0.0
 41
1.0
 50
0.0
 71
     0
 42
3.0
  3
romans.shx
  4
extfont.shx
  0
STYLE
  2
ACANSGDT
 70
     0
 40
0.0
 41
1.0
 50
0.0
 71
     0
 42
3.0
  3
amgdt.shx
  4

  0
ENDTAB
  0
TABLE
  2
VIEW
 70
     0
  0
ENDTAB
  0
TABLE
  2
UCS
 70
     0
  0
ENDTAB
  0
TABLE
  2
APPID
 70
    26
  0
APPID
  2
ACAD
 70
     0
  0
APPID
  2
ACADANNOTATIVE
 70
     0
  0
APPID
  2
GLOBAL
 70
     0
  0
APPID
  2
DETAIL
 70
     0
  0
APPID
  2
GRPNAME
 70
     0
  0
APPID
  2
GPARA
 70
     0
  0
APPID
  2
DCO15
 70
     0
  0
APPID
  2
ITEMNAME
 70
     0
  0
APPID
  2
GRADE_0
 70
     0
  0
APPID
  2
CONTENTBLOCKICON
 70
     0
  0
APPID
  2
MCAD_NO_VIS
 70
     0
  0
APPID
  2
ACAD_TEMP_GRAPHIC
 70
     0
  0
APPID
  2
ACATTRIBSERVICES
 70
     0
  0
APPID
  2
DESIGNERASSEMBLIES
 70
     0
  0
APPID
  2
ACAD_DSTYLE_DIMJAG
 70
     0
  0
APPID
  2
ACAD_DSTYLE_DIMBREAK
 70
     0
  0
APPID
  2
GENIUS_GENSCREG_15
 70
     0
  0
APPID
  2
GENIUS_GENODEF_13
 70
     0
  0
APPID
  2
GENIUS_GENOBJ-N-SDF_13
 70
     0
  0
APPID
  2
ACAD_NAV_VCDISPLAY
 70
     0
  0
APPID
  2
ACAECLAYERSTANDARD
 70
     0
  0
APPID
  2
GENIUS_GENDTOL_13
 70
     0
  0
APPID
  2
ACAD_DSTYLE_DIMINSPECT
 70
     0
  0
APPID
  2
GENIUS_GENOBJ-N-FIL_13
 70
     0
  0
APPID
  2
ACAD_MLEADERVER
 70
     0
  0
APPID
  2
ACAD_EXEMPT_FROM_CAD_STANDARDS
 70
     0
  0
ENDTAB
  0
TABLE
  2
DIMSTYLE
 70
    24
  0
DIMSTYLE
  2
STANDARD
 70
     0
  3

  4

  5

  6

  7

 40
1.0
 41
0.18
 42
0.0625
 43
0.38
 44
0.18
 45
0.0
 46
0.0
 47
0.0
 48
0.0
140
0.18
141
0.09
142
0.0
143
25.3999999999999986
144
1.0
145
0.0
146
1.0
147
0.09
 71
     0
 72
     0
 73
     1
 74
     1
 75
     0
 76
     0
 77
     0
 78
     0
170
     0
171
     2
172
     0
173
     0
174
     0
175
     0
176
     0
177
     0
178
     0
  0
DIMSTYLE
  2
BIGT
 70
     0
  3

  4

  5

  6

  7

 40
1.0
 41
2.2299999999999991
 42
0.5
 43
2.5
 44
1.0
 45
0.0
 46
0.0
 47
0.0
 48
0.0
140
2.799999999999998
141
0.0
142
0.0
143
25.3999999999999986
144
1.0
145
0.0
146
1.0
147
1.0
 71
     0
 72
     0
 73
     0
 74
     0
 75
     0
 76
     0
 77
     3
 78
     8
170
     0
171
     2
172
     1
173
     1
174
     1
175
     0
176
   256
177
   256
178
    40
  0
DIMSTYLE
  2
AM_ANSI
 70
     0
  3

  4
mm
  5

  6

  7

 40
1.0
 41
0.1
 42
0.05
 43
0.5
 44
0.1
 45
0.0
 46
0.0
 47
0.1
 48
0.1
140
0.12
141
0.0
142
0.0
143
25.3999999999999986
144
1.0
145
0.0
146
0.71
147
0.06
 71
     0
 72
     0
 73
     1
 74
     1
 75
     0
 76
     0
 77
     0
 78
     7
170
     0
171
     2
172
     0
173
     0
174
     0
175
     0
176
   256
177
   256
178
     2
  0
DIMSTYLE
  2
AM_ANSI$3
 70
     0
  3

  4
mm
  5

  6

  7

 40
1.0
 41
0.1
 42
0.05
 43
0.5
 44
0.1
 45
0.0
 46
0.0
 47
0.1
 48
0.1
140
0.12
141
0.0
142
0.0
143
25.3999999999999986
144
1.0
145
0.0
146
0.71
147
0.06
 71
     0
 72
     0
 73
     1
 74
     1
 75
     0
 76
     0
 77
     0
 78
     7
170
     0
171
     2
172
     0
173
     0
174
     0
175
     0
176
   256
177
   256
178
     2
  0
DIMSTYLE
  2
AM_ANSI$4
 70
     0
  3

  4
mm
  5

  6

  7

 40
1.0
 41
0.1
 42
0.05
 43
0.5
 44
0.1
 45
0.0
 46
0.0
 47
0.1
 48
0.1
140
0.12
141
0.0
142
0.0
143
25.3999999999999986
144
1.0
145
0.0
146
0.71
147
0.06
 71
     0
 72
     0
 73
     1
 74
     1
 75
     0
 76
     0
 77
     0
 78
     7
170
     0
171
     2
172
     0
173
     0
174
     0
175
     0
176
   256
177
   256
178
     2
  0
DIMSTYLE
  2
AM_ANSI$7
 70
     0
  3

  4
mm
  5

  6

  7

 40
1.0
 41
0.1
 42
0.05
 43
0.5
 44
0.1
 45
0.0
 46
0.0
 47
0.1
 48
0.1
140
0.24
141
0.0
142
0.0
143
25.3999999999999986
144
1.0
145
0.0
146
0.71
147
0.06
 71
     0
 72
     0
 73
     1
 74
     1
 75
     0
 76
     0
 77
     0
 78
     7
170
     0
171
     2
172
     0
173
     0
174
     0
175
     0
176
   256
177
   256
178
     2
  0
DIMSTYLE
  2
AM_ANSI$SF
 70
     0
  3

  4
mm
  5

  6

  7

 40
1.0
 41
0.1
 42
0.05
 43
0.5
 44
0.1
 45
0.0
 46
0.0
 47
0.1
 48
0.1
140
0.12
141
0.0
142
0.0
143
25.3999999999999986
144
1.0
145
0.0
146
0.71
147
0.06
 71
     0
 72
     0
 73
     1
 74
     1
 75
     1
 76
     1
 77
     0
 78
     7
170
     0
171
     2
172
     0
173
     0
174
     0
175
     0
176
   256
177
   256
178
     2
  0
DIMSTYLE
  2
AM_ANSI$SH
 70
     0
  3

  4
mm
  5

  6

  7

 40
1.0
 41
0.1
 42
0.05
 43
0.5
 44
0.1
 45
0.0
 46
0.0
 47
0.1
 48
0.1
140
0.12
141
0.0
142
0.0
143
25.3999999999999986
144
1.0
145
0.0
146
0.71
147
0.06
 71
     0
 72
     0
 73
     1
 74
     1
 75
     1
 76
     1
 77
     0
 78
     7
170
     0
171
     2
172
     0
173
     1
174
     0
175
     0
176
   256
177
   256
178
     2
  0
ENDTAB
  0
ENDSEC
  0
SECTION
  2
BLOCKS
  0
BLOCK
  8
0
  2
$MODEL_SPACE
 70
     0
 10
0.0
 20
0.0
 30
0.0
  3
$MODEL_SPACE
  1

  0
ENDBLK
  5
D96
  8
0
  0
BLOCK
 67
     1
  8
0
  2
$PAPER_SPACE
 70
     0
 10
0.0
 20
0.0
 30
0.0
  3
$PAPER_SPACE
  1

  0
ENDBLK
  5
D92
 67
     1
  8
0
  0
BLOCK
  8
0
  2
_OPEN
 70
     0
 10
0.0
 20
0.0
 30
0.0
  3
_OPEN
  1

  0
LINE
  5
595
  8
0
  6
BYBLOCK
 62
     0
 10
-1.0
 20
0.16666667
 30
0.0
 11
0.0
 21
0.0
 31
0.0
  0
LINE
  5
596
  8
0
  6
BYBLOCK
 62
     0
 10
-1.0
 20
-0.16666667
 30
0.0
 11
0.0
 21
0.0
 31
0.0
  0
LINE
  5
597
  8
0
  6
BYBLOCK
 62
     0
 10
0.0
 20
0.0
 30
0.0
 11
-1.0
 21
0.0
 31
0.0
  0
ENDBLK
  5
599
  8
0
  0
BLOCK
  8
0
  2
矢印なし
 70
     0
 10
0.0
 20
0.0
 30
0.0
  3
矢印なし
  1

  0
ENDBLK
  5
6E5
  8
0
  0
BLOCK
  8
0
  2
_ACMFILLEDHALF
 70
     0
 10
0.0
 20
0.0
 30
0.0
  3
_ACMFILLEDHALF
  1

  0
TRACE
  5
E43
  8
240
 62
     0
 10
-0.8
 20
0.0
 30
0.0
 11
-1.0
 21
0.166666666
 31
0.0
 12
0.0
 22
0.0
 32
0.0
 13
0.0
 23
0.0
 33
0.0
  0
LINE
  5
E44
  8
240
 62
     0
 10
-1.0
 20
0.0
 30
0.0
 11
-0.8
 21
0.0
 31
0.0
  0
ENDBLK
  5
E42
  8
0
  0
ENDSEC
  0
SECTION
  2
ENTITIES
  0
INSERT
  5
6E6
  8
245
  2
矢印なし
 10
175.6238269700000103
 20
90.551235719999994
 30
0.0
  0
LINE
  5
902
  8
250
  6
CONTINUOUS
 10
33.7958404800000025
 20
29.6816244599999983
 30
0.0
 11
46.8625071499999919
 21
29.6816244599999983
 31
0.0
1001
ITEMNAME
1000
LNSP2
  0
LINE
  5
912
  8
250
  6
CONTINUOUS
 10
-16.5244059000000014
 20
-16.9377449099999993
 30
0.0
 11
-29.5910725600000006
 21
-16.9377449099999993
 31
0.0
1001
ITEMNAME
1000
LNSP2
  0
TEXT
  5
918
  8
241
  6
CONTINUOUS
 10
-20.0
 20
42.0
 30
0.0
 40
5.0
  1
CKB33-30
  7
YOKO
 11
-20.0
 21
42.0
 31
0.0
 73
     1
  0
LINE
  5
B33
  8
245
  6
CENTER2
 10
-21.0
 20
0.0
 30
0.0
 11
31.0
 21
0.0
 31
0.0
  0
LINE
  5
B34
  8
240
  6
CONTINUOUS
 10
-20.0
 20
9.0
 30
0.0
 11
-8.5647005400000005
 21
9.0
 31
0.0
  0
LINE
  5
B35
  8
240
  6
CONTINUOUS
 10
-8.5647005400000005
 20
-9.0
 30
0.0
 11
-20.0
 21
-9.0
 31
0.0
  0
LINE
  5
B38
  8
240
  6
CONTINUOUS
 10
-20.0
 20
-9.0
 30
0.0
 11
-20.0
 21
9.0
 31
0.0
  0
LINE
  5
B3A
  8
240
  6
CONTINUOUS
 10
30.0
 20
-15.5
 30
0.0
 11
30.0
 21
15.5
 31
0.0
  0
LINE
  5
B3B
  8
241
  6
CONTINUOUS
 10
0.0
 20
9.0
 30
0.0
 11
0.0
 21
-9.0
 31
0.0
  0
LINE
  5
B3C
  8
240
  6
CONTINUOUS
 10
30.0
 20
-15.5
 30
0.0
 11
0.0
 21
-15.5
 31
0.0
  0
LINE
  5
B3D
  8
241
  6
CONTINUOUS
 10
-8.5647005400000005
 20
-9.0
 30
0.0
 11
-1.4352994599999991
 21
-9.0
 31
0.0
  0
LINE
  5
B3E
  8
240
  6
CONTINUOUS
 10
-7.4100000000000001
 20
-11.0
 30
0.0
 11
-2.5899999999999981
 21
-11.0
 31
0.0
  0
LINE
  5
B3F
  8
240
  6
CONTINUOUS
 10
-8.5647005400000005
 20
-9.0
 30
0.0
 11
-7.4100000000000001
 21
-11.0
 31
0.0
  0
LINE
  5
B40
  8
240
  6
CONTINUOUS
 10
0.0
 20
-15.5
 30
0.0
 11
0.0
 21
-9.0
 31
0.0
  0
LINE
  5
B41
  8
240
  6
CONTINUOUS
 10
-1.4352994599999991
 20
-9.0
 30
0.0
 11
-2.5899999999999981
 21
-11.0
 31
0.0
  0
LINE
  5
B42
  8
240
  6
CONTINUOUS
 10
0.0
 20
-9.0
 30
0.0
 11
-1.4352994599999991
 21
-9.0
 31
0.0
  0
CIRCLE
  5
B43
  8
242
  6
CONTINUOUS
 10
22.0
 20
0.0
 30
0.0
 40
2.649999999999999
  0
CIRCLE
  5
B44
  8
241
  6
CONTINUOUS
 10
22.0
 20
0.0
 30
0.0
 40
3.0
  0
LINE
  5
B45
  8
243
  6
HIDDEN2
 10
8.0
 20
9.0
 30
0.0
 11
30.0
 21
9.0
 31
0.0
  0
LINE
  5
B46
  8
240
  6
CONTINUOUS
 10
30.0
 20
15.5
 30
0.0
 11
0.0
 21
15.5
 31
0.0
  0
CIRCLE
  5
B48
  8
241
  6
CONTINUOUS
 10
-8.0
 20
0.0
 30
0.0
 40
2.25
  0
CIRCLE
  5
B49
  8
241
  6
CONTINUOUS
 10
-8.0
 20
0.0
 30
0.0
 40
3.0
  0
LINE
  5
B4A
  8
245
  6
CENTER2
 10
-8.0
 20
4.0
 30
0.0
 11
-8.0
 21
-4.0
 31
0.0
  0
LINE
  5
B4D
  8
240
  6
CONTINUOUS
 10
-7.4100000000000001
 20
11.0
 30
0.0
 11
-2.5899999999999981
 21
11.0
 31
0.0
  0
LINE
  5
B4E
  8
241
  6
CONTINUOUS
 10
-8.5647005400000005
 20
9.0
 30
0.0
 11
-1.4352994599999991
 21
9.0
 31
0.0
  0
LINE
  5
B4F
  8
240
  6
CONTINUOUS
 10
-8.5647005400000005
 20
9.0
 30
0.0
 11
-7.4100000000000001
 21
11.0
 31
0.0
  0
LINE
  5
B50
  8
240
  6
CONTINUOUS
 10
0.0
 20
9.0
 30
0.0
 11
0.0
 21
15.5
 31
0.0
  0
LINE
  5
B51
  8
240
  6
CONTINUOUS
 10
-1.4352994599999991
 20
9.0
 30
0.0
 11
-2.5899999999999981
 21
11.0
 31
0.0
  0
LINE
  5
B52
  8
240
  6
CONTINUOUS
 10
0.0
 20
9.0
 30
0.0
 11
-1.4352994599999991
 21
9.0
 31
0.0
  0
LINE
  5
B56
  8
245
  6
CENTER2
 10
22.0
 20
4.0
 30
0.0
 11
22.0
 21
-4.0
 31
0.0
1001
GRPNAME
1000
PASTMD1U
  0
TEXT
  5
B58
  8
250
  6
CONTINUOUS
 10
-27.1910725599999985
 20
-15.9377449099999993
 30
0.0
 40
2.799999999999998
  1
CK3
  7
YOKO
1001
ITEMNAME
1000
LNSP3
1001
ACAD
1000
MTEXTBEGIN
1070
    73
1070
     1
1070
    44
1040
1.0
1070
    74
1070
     0
1000
MTEXTEND
1000
MTEXTBEGIN
1070
    73
1070
     1
1070
    44
1040
1.0
1070
    74
1070
     0
1000
MTEXTEND
  0
TEXT
  5
B5B
  8
250
  6
CONTINUOUS
 10
36.1958404800000011
 20
30.6816244599999983
 30
0.0
 40
2.799999999999998
  1
CK3
  7
YOKO
1001
ITEMNAME
1000
LNSP3
1001
ACAD
1000
MTEXTBEGIN
1070
    73
1070
     1
1070
    44
1040
1.0
1070
    74
1070
     0
1000
MTEXTEND
1000
MTEXTBEGIN
1070
    73
1070
     1
1070
    44
1040
1.0
1070
    74
1070
     0
1000
MTEXTEND
  0
LINE
  5
B5E
  8
250
  6
CONTINUOUS
 10
30.5
 20
-15.5
 30
0.0
 11
41.5
 21
-15.5
 31
0.0
  0
LINE
  5
B5F
  8
250
  6
CONTINUOUS
 10
30.5
 20
15.5
 30
0.0
 11
41.5
 21
15.5
 31
0.0
  0
LINE
  5
B60
  8
250
  6
CONTINUOUS
 10
40.4999999999999929
 20
-13.2699999999999996
 30
0.0
 11
40.4999999999999929
 21
13.2699999999999996
 31
0.0
  0
LINE
  5
B64
  8
250
  6
CONTINUOUS
 10
0.0
 20
16.0
 30
0.0
 11
0.0
 21
29.0
 31
0.0
  0
LINE
  5
B65
  8
250
  6
CONTINUOUS
 10
30.0
 20
16.0
 30
0.0
 11
30.0
 21
29.0
 31
0.0
  0
LINE
  5
B66
  8
250
  6
CONTINUOUS
 10
2.2299999999999991
 20
28.0
 30
0.0
 11
27.7699999999999996
 21
28.0
 31
0.0
  0
LINE
  5
B6A
  8
241
  6
CONTINUOUS
 10
20.5
 20
-0.8660253999999999
 30
0.0
 11
22.0
 21
-1.7320508100000001
 31
0.0
  0
LINE
  5
B6B
  8
241
  6
CONTINUOUS
 10
22.0
 20
-1.7320508100000001
 30
0.0
 11
23.5
 21
-0.8660253999999999
 31
0.0
  0
LINE
  5
B6C
  8
241
  6
CONTINUOUS
 10
23.5
 20
-0.8660253999999999
 30
0.0
 11
23.5
 21
0.8660253999999999
 31
0.0
  0
LINE
  5
B6D
  8
241
  6
CONTINUOUS
 10
23.5
 20
0.8660253999999999
 30
0.0
 11
22.0
 21
1.7320508100000001
 31
0.0
  0
LINE
  5
B6E
  8
241
  6
CONTINUOUS
 10
22.0
 20
1.7320508100000001
 30
0.0
 11
20.5
 21
0.8660253999999999
 31
0.0
  0
LINE
  5
B6F
  8
241
  6
CONTINUOUS
 10
20.5
 20
0.8660253999999999
 30
0.0
 11
20.5
 21
-0.8660253999999999
 31
0.0
  0
LINE
  5
B70
  8
250
  6
CONTINUOUS
 10
-13.0565467317249002
 20
-10.9312366494434201
 30
0.0
 11
-16.5244059000000014
 21
-16.9377449099999993
 31
0.0
1001
ACAD
1000
DSTYLE
1002
{
1070
     6
1000
OPEN
1070
   343
1005
594
1002
}
  0
LINE
  5
B71
  8
250
  6
CONTINUOUS
 10
-13.3784195130696002
 20
-10.7454033121059407
 30
0.0
 11
-11.9415467300000007
 21
-9.0
 31
0.0
  0
LINE
  5
B72
  8
250
  6
CONTINUOUS
 10
-12.7346739503802109
 20
-11.1170699867809102
 30
0.0
 11
-11.9415467300000007
 21
-9.0
 31
0.0
  0
LINE
  5
B73
  8
250
  6
CONTINUOUS
 10
-11.9415467300000007
 20
-9.0
 30
0.0
 11
-13.0565467317249002
 21
-10.9312366494434201
 31
0.0
  0
LINE
  5
B74
  8
250
  6
CONTINUOUS
 10
26.7230757800482905
 20
17.4312366504114209
 30
0.0
 11
33.7958404800000025
 21
29.6816244599999983
 31
0.0
1001
ACAD
1000
DSTYLE
1002
{
1070
     6
1000
OPEN
1070
   343
1005
594
1002
}
  0
LINE
  5
B75
  8
250
  6
CONTINUOUS
 10
27.044948561554321
 20
17.2454033133533713
 30
0.0
 11
25.6080757800000001
 21
15.5
 31
0.0
  0
LINE
  5
B76
  8
250
  6
CONTINUOUS
 10
26.4012029985422707
 20
17.6170699874694598
 30
0.0
 11
25.6080757800000001
 21
15.5
 31
0.0
  0
LINE
  5
B77
  8
250
  6
CONTINUOUS
 10
25.6080757800000001
 20
15.5
 30
0.0
 11
26.7230757800482905
 21
17.4312366504114209
 31
0.0
  0
TEXT
  5
B78
  8
250
  6
CONTINUOUS
 10
39.5
 20
-3.533333333333331
 30
0.0
 40
2.799999999999998
  1
\U+220531
 50
90.0
1001
ACAD
1000
MTEXTBEGIN
1070
    73
1070
     1
1070
    44
1040
1.0
1070
    74
1070
     0
1000
MTEXTEND
  0
LINE
  5
B79
  8
250
  6
CONTINUOUS
 10
40.1283333259000017
 20
13.2699999999999996
 30
0.0
 11
40.4999999999999929
 21
15.5
 31
0.0
  0
LINE
  5
B7A
  8
250
  6
CONTINUOUS
 10
40.8716666740999983
 20
13.2699999999999996
 30
0.0
 11
40.4999999999999929
 21
15.5
 31
0.0
  0
LINE
  5
B7B
  8
250
  6
CONTINUOUS
 10
40.4999999999999929
 20
15.5
 30
0.0
 11
40.4999999999999929
 21
13.2699999999999996
 31
0.0
  0
LINE
  5
B7C
  8
250
  6
CONTINUOUS
 10
40.8716666740999983
 20
-13.2699999999999996
 30
0.0
 11
40.4999999999999929
 21
-15.5
 31
0.0
  0
LINE
  5
B7D
  8
250
  6
CONTINUOUS
 10
40.1283333259000017
 20
-13.2699999999999996
 30
0.0
 11
40.4999999999999929
 21
-15.5
 31
0.0
  0
LINE
  5
B7E
  8
250
  6
CONTINUOUS
 10
40.4999999999999929
 20
-15.5
 30
0.0
 11
40.4999999999999929
 21
-13.2699999999999996
 31
0.0
  0
TEXT
  5
B7F
  8
250
  6
CONTINUOUS
 10
12.3333333333333304
 20
29.0
 30
0.0
 40
2.799999999999998
  1
30
1001
ACAD
1000
MTEXTBEGIN
1070
    73
1070
     1
1070
    44
1040
1.0
1070
    74
1070
     0
1000
MTEXTEND
  0
LINE
  5
B80
  8
250
  6
CONTINUOUS
 10
27.7699999999999996
 20
28.3716666740999983
 30
0.0
 11
30.0
 21
28.0
 31
0.0
  0
LINE
  5
B81
  8
250
  6
CONTINUOUS
 10
27.7699999999999996
 20
27.6283333259000017
 30
0.0
 11
30.0
 21
28.0
 31
0.0
  0
LINE
  5
B82
  8
250
  6
CONTINUOUS
 10
30.0
 20
28.0
 30
0.0
 11
27.7699999999999996
 21
28.0
 31
0.0
  0
LINE
  5
B83
  8
250
  6
CONTINUOUS
 10
2.2299999999999991
 20
27.6283333259000017
 30
0.0
 11
0.0
 21
28.0
 31
0.0
  0
LINE
  5
B84
  8
250
  6
CONTINUOUS
 10
2.2299999999999991
 20
28.3716666740999983
 30
0.0
 11
0.0
 21
28.0
 31
0.0
  0
LINE
  5
B85
  8
250
  6
CONTINUOUS
 10
0.0
 20
28.0
 30
0.0
 11
2.2299999999999991
 21
28.0
 31
0.0
  0
LINE
  5
B86
  8
243
  6
HIDDEN2
 10
8.0
 20
-9.0
 30
0.0
 11
30.0
 21
-9.0
 31
0.0
  0
LINE
  5
C8F
  8
247
  6
CONTINUOUS
 10
4.0000000000011351
 20
-10.5000000000000302
 30
0.0
 11
4.0000000000011804
 21
-6.7923076925360482
 31
0.0
  0
LINE
  5
C90
  8
247
  6
CONTINUOUS
 10
2.0000000000011791
 20
-9.8639147999903791
 30
0.0
 11
3.6799999999339841
 21
-10.34564704804591
 31
0.0
  0
LINE
  5
C91
  8
247
  6
CONTINUOUS
 10
2.7969230768923792
 20
-9.3601211228152508
 30
0.0
 11
2.7969230768923792
 21
-10.0924288150936494
 31
0.0
  0
ARC
  5
C92
  8
247
  6
CONTINUOUS
 10
2.3077752538364602
 20
-9.1698107215574662
 30
0.0
 40
0.3101372647461394
 50
72.9978896752920008
 51
172.9241662185123118
  0
ARC
  5
C93
  8
247
  6
CONTINUOUS
 10
2.2441785048235912
 20
-9.4059820454433112
 30
0.0
 40
0.5546438372287014
 50
4.7429368522013933
 51
73.8492262732663391
1001
GENIUS_GENOBJ-N-FIL_13
1002
{
1000
OWNER
1000
GEN
1002
}
1001
GENIUS_GENODEF_13
1002
{
1000
HIER
1070
     0
1002
}
1002
{
1000
MANEDIT
1070
     0
1002
}
1002
{
1000
NOSEL
1070
     0
1002
}
1002
{
1000
BEHIND
1070
     0
1002
}
1002
{
1000
OTHER
1070
     0
1002
}
1002
{
1000
REACTOR
1002
}
  0
LINE
  5
C94
  8
247
  6
CONTINUOUS
 10
3.6799999999339841
 20
-9.6133393557675113
 30
0.0
 11
3.6799999999339841
 21
-10.34564704804591
 31
0.0
  0
LINE
  5
C95
  8
247
  6
CONTINUOUS
 10
2.0000000000011791
 20
-9.8639147999903862
 30
0.0
 11
2.0000000000011791
 21
-9.131607107711984
 31
0.0
  0
ARC
  5
C96
  8
247
  6
CONTINUOUS
 10
3.1099335702154791
 20
-9.4026451810134901
 30
0.0
 40
0.3158858408603088
 50
65.990941652528889
 51
172.2634434590694923
  0
ARC
  5
C97
  8
247
  6
CONTINUOUS
 10
3.1129602618672361
 20
-9.6699572883415552
 30
0.0
 40
0.5698593289889349
 50
5.701985164258037
 51
77.2773384368222622
1001
GENIUS_GENOBJ-N-FIL_13
1002
{
1000
OWNER
1000
GEN
1002
}
1001
GENIUS_GENODEF_13
1002
{
1000
HIER
1070
     0
1002
}
1002
{
1000
MANEDIT
1070
     0
1002
}
1002
{
1000
NOSEL
1070
     0
1002
}
1002
{
1000
BEHIND
1070
     0
1002
}
1002
{
1000
OTHER
1070
     0
1002
}
1002
{
1000
REACTOR
1002
}
  0
LINE
  5
C98
  8
247
  6
CONTINUOUS
 10
3.6799999999339841
 20
-8.847185509650723
 30
0.0
 11
2.0000000000011791
 21
-8.3654532615951975
 31
0.0
  0
LINE
  5
C99
  8
247
  6
CONTINUOUS
 10
2.0000000000011791
 20
-7.168530184726392
 30
0.0
 11
2.0000000000011791
 21
-7.4853426914428889
 31
0.0
  0
LINE
  5
C9A
  8
247
  6
CONTINUOUS
 10
3.6799999999339841
 20
-7.9869917231551932
 30
0.0
 11
3.6799999999339841
 21
-7.6423763385535981
 31
0.0
  0
ARC
  5
C9B
  8
247
  6
CONTINUOUS
 10
3.1666396760678701
 20
-7.0054532616559921
 30
0.0
 40
1.261484046111637
 50
202.3594881415272937
 51
254.9932485428460041
  0
ARC
  5
C9C
  8
247
  6
CONTINUOUS
 10
2.4526550868316912
 20
-7.378009092906602
 30
0.0
 40
0.4987765437607558
 50
94.9945893190753736
 51
155.1663289573035911
1001
GENIUS_GENOBJ-N-FIL_13
1002
{
1000
OWNER
1000
GEN
1002
}
1001
GENIUS_GENODEF_13
1002
{
1000
HIER
1070
     0
1002
}
1002
{
1000
MANEDIT
1070
     0
1002
}
1002
{
1000
NOSEL
1070
     0
1002
}
1002
{
1000
BEHIND
1070
     0
1002
}
1002
{
1000
OTHER
1070
     0
1002
}
1002
{
1000
REACTOR
1002
}
  0
ARC
  5
C9D
  8
247
  6
CONTINUOUS
 10
2.929681697576731
 20
-7.8553471608262431
 30
0.0
 40
0.7799577719285588
 50
15.8460965557799707
 51
82.3251370041691644
  0
ARC
  5
C9E
  8
247
  6
CONTINUOUS
 10
3.097176321578035
 20
-7.5281693110177983
 30
0.0
 40
0.7417556510953607
 50
249.7136016704970132
 51
321.7887456564096169
1001
GENIUS_GENOBJ-N-FIL_13
1002
{
1000
OWNER
1000
GEN
1002
}
1001
GENIUS_GENODEF_13
1002
{
1000
HIER
1070
     0
1002
}
1002
{
1000
MANEDIT
1070
     0
1002
}
1002
{
1000
NOSEL
1070
     0
1002
}
1002
{
1000
BEHIND
1070
     0
1002
}
1002
{
1000
OTHER
1070
     0
1002
}
1002
{
1000
REACTOR
1002
}
  0
LINE
  5
C9F
  8
247
  6
CONTINUOUS
 10
3.03384615380596
 20
-7.4700686462527921
 30
0.0
 11
3.03384615380596
 21
-7.082376338575993
 31
0.0
  0
ARC
  5
CA0
  8
247
  6
CONTINUOUS
 10
3.0000000000011791
 20
-10.5000000000000302
 30
0.0
 40
1.0
 50
180.0
 51
0.0
  0
LINE
  5
CA1
  8
247
  6
CONTINUOUS
 10
2.0000000000011791
 20
-10.5000000000000302
 30
0.0
 11
2.0000000000011791
 21
-10.1430769231312201
 31
0.0
  0
ARC
  5
CA2
  8
247
  6
CONTINUOUS
 10
3.0000000000011791
 20
-6.7923076925360331
 30
0.0
 40
1.0
 50
0.0
 51
180.0
  0
VIEWPORT
  5
22
 67
     1
  8
0
 10
261.5176991199999748
 20
148.5
 30
0.0
 40
523.0353982300000553
 41
297.0
 68
     1
 69
     1
1001
ACAD
1000
MVIEW
1002
{
1070
    16
1010
0.0
1020
0.0
1030
0.0
1010
0.0
1020
0.0
1030
1.0
1040
0.0
1040
297.0
1040
261.5176991199999748
1040
148.5
1040
50.0
1040
0.0
1040
0.0
1070
     0
1070
   100
1070
     1
1070
     1
1070
     0
1070
     0
1070
     0
1070
     0
1040
0.0
1040
0.0
1040
0.0
1040
1.0
1040
1.0
1040
10.0
1040
10.0
1070
     0
1002
{
1002
}
1002
}
1001
GENIUS_GENODEF_13
1002
{
1000
HIER
1070
     0
1002
}
1002
{
1000
MANEDIT
1070
     0
1002
}
1002
{
1000
NOSEL
1070
     0
1002
}
1002
{
1000
BEHIND
1070
     0
1002
}
1002
{
1000
OTHER
1070
     0
1002
}
1002
{
1000
REACTOR
1002
}
1001
GENIUS_GENOBJ-N-SDF_13
1002
{
1000
OWNER
1000
GEN
1002
}
1001
GENIUS_GENSCREG_15
1000
PF
1040
1.0
1000
DF
1040
1.0
1000
MIN
1011
0.0000000049999471
1021
0.0
1031
0.0
1021
0.0
1031
0.0
1000
MAX
1011
523.0353982350000024
1021
0.0
1031
0.0
1021
297.0
1031
0.0
1000
FLAGS
1070
     4
  0
ENDSEC
  0
EOF
