  0
SECTION
  2
HEADER
  9
$ACADVER
  1
AC1009
  9
$INSBASE
 10
0.0
 20
0.0
 30
0.0
  9
$EXTMIN
 10
-45.799999999999848
 20
-31.28906711936002
 30
0.0
  9
$EXTMAX
 10
50.714285714285722
 20
80.163113499704338
 30
0.0
  9
$LIMMIN
 10
0.0
 20
0.0
  9
$LIMMAX
 10
297.0
 20
210.0
  9
$ORTHOMODE
 70
     0
  9
$REGENMODE
 70
     1
  9
$FILLMODE
 70
     1
  9
$QTEXTMODE
 70
     0
  9
$MIRRTEXT
 70
     1
  9
$DRAGMODE
 70
     2
  9
$LTSCALE
 40
10.0
  9
$OSMODE
 70
    32
  9
$ATTMODE
 70
     1
  9
$TEXTSIZE
 40
3.0
  9
$TRACEWID
 40
1.0
  9
$TEXTSTYLE
  7
YOKO
  9
$CLAYER
  8
240
  9
$CELTYPE
  6
BYLAYER
  9
$CECOLOR
 62
   256
  9
$DIMSCALE
 40
1.0
  9
$DIMASZ
 40
2.2299999999999991
  9
$DIMEXO
 40
0.5
  9
$DIMDLI
 40
7.0
  9
$DIMRND
 40
0.0
  9
$DIMDLE
 40
0.0
  9
$DIMEXE
 40
1.0
  9
$DIMTP
 40
0.0
  9
$DIMTM
 40
0.01
  9
$DIMTXT
 40
2.799999999999998
  9
$DIMCEN
 40
0.0
  9
$DIMTSZ
 40
0.0
  9
$DIMTOL
 70
     0
  9
$DIMLIM
 70
     0
  9
$DIMTIH
 70
     0
  9
$DIMTOH
 70
     0
  9
$DIMSE1
 70
     0
  9
$DIMSE2
 70
     0
  9
$DIMTAD
 70
     3
  9
$DIMZIN
 70
     9
  9
$DIMBLK
  1
OPEN
  9
$DIMASO
 70
     1
  9
$DIMSHO
 70
     1
  9
$DIMPOST
  1

  9
$DIMAPOST
  1

  9
$DIMALT
 70
     0
  9
$DIMALTD
 70
     2
  9
$DIMALTF
 40
25.399999999999999
  9
$DIMLFAC
 40
1.0
  9
$DIMTOFL
 70
     1
  9
$DIMTVP
 40
0.0
  9
$DIMTIX
 70
     1
  9
$DIMSOXD
 70
     0
  9
$DIMSAH
 70
     0
  9
$DIMBLK1
  1

  9
$DIMBLK2
  1

  9
$DIMSTYLE
  2
BIGT
  9
$DIMCLRD
 70
   256
  9
$DIMCLRE
 70
   256
  9
$DIMCLRT
 70
    40
  9
$DIMTFAC
 40
1.0
  9
$DIMGAP
 40
1.0
  9
$LUNITS
 70
     2
  9
$LUPREC
 70
     3
  9
$SKETCHINC
 40
1.0
  9
$FILLETRAD
 40
0.0
  9
$AUNITS
 70
     0
  9
$AUPREC
 70
     3
  9
$MENU
  1
.
  9
$ELEVATION
 40
0.0
  9
$PELEVATION
 40
0.0
  9
$THICKNESS
 40
0.0
  9
$LIMCHECK
 70
     0
  9
$BLIPMODE
 70
     0
  9
$CHAMFERA
 40
0.25
  9
$CHAMFERB
 40
0.25
  9
$SKPOLY
 70
     0
  9
$TDCREATE
 40
2455933.6683330908
  9
$TDUPDATE
 40
2459908.4405871411
  9
$TDINDWG
 40
0.0203397454
  9
$TDUSRTIMER
 40
0.0203397338
  9
$USRTIMER
 70
     1
  9
$ANGBASE
 50
0.0
  9
$ANGDIR
 70
     0
  9
$PDMODE
 70
     1
  9
$PDSIZE
 40
0.0
  9
$PLINEWID
 40
0.0
  9
$COORDS
 70
     1
  9
$SPLFRAME
 70
     0
  9
$SPLINETYPE
 70
     6
  9
$SPLINESEGS
 70
     4
  9
$ATTDIA
 70
     1
  9
$ATTREQ
 70
     1
  9
$HANDLING
 70
     1
  9
$HANDSEED
  5
1D40
  9
$SURFTAB1
 70
     6
  9
$SURFTAB2
 70
     6
  9
$SURFTYPE
 70
     6
  9
$SURFU
 70
     6
  9
$SURFV
 70
     6
  9
$UCSNAME
  2

  9
$UCSORG
 10
0.0
 20
0.0
 30
0.0
  9
$UCSXDIR
 10
1.0
 20
0.0
 30
0.0
  9
$UCSYDIR
 10
0.0
 20
1.0
 30
0.0
  9
$PUCSNAME
  2

  9
$PUCSORG
 10
0.0
 20
0.0
 30
0.0
  9
$PUCSXDIR
 10
1.0
 20
0.0
 30
0.0
  9
$PUCSYDIR
 10
0.0
 20
1.0
 30
0.0
  9
$USERI1
 70
     1
  9
$USERI2
 70
     0
  9
$USERI3
 70
     0
  9
$USERI4
 70
     0
  9
$USERI5
 70
     0
  9
$USERR1
 40
0.0
  9
$USERR2
 40
0.0
  9
$USERR3
 40
0.0
  9
$USERR4
 40
0.0
  9
$USERR5
 40
0.0
  9
$WORLDVIEW
 70
     1
  9
$SHADEDGE
 70
     3
  9
$SHADEDIF
 70
    70
  9
$TILEMODE
 70
     1
  9
$MAXACTVP
 70
    16
  9
$PLIMCHECK
 70
     0
  9
$PEXTMIN
 10
1.0000000000000000E+020
 20
1.0000000000000000E+020
 30
1.0000000000000000E+020
  9
$PEXTMAX
 10
-1.0000000000000000E+020
 20
-1.0000000000000000E+020
 30
-1.0000000000000000E+020
  9
$PLIMMIN
 10
0.0
 20
0.0
  9
$PLIMMAX
 10
420.0
 20
297.0
  9
$UNITMODE
 70
     0
  9
$VISRETAIN
 70
     1
  9
$PLINEGEN
 70
     0
  9
$PSLTSCALE
 70
     1
  0
ENDSEC
  0
SECTION
  2
TABLES
  0
TABLE
  2
VPORT
 70
     1
  0
VPORT
  2
*ACTIVE
 70
     0
 10
0.0
 20
0.0
 11
1.0
 21
1.0
 12
20.355002735896768
 22
18.77980297503796
 13
0.0
 23
0.0
 14
7.0
 24
7.0
 15
7.0
 25
7.0
 16
0.0
 26
0.0
 36
1.0
 17
0.0
 27
0.0
 37
0.0
 40
107.80628298082971
 41
1.9454545454545451
 42
50.0
 43
0.0
 44
0.0
 50
0.0
 51
0.0
 71
     0
 72
  2000
 73
     1
 74
     0
 75
     0
 76
     0
 77
     0
 78
     0
  0
ENDTAB
  0
TABLE
  2
LTYPE
 70
    17
  0
LTYPE
  2
CONTINUOUS
 70
     0
  3
Solid line
 72
    65
 73
     0
 40
0.0
  0
LTYPE
  2
CENTER2
 70
     0
  3
___ _ ___ _ ___ _ ___ _ ___ _ ___ _ ___ _ ___ _
 72
    65
 73
     4
 40
1.125
 49
0.75
 49
-0.125
 49
0.125
 49
-0.125
  0
LTYPE
  2
HIDDEN2
 70
     0
  3
_ _ _ _ _ _ _ _ _ _ _ _ _ _ _ _ _ _ _ _ _ _ _ _
 72
    65
 73
     2
 40
0.1875
 49
0.125
 49
-0.0625
  0
LTYPE
  2
PHANTOM2
 70
     0
  3
___ _ _ ___ _ _ ___ _ _ ___ _ _ ___ _ _ ___ _ _
 72
    65
 73
     6
 40
1.25
 49
0.625
 49
-0.125
 49
0.125
 49
-0.125
 49
0.125
 49
-0.125
  0
LTYPE
  2
CENTER
 70
     0
  3
____ _ ____ _ ____ _ ____ _ ____ _ ____ _ ____ 
 72
    65
 73
     4
 40
2.0
 49
1.25
 49
-0.25
 49
0.25
 49
-0.25
  0
LTYPE
  2
AMCONSTR
 70
     0
  3
_______________________
 72
    65
 73
     2
 40
9999.0
 49
9999.0
 49
0.0
  0
LTYPE
  2
HIDDEN
 70
     0
  3
Hidden __ __ __ __ __ __ __ __ __ __ __ __ __ _
 72
    65
 73
     2
 40
9.5249999999999986
 49
6.349999999999997
 49
-3.174999999999998
  0
LTYPE
  2
AMZIGZAG2
 70
     0
  3
/\/-/\/-/\/-/\/-/\/-/\/
 72
    65
 73
     2
 40
0.4401
 49
0.0001
 49
-0.4400000000000002
  0
LTYPE
  2
ACANSTGB
 70
     0
  3
__ . . __ . .
 72
    65
 73
     6
 40
0.35433070866
 49
0.15748031496
 49
-0.03937007874
 49
0.03937007874
 49
-0.03937007874
 49
0.03937007874
 49
-0.03937007874
  0
LTYPE
  2
ACANSTGL
 70
     0
  3
_ _ _ _ _
 72
    65
 73
     2
 40
0.11811023622
 49
0.07874015748
 49
-0.03937007874
  0
LTYPE
  2
AM_ISO02W050
 70
     0
  3
__ __ __ __ __ __ __ __ __ __ __ __ __ __ __
 72
    65
 73
     2
 40
7.5
 49
6.0
 49
-1.5
  0
LTYPE
  2
AM_ISO08W050
 70
     0
  3
____ . ____ . ____ . ____ . ____ . ____ . ____
 72
    65
 73
     4
 40
18.0
 49
12.0
 49
-1.5
 49
3.0
 49
-1.5
  0
LTYPE
  2
AM_ISO09W050
 70
     0
  3
_____ . . _____ . . _____ . . ____ .. ____
 72
    65
 73
     6
 40
22.5
 49
12.0
 49
-1.5
 49
3.0
 49
-1.5
 49
3.0
 49
-1.5
  0
LTYPE
  2
AM_ISO08W050X2
 70
     0
  3
__ . __ . __ . __ . __ . __
 72
    65
 73
     4
 40
9.0
 49
6.0
 49
-0.75
 49
1.5
 49
-0.75
  0
LTYPE
  2
AM_ISO02W050X2
 70
     0
  3
 _ _ _ _ _ _ _ _ _ _ _ _
 72
    65
 73
     2
 40
3.75
 49
3.0
 49
-0.75
  0
LTYPE
  2
AMZIGZAG
 70
     0
  3
/\/-/\/-/\/-/\/-/\/-/\/
 72
    65
 73
     2
 40
11.0001
 49
0.0001
 49
-11.0
  0
ENDTAB
  0
TABLE
  2
LAYER
 70
     9
  0
LAYER
  2
0
 70
     0
 62
     7
  6
CONTINUOUS
  0
LAYER
  2
245
 70
     0
 62
     2
  6
CENTER2
  0
LAYER
  2
DEFPOINTS
 70
     0
 62
     7
  6
CONTINUOUS
  0
LAYER
  2
240
 70
     0
 62
     4
  6
CONTINUOUS
  0
LAYER
  2
241
 70
     0
 62
   211
  6
CONTINUOUS
  0
LAYER
  2
247
 70
     0
 62
    60
  6
CONTINUOUS
  0
LAYER
  2
250
 70
     0
 62
     3
  6
CONTINUOUS
  0
LAYER
  2
AM_CL
 70
     0
 62
     1
  6
AMCONSTR
  0
LAYER
  2
AM_5
 70
     0
 62
     3
  6
CONTINUOUS
  0
ENDTAB
  0
TABLE
  2
STYLE
 70
     7
  0
STYLE
  2
STANDARD
 70
     0
 40
0.0
 41
1.0
 50
0.0
 71
     0
 42
3.0
  3
romans.shx
  4
extfont.shx
  0
STYLE
  2
ANNOTATIVE
 70
     0
 40
0.0
 41
1.0
 50
0.0
 71
     0
 42
0.2
  3
txt
  4

  0
STYLE
  2
YOKO
 70
     0
 40
0.0
 41
1.0
 50
0.0
 71
     0
 42
3.0
  3
romans.shx
  4
extfont.shx
  0
STYLE
  2

 70
     1
 40
0.0
 41
1.0
 50
0.0
 71
     0
 42
3.0
  3
ltypeshp.shx
  4

  0
STYLE
  2
ACANSTS
 70
     0
 40
1.0
 41
1.0
 50
0.0
 71
     0
 42
3.0
  3
romans.shx
  4
extfont.shx
  0
STYLE
  2
ACANSGDT
 70
     0
 40
0.0
 41
1.0
 50
0.0
 71
     0
 42
3.0
  3
amgdt.shx
  4

  0
STYLE
  2

 70
     1
 40
0.0
 41
1.0
 50
0.0
 71
     0
 42
3.0
  3
genltshp.shx
  4

  0
ENDTAB
  0
TABLE
  2
VIEW
 70
     0
  0
ENDTAB
  0
TABLE
  2
UCS
 70
     0
  0
ENDTAB
  0
TABLE
  2
APPID
 70
    41
  0
APPID
  2
ACAD
 70
     0
  0
APPID
  2
ACADANNOTATIVE
 70
     0
  0
APPID
  2
GLOBAL
 70
     0
  0
APPID
  2
DETAIL
 70
     0
  0
APPID
  2
GRPNAME
 70
     0
  0
APPID
  2
GPARA
 70
     0
  0
APPID
  2
MCAD_NO_VIS
 70
     0
  0
APPID
  2
ACAD_TEMP_GRAPHIC
 70
     0
  0
APPID
  2
ACATTRIBSERVICES
 70
     0
  0
APPID
  2
GENIUS_GENSCREG_15
 70
     0
  0
APPID
  2
GENIUS_GENODEF_13
 70
     0
  0
APPID
  2
GENIUS_GENOBJ-N-SDF_13
 70
     0
  0
APPID
  2
GENIUS_GENREC_14
 70
     0
  0
APPID
  2
GENIUS_GENOBJ-N-REC_13
 70
     0
  0
APPID
  2
GENIUS_GENDIMSH_14
 70
     0
  0
APPID
  2
GENIUS_GENOBJ-N-DIM_13
 70
     0
  0
APPID
  2
GENIUS_GENDIM_13
 70
     0
  0
APPID
  2
GENIUS_GENDTOL_13
 70
     0
  0
APPID
  2
GENIUS_GENOLIS_13
 70
     0
  0
APPID
  2
GENIUS_GENOENT_13
 70
     0
  0
APPID
  2
GENIUS_GENOBJ-F-FEM_13
 70
     0
  0
APPID
  2
GENIUS_GENOREF_13
 70
     0
  0
APPID
  2
GENIUS_GEFFEM_13
 70
     0
  0
APPID
  2
GENIUS_GEFFEMP_13
 70
     0
  0
APPID
  2
AD_DRAW
 70
     0
  0
APPID
  2
DESIGNERASSEMBLIES
 70
     0
  0
APPID
  2
ACADM_DIM_EDIT
 70
     0
  0
APPID
  2
AMDT_DM_ADJ
 70
     0
  0
APPID
  2
ITEMNAME
 70
     0
  0
APPID
  2
HATCH_TYPE
 70
     0
  0
APPID
  2
HATCH_DISPLAY
 70
     0
  0
APPID
  2
HATCH_DISTANCE
 70
     0
  0
APPID
  2
ACAD_DSTYLE_DIMBREAK
 70
     0
  0
APPID
  2
ACAD_DSTYLE_DIMJAG
 70
     0
  0
APPID
  2
ACAD_NAV_VCDISPLAY
 70
     0
  0
APPID
  2
GENIUS_GENOBJ-N-FIL_13
 70
     0
  0
APPID
  2
ACAD_EXEMPT_FROM_CAD_STANDARDS
 70
     0
  0
APPID
  2
ACAECLAYERSTANDARD
 70
     0
  0
APPID
  2
ACAD_DSTYLE_DIMINSPECT
 70
     0
  0
APPID
  2
ACAD_DSTYLE_DIMANGULAR_EXT
 70
     0
  0
APPID
  2
ACAD_MLEADERVER
 70
     0
  0
ENDTAB
  0
TABLE
  2
DIMSTYLE
 70
    11
  0
DIMSTYLE
  2
STANDARD
 70
     0
  3

  4

  5

  6

  7

 40
1.0
 41
0.18
 42
0.0625
 43
0.38
 44
0.18
 45
0.0
 46
0.0
 47
0.0
 48
0.0
140
0.18
141
0.09
142
0.0
143
25.399999999999999
144
1.0
145
0.0
146
1.0
147
0.09
 71
     0
 72
     0
 73
     1
 74
     1
 75
     0
 76
     0
 77
     0
 78
     0
170
     0
171
     2
172
     0
173
     0
174
     0
175
     0
176
     0
177
     0
178
     0
  0
DIMSTYLE
  2
ANNOTATIVE
 70
     0
  3

  4

  5

  6

  7

 40
1.0
 41
0.18
 42
0.0625
 43
0.38
 44
0.18
 45
0.0
 46
0.0
 47
0.0
 48
0.0
140
0.18
141
0.09
142
0.0
143
25.399999999999999
144
1.0
145
0.0
146
1.0
147
0.09
 71
     0
 72
     0
 73
     1
 74
     1
 75
     0
 76
     0
 77
     0
 78
     0
170
     0
171
     2
172
     0
173
     0
174
     0
175
     0
176
     0
177
     0
178
     0
  0
DIMSTYLE
  2
BIGT
 70
     0
  3

  4

  5

  6

  7

 40
1.0
 41
2.2299999999999991
 42
0.5
 43
7.0
 44
1.0
 45
0.0
 46
0.0
 47
0.0
 48
0.01
140
2.799999999999998
141
0.0
142
0.0
143
25.399999999999999
144
1.0
145
0.0
146
1.0
147
1.0
 71
     0
 72
     0
 73
     0
 74
     0
 75
     0
 76
     0
 77
     3
 78
     9
170
     0
171
     2
172
     1
173
     0
174
     1
175
     0
176
   256
177
   256
178
    40
  0
DIMSTYLE
  2
AM_ANSI
 70
     0
  3

  4
mm
  5

  6

  7

 40
1.0
 41
0.1
 42
0.05
 43
0.5
 44
0.1
 45
0.0
 46
0.0
 47
0.1
 48
0.1
140
0.12
141
0.0
142
0.0
143
25.399999999999999
144
1.0
145
0.0
146
0.71
147
0.06
 71
     0
 72
     0
 73
     1
 74
     1
 75
     0
 76
     0
 77
     0
 78
     7
170
     0
171
     2
172
     0
173
     0
174
     0
175
     0
176
   256
177
   256
178
     2
  0
DIMSTYLE
  2
AM_ANSI$3
 70
     0
  3

  4
mm
  5

  6

  7

 40
1.0
 41
0.1
 42
0.05
 43
0.5
 44
0.1
 45
0.0
 46
0.0
 47
0.1
 48
0.1
140
0.12
141
0.0
142
0.0
143
25.399999999999999
144
1.0
145
0.0
146
0.71
147
0.06
 71
     0
 72
     0
 73
     1
 74
     1
 75
     0
 76
     0
 77
     0
 78
     7
170
     0
171
     2
172
     0
173
     0
174
     0
175
     0
176
   256
177
   256
178
     2
  0
DIMSTYLE
  2
AM_ANSI$4
 70
     0
  3

  4
mm
  5

  6

  7

 40
1.0
 41
0.1
 42
0.05
 43
0.5
 44
0.1
 45
0.0
 46
0.0
 47
0.1
 48
0.1
140
0.12
141
0.0
142
0.0
143
25.399999999999999
144
1.0
145
0.0
146
0.71
147
0.06
 71
     0
 72
     0
 73
     1
 74
     1
 75
     0
 76
     0
 77
     0
 78
     7
170
     0
171
     2
172
     0
173
     0
174
     0
175
     0
176
   256
177
   256
178
     2
  0
DIMSTYLE
  2
AM_ANSI$7
 70
     0
  3

  4
mm
  5

  6

  7

 40
1.0
 41
0.1
 42
0.05
 43
0.5
 44
0.1
 45
0.0
 46
0.0
 47
0.1
 48
0.1
140
0.24
141
0.0
142
0.0
143
25.399999999999999
144
1.0
145
0.0
146
0.71
147
0.06
 71
     0
 72
     0
 73
     1
 74
     1
 75
     0
 76
     0
 77
     0
 78
     7
170
     0
171
     2
172
     0
173
     0
174
     0
175
     0
176
   256
177
   256
178
     2
  0
DIMSTYLE
  2
AM_ANSI$SF
 70
     0
  3

  4
mm
  5

  6

  7

 40
1.0
 41
0.1
 42
0.05
 43
0.5
 44
0.1
 45
0.0
 46
0.0
 47
0.1
 48
0.1
140
0.12
141
0.0
142
0.0
143
25.399999999999999
144
1.0
145
0.0
146
0.71
147
0.06
 71
     0
 72
     0
 73
     1
 74
     1
 75
     1
 76
     1
 77
     0
 78
     7
170
     0
171
     2
172
     0
173
     0
174
     0
175
     0
176
   256
177
   256
178
     2
  0
DIMSTYLE
  2
AM_ANSI$SH
 70
     0
  3

  4
mm
  5

  6

  7

 40
1.0
 41
0.1
 42
0.05
 43
0.5
 44
0.1
 45
0.0
 46
0.0
 47
0.1
 48
0.1
140
0.12
141
0.0
142
0.0
143
25.399999999999999
144
1.0
145
0.0
146
0.71
147
0.06
 71
     0
 72
     0
 73
     1
 74
     1
 75
     1
 76
     1
 77
     0
 78
     7
170
     0
171
     2
172
     0
173
     1
174
     0
175
     0
176
   256
177
   256
178
     2
  0
DIMSTYLE
  2
BIGT$2
 70
     0
  3

  4

  5

  6

  7

 40
1.0
 41
2.2299999999999991
 42
0.5
 43
7.0
 44
1.0
 45
0.0
 46
0.0
 47
0.0
 48
0.01
140
2.799999999999998
141
0.0
142
0.0
143
25.399999999999999
144
1.0
145
0.0
146
1.0
147
1.0
 71
     0
 72
     0
 73
     0
 74
     0
 75
     0
 76
     0
 77
     3
 78
     9
170
     0
171
     2
172
     1
173
     0
174
     1
175
     0
176
   256
177
   256
178
    40
  0
ENDTAB
  0
ENDSEC
  0
SECTION
  2
BLOCKS
  0
BLOCK
  8
0
  2
$MODEL_SPACE
 70
     0
 10
0.0
 20
0.0
 30
0.0
  3
$MODEL_SPACE
  1

  0
ENDBLK
  5
1B19
  8
0
  0
BLOCK
 67
     1
  8
0
  2
$PAPER_SPACE
 70
     0
 10
0.0
 20
0.0
 30
0.0
  3
$PAPER_SPACE
  1

  0
ENDBLK
  5
1B15
 67
     1
  8
0
  0
BLOCK
  8
0
  2
_OPEN
 70
     0
 10
0.0
 20
0.0
 30
0.0
  3
_OPEN
  1

  0
LINE
  5
15DF
  8
0
  6
BYBLOCK
 62
     0
 10
-1.0
 20
0.1666666666666666
 30
0.0
 11
0.0
 21
0.0
 31
0.0
  0
LINE
  5
15E0
  8
0
  6
BYBLOCK
 62
     0
 10
-1.0
 20
-0.1666666666666666
 30
0.0
 11
0.0
 21
0.0
 31
0.0
  0
LINE
  5
15E1
  8
0
  6
BYBLOCK
 62
     0
 10
0.0
 20
0.0
 30
0.0
 11
-1.0
 21
0.0
 31
0.0
  0
ENDBLK
  5
15E2
  8
0
  0
BLOCK
  8
0
  2
GENAXEH
 70
     0
 10
0.0
 20
0.0
 30
0.0
  3
GENAXEH
  1

  0
LINE
  5
160A
  8
0
 10
-1.0
 20
0.0
 30
0.0
 11
1.0
 21
0.0
 31
0.0
  0
ENDBLK
  5
160B
  8
0
  0
BLOCK
  8
0
  2
_ACMFILLEDHALF
 70
     0
 10
0.0
 20
0.0
 30
0.0
  3
_ACMFILLEDHALF
  1

  0
TRACE
  5
1BB5
  8
245
 62
     0
 10
-0.8
 20
0.0
 30
0.0
 11
-1.0
 21
0.166666666
 31
0.0
 12
0.0
 22
0.0
 32
0.0
 13
0.0
 23
0.0
 33
0.0
  0
LINE
  5
1BB6
  8
245
 62
     0
 10
-1.0
 20
0.0
 30
0.0
 11
-0.8
 21
0.0
 31
0.0
  0
ENDBLK
  5
1BB4
  8
0
  0
BLOCK
  8
0
  2
*D8
 70
     1
 10
0.0
 20
0.0
 30
0.0
  3
*D8
  1

  0
LINE
  5
1C6F
  8
AM_5
 10
19.963961443863791
 20
50.5
 30
0.0
 11
19.963961443863791
 21
59.264293934181843
 31
0.0
  0
LINE
  5
1C70
  8
AM_5
 10
13.95355395289071
 20
31.642620542695042
 30
0.0
 11
-3.8175095983540461
 21
49.413687385419053
 31
0.0
  0
ARC
  5
1C71
  8
AM_5
 10
19.963961443863781
 20
25.63221193850039
 30
0.0
 40
32.632081995681453
 50
93.916221570607178
 51
131.08377312335551
  0
INSERT
  5
1C72
  8
AM_5
  2
_OPEN
 10
19.963961443863791
 20
58.264293934181843
 30
0.0
 41
2.2299999999999991
 42
2.2299999999999991
 43
2.2299999999999991
 50
1.9581107853035811
  0
INSERT
  5
1C73
  8
AM_5
  2
_OPEN
 10
-3.1104028826511172
 20
48.706580538748888
 30
0.0
 41
2.2299999999999991
 42
2.2299999999999991
 43
2.2299999999999991
 50
223.04188390865909
  0
INSERT
  5
1C74
  8
240
  2
*U9
 10
0.0
 20
0.0
 30
0.0
  0
POINT
  5
1C75
  8
DEFPOINTS
 62
     0
 10
11.51815811503913
 20
57.152382964427453
 30
0.0
  0
POINT
  5
1C76
  8
DEFPOINTS
 62
     0
 10
19.963961443863781
 20
25.63221193850039
 30
0.0
  0
POINT
  5
1C77
  8
DEFPOINTS
 62
     0
 10
19.963961443863781
 20
26.13221193850039
 30
0.0
  0
POINT
  5
1C78
  8
DEFPOINTS
 62
     0
 10
19.963961443863781
 20
50.0
 30
0.0
  0
POINT
  5
1C79
  8
DEFPOINTS
 62
     0
 10
14.30710731074217
 20
31.289067119359959
 30
0.0
  0
ENDBLK
  5
1C46
  8
0
  0
BLOCK
  8
0
  2
*U9
 70
     1
 10
0.0
 20
0.0
 30
0.0
  3
*U9
  1

  0
TEXT
  5
1D3D
  8
AM_5
 62
    40
 10
4.1371077461877492
 20
55.479617879328778
 30
0.0
 40
2.799999999999998
  1
45\U+00B0
 50
22.499997346981321
  0
ENDBLK
  5
1D3F
  8
0
  0
ENDSEC
  0
SECTION
  2
ENTITIES
  0
TEXT
  5
150E
  8
241
  6
CONTINUOUS
 10
-35.0
 20
63.0
 30
0.0
 40
5.0
  1
CKB3-C5262-45B-20
  7
YOKO
 11
-35.0
 21
63.0
 31
0.0
 73
     1
  0
LINE
  5
1510
  8
250
  6
CONTINUOUS
 10
-0.3875809745846952
 20
-15.500000000000011
 30
0.0
 11
-29.0
 21
-15.5
 31
0.0
  0
LINE
  5
1511
  8
250
  6
CONTINUOUS
 10
-0.3875809745846936
 20
15.50000000000003
 30
0.0
 11
-29.0
 21
15.500000000000041
 31
0.0
  0
LINE
  5
1512
  8
250
  6
CONTINUOUS
 10
-28.0
 20
-13.27000000000001
 30
0.0
 11
-28.0
 21
13.27000000000004
 31
0.0
  0
TEXT
  5
1514
  8
250
  6
CONTINUOUS
 10
-29.0
 20
-3.642857142857121
 30
0.0
 40
3.0
  1
\U+2205
 50
90.0
1001
ACAD
1000
MTEXTBEGIN
1070
    73
1070
     1
1070
    44
1040
1.0
1070
    74
1070
     0
1000
MTEXTEND
  0
TEXT
  5
1515
  8
250
  6
CONTINUOUS
 10
-29.0
 20
-0.9285714285714108
 30
0.0
 40
3.0
  1
31
 50
90.0
1001
ACAD
1000
MTEXTBEGIN
1070
    73
1070
     1
1070
    44
1040
1.0
1070
    74
1070
     0
1000
MTEXTEND
  0
LINE
  5
1516
  8
250
  6
CONTINUOUS
 10
-28.371666666666659
 20
13.27000000000004
 30
0.0
 11
-28.0
 21
15.500000000000041
 31
0.0
  0
LINE
  5
1517
  8
250
  6
CONTINUOUS
 10
-27.62833333333333
 20
13.27000000000004
 30
0.0
 11
-28.0
 21
15.500000000000041
 31
0.0
  0
LINE
  5
1518
  8
250
  6
CONTINUOUS
 10
-28.0
 20
15.500000000000041
 30
0.0
 11
-28.0
 21
13.27000000000004
 31
0.0
  0
LINE
  5
1519
  8
250
  6
CONTINUOUS
 10
-27.62833333333333
 20
-13.27000000000001
 30
0.0
 11
-28.0
 21
-15.5
 31
0.0
  0
LINE
  5
151A
  8
250
  6
CONTINUOUS
 10
-28.371666666666659
 20
-13.27000000000001
 30
0.0
 11
-28.0
 21
-15.5
 31
0.0
  0
LINE
  5
151B
  8
250
  6
CONTINUOUS
 10
-28.0
 20
-15.5
 30
0.0
 11
-28.0
 21
-13.27000000000001
 31
0.0
  0
LINE
  5
1520
  8
250
  6
CONTINUOUS
 10
12.10382644375821
 20
31.000000000000011
 30
0.0
 11
-42.999999999999851
 21
31.000000000000028
 31
0.0
  0
LINE
  5
1521
  8
250
  6
CONTINUOUS
 10
-41.999999999999837
 20
28.770000000000039
 30
0.0
 11
-41.999999999999851
 21
-4.533333333333851
 31
0.0
  0
LINE
  5
1522
  8
250
  6
CONTINUOUS
 10
7.103827266938711
 20
26.000000000000011
 30
0.0
 11
-35.999999999999893
 21
26.000000000000021
 31
0.0
  0
LINE
  5
1523
  8
250
  6
CONTINUOUS
 10
-34.999999999999893
 20
23.770000000000021
 30
0.0
 11
-34.999999999999893
 21
-4.5333333333337711
 31
0.0
  0
LINE
  5
1524
  8
250
  6
CONTINUOUS
 10
15.09617437656237
 20
31.000000000000011
 30
0.0
 11
43.0
 21
31.0
 31
0.0
  0
LINE
  5
1525
  8
250
  6
CONTINUOUS
 10
42.000000000000007
 20
28.77
 30
0.0
 11
42.0
 21
-4.5333333333333261
 31
0.0
  0
LINE
  5
1526
  8
250
  6
CONTINUOUS
 10
20.096173450484251
 20
26.000000000000011
 30
0.0
 11
36.0
 21
26.000000000000011
 31
0.0
  0
LINE
  5
1527
  8
250
  6
CONTINUOUS
 10
35.0
 20
23.77000000000001
 30
0.0
 11
35.0
 21
-4.5333333333333252
 31
0.0
  0
LINE
  5
1528
  8
250
  6
CONTINUOUS
 10
14.80710731074217
 20
-31.289067119360009
 30
0.0
 11
50.0
 21
-31.28906711936002
 31
0.0
  0
LINE
  5
1529
  8
250
  6
CONTINUOUS
 10
14.80710731074217
 20
31.289067119359931
 30
0.0
 11
50.0
 21
31.289067119359931
 31
0.0
  0
LINE
  5
152A
  8
250
  6
CONTINUOUS
 10
48.999999999999993
 20
-29.05906711936003
 30
0.0
 11
49.000000000000007
 21
29.059067119359931
 31
0.0
  0
LINE
  5
152B
  8
250
  6
CONTINUOUS
 10
13.953553952890701
 20
31.64262054269507
 30
0.0
 11
7.5630702041554674
 21
38.033105475047847
 31
0.0
  0
ARC
  5
152C
  8
250
  6
CONTINUOUS
 10
19.963961443863841
 20
25.632211938500419
 30
0.0
 40
16.537510200819838
 50
97.73191294398309
 51
127.2680817499804
  0
LINE
  5
152D
  8
250
  6
CONTINUOUS
 10
0.0000000000000285
 20
15.99999974668024
 30
0.0
 11
0.0000000000000305
 21
50.0
 31
0.0
  0
LINE
  5
152E
  8
250
  6
CONTINUOUS
 10
19.963961443863781
 20
26.13221193850039
 30
0.0
 11
19.963961443863781
 21
50.0
 31
0.0
  0
LINE
  5
152F
  8
250
  6
CONTINUOUS
 10
2.2300000000000302
 20
49.0
 30
0.0
 11
17.73396144386378
 21
49.0
 31
0.0
  0
TEXT
  5
1530
  8
250
  6
CONTINUOUS
 10
-42.999999999999851
 20
-3.8000000000005199
 30
0.0
 40
2.799999999999998
  1
\U+220562
 50
90.0
  0
LINE
  5
1531
  8
250
  6
CONTINUOUS
 10
-42.371666666666492
 20
28.770000000000039
 30
0.0
 11
-41.999999999999837
 21
31.000000000000028
 31
0.0
  0
LINE
  5
1532
  8
250
  6
CONTINUOUS
 10
-41.628333333333167
 20
28.770000000000039
 30
0.0
 11
-41.999999999999837
 21
31.000000000000028
 31
0.0
  0
LINE
  5
1533
  8
250
  6
CONTINUOUS
 10
-41.999999999999837
 20
31.000000000000028
 30
0.0
 11
-41.999999999999837
 21
28.770000000000039
 31
0.0
  0
TEXT
  5
1534
  8
250
  6
CONTINUOUS
 10
-35.999999999999893
 20
-3.800000000000443
 30
0.0
 40
2.799999999999998
  1
\U+220552
 50
90.0
  0
LINE
  5
1535
  8
250
  6
CONTINUOUS
 10
-35.37166666666657
 20
23.770000000000021
 30
0.0
 11
-34.999999999999893
 21
26.000000000000021
 31
0.0
  0
LINE
  5
1536
  8
250
  6
CONTINUOUS
 10
-34.628333333333217
 20
23.770000000000021
 30
0.0
 11
-34.999999999999893
 21
26.000000000000021
 31
0.0
  0
LINE
  5
1537
  8
250
  6
CONTINUOUS
 10
-34.999999999999893
 20
26.000000000000021
 30
0.0
 11
-34.999999999999893
 21
23.770000000000021
 31
0.0
  0
TEXT
  5
1538
  8
250
  6
CONTINUOUS
 10
41.0
 20
-3.7999999999999829
 30
0.0
 40
2.799999999999998
  1
\U+220562
 50
90.0
  0
LINE
  5
1539
  8
250
  6
CONTINUOUS
 10
41.628333333333337
 20
28.77
 30
0.0
 11
42.000000000000007
 21
31.0
 31
0.0
  0
LINE
  5
153A
  8
250
  6
CONTINUOUS
 10
42.371666666666663
 20
28.77
 30
0.0
 11
42.000000000000007
 21
31.0
 31
0.0
  0
LINE
  5
153B
  8
250
  6
CONTINUOUS
 10
42.000000000000007
 20
31.0
 30
0.0
 11
42.000000000000007
 21
28.77
 31
0.0
  0
TEXT
  5
153C
  8
250
  6
CONTINUOUS
 10
33.999999999999993
 20
-3.7999999999999829
 30
0.0
 40
2.799999999999998
  1
\U+220552
 50
90.0
  0
LINE
  5
153D
  8
250
  6
CONTINUOUS
 10
34.62833333333333
 20
23.77000000000001
 30
0.0
 11
35.0
 21
26.000000000000011
 31
0.0
  0
LINE
  5
153E
  8
250
  6
CONTINUOUS
 10
35.37166666666667
 20
23.77000000000001
 30
0.0
 11
35.0
 21
26.000000000000011
 31
0.0
  0
LINE
  5
153F
  8
250
  6
CONTINUOUS
 10
35.0
 20
26.000000000000011
 30
0.0
 11
35.0
 21
23.77000000000001
 31
0.0
  0
TEXT
  5
1540
  8
250
  6
CONTINUOUS
 10
48.0
 20
-5.8952380952381374
 30
0.0
 40
3.0
  1
\U+2205
 50
90.0
  0
TEXT
  5
1541
  8
250
  6
CONTINUOUS
 10
47.899999999999999
 20
-3.1809523809524221
 30
0.0
 40
2.799999999999998
  1
62.7
 50
90.0
  0
LINE
  5
1542
  8
250
  6
CONTINUOUS
 10
48.628333333333337
 20
29.059067119359931
 30
0.0
 11
49.000000000000007
 21
31.289067119359931
 31
0.0
  0
LINE
  5
1543
  8
250
  6
CONTINUOUS
 10
49.371666666666677
 20
29.059067119359931
 30
0.0
 11
49.000000000000007
 21
31.289067119359931
 31
0.0
  0
LINE
  5
1544
  8
250
  6
CONTINUOUS
 10
49.000000000000007
 20
31.289067119359931
 30
0.0
 11
49.000000000000007
 21
29.059067119359931
 31
0.0
  0
LINE
  5
1545
  8
250
  6
CONTINUOUS
 10
49.371666666666663
 20
-29.05906711936003
 30
0.0
 11
48.999999999999993
 21
-31.28906711936002
 31
0.0
  0
LINE
  5
1546
  8
250
  6
CONTINUOUS
 10
48.628333333333323
 20
-29.05906711936003
 30
0.0
 11
48.999999999999993
 21
-31.28906711936002
 31
0.0
  0
LINE
  5
1547
  8
250
  6
CONTINUOUS
 10
48.999999999999993
 20
-31.28906711936002
 30
0.0
 11
48.999999999999993
 21
-29.05906711936003
 31
0.0
  0
TEXT
  5
1548
  8
250
  6
CONTINUOUS
 10
9.8266014718981882
 20
41.775984013907703
 30
0.0
 40
2.799999999999998
  1
45\U+00B0
 50
18.327789885020032
  0
LINE
  5
1549
  8
250
  6
CONTINUOUS
 10
10.194242909486199
 20
38.51301428904469
 30
0.0
 11
8.2701769198584003
 21
37.325998628377711
 31
0.0
  0
LINE
  5
154A
  8
250
  6
CONTINUOUS
 10
9.7052612903710873
 20
39.072872682401439
 30
0.0
 11
8.2701769198584003
 21
37.325998628377711
 31
0.0
  0
LINE
  5
154B
  8
250
  6
CONTINUOUS
 10
8.2701769198584003
 20
37.325998628377711
 30
0.0
 11
9.9497520999286468
 21
38.792943485723072
 31
0.0
  0
LINE
  5
154C
  8
250
  6
CONTINUOUS
 10
17.713977084837509
 20
42.390190947201049
 30
0.0
 11
19.963961443863749
 21
42.169722139320257
 31
0.0
  0
LINE
  5
154D
  8
250
  6
CONTINUOUS
 10
17.764094463850562
 20
41.648549057361151
 30
0.0
 11
19.963961443863749
 21
42.169722139320257
 31
0.0
  0
LINE
  5
154E
  8
250
  6
CONTINUOUS
 10
19.963961443863749
 20
42.169722139320257
 30
0.0
 11
17.739035774344028
 21
42.0193700022811
 31
0.0
  0
TEXT
  5
154F
  8
250
  6
CONTINUOUS
 10
7.315314055265234
 20
50.0
 30
0.0
 40
2.799999999999998
  1
20
  0
LINE
  5
1550
  8
250
  6
CONTINUOUS
 10
17.73396144386378
 20
49.37166666666667
 30
0.0
 11
19.963961443863781
 21
49.0
 31
0.0
  0
LINE
  5
1551
  8
250
  6
CONTINUOUS
 10
17.73396144386378
 20
48.62833333333333
 30
0.0
 11
19.963961443863781
 21
49.0
 31
0.0
  0
LINE
  5
1552
  8
250
  6
CONTINUOUS
 10
19.963961443863781
 20
49.0
 30
0.0
 11
17.73396144386378
 21
49.0
 31
0.0
  0
LINE
  5
1553
  8
250
  6
CONTINUOUS
 10
2.2300000000000302
 20
48.62833333333333
 30
0.0
 11
0.0000000000000305
 21
49.0
 31
0.0
  0
LINE
  5
1554
  8
250
  6
CONTINUOUS
 10
2.2300000000000302
 20
49.37166666666667
 30
0.0
 11
0.0000000000000305
 21
49.0
 31
0.0
  0
LINE
  5
1555
  8
250
  6
CONTINUOUS
 10
0.0000000000000305
 20
49.0
 30
0.0
 11
2.2300000000000302
 21
49.0
 31
0.0
  0
LINE
  5
1882
  8
240
  6
CONTINUOUS
 10
-0.0000000000000284
 20
-15.49999974668027
 30
0.0
 11
-0.0000000000000165
 21
-9.0000000000000391
 31
0.0
  0
LINE
  5
1883
  8
240
  6
CONTINUOUS
 10
0.0000000000000165
 20
9.00000000000027
 30
0.0
 11
0.0000000000000284
 21
15.50000000202655
 31
0.0
  0
LINE
  5
1884
  8
241
  6
CONTINUOUS
 10
7.6999999582767202
 20
-11.31748501211406
 30
0.0
 11
7.6999999582767771
 21
3.0230926349758951
 31
0.0
  0
LINE
  5
1885
  8
241
  6
CONTINUOUS
 10
19.50000040233132
 20
-10.891511105000991
 30
0.0
 11
19.50000040233132
 21
-10.6188226491213
 31
0.0
  0
LINE
  5
1886
  8
240
  6
CONTINUOUS
 10
19.50000040233132
 20
-10.6188226491213
 30
0.0
 11
19.50000040233132
 21
10.577980287729419
 31
0.0
  0
LINE
  5
1887
  8
241
  6
CONTINUOUS
 10
19.50000040233132
 20
-25.50943568348886
 30
0.0
 11
19.50000040233132
 21
-23.75403605401517
 31
0.0
  0
LINE
  5
1888
  8
240
  6
CONTINUOUS
 10
19.50000040233132
 20
-23.75403605401517
 30
0.0
 11
19.50000040233132
 21
-14.3471240546716
 31
0.0
  0
LINE
  5
1889
  8
241
  6
CONTINUOUS
 10
7.6999999582767202
 20
-25.54481476545336
 30
0.0
 11
7.6999999582767202
 21
-23.75403605401517
 31
0.0
  0
LINE
  5
188A
  8
240
  6
CONTINUOUS
 10
7.6999999582767202
 20
-23.75403605401517
 30
0.0
 11
7.6999999582767202
 21
-20.503576844930659
 31
0.0
  0
LINE
  5
188B
  8
240
  6
CONTINUOUS
 10
12.89289351552722
 20
-31.289067119359991
 30
0.0
 11
7.2360392659902271
 21
-25.632211938500419
 31
0.0
  0
LINE
  5
188C
  8
240
  6
CONTINUOUS
 10
19.963961443863781
 20
-25.632211938500419
 30
0.0
 11
14.30710731074211
 21
-31.289067119359991
 31
0.0
  0
LINE
  5
188D
  8
240
  6
CONTINUOUS
 10
19.50000040233132
 20
-23.75403605401517
 30
0.0
 11
19.963961443863781
 21
-24.217998608946829
 31
0.0
  0
LINE
  5
188E
  8
240
  6
CONTINUOUS
 10
19.963961443863781
 20
-24.217998608946829
 30
0.0
 11
19.963961443863781
 21
-25.632211938500419
 31
0.0
  0
LINE
  5
188F
  8
241
  6
CONTINUOUS
 10
14.20000055804846
 20
-30.854295939207091
 30
0.0
 11
14.20000055804846
 21
-29.505990445613879
 31
0.0
  0
LINE
  5
1890
  8
241
  6
CONTINUOUS
 10
13.00000026822087
 20
-30.854295939207091
 30
0.0
 11
13.00000026822087
 21
-29.505990445613879
 31
0.0
  0
LINE
  5
1891
  8
240
  6
CONTINUOUS
 10
14.30710731074211
 20
-31.289067119359991
 30
0.0
 11
12.89289351552722
 21
-31.289067119359991
 31
0.0
  0
LINE
  5
1892
  8
241
  6
CONTINUOUS
 10
13.00000026822087
 20
-30.854295939207091
 30
0.0
 11
14.20000055804846
 21
-30.854295939207091
 31
0.0
  0
LINE
  5
1893
  8
241
  6
CONTINUOUS
 10
13.00000026822087
 20
-29.505990445613879
 30
0.0
 11
14.20000055804846
 21
-29.505990445613879
 31
0.0
  0
LINE
  5
1894
  8
240
  6
CONTINUOUS
 10
7.2360392659902271
 20
-24.217998608946829
 30
0.0
 11
7.6999999582767202
 21
-23.75403605401517
 31
0.0
  0
LINE
  5
1895
  8
240
  6
CONTINUOUS
 10
7.2360392659902271
 20
-25.632211938500419
 30
0.0
 11
7.2360392659902271
 21
-24.217998608946829
 31
0.0
  0
LINE
  5
1896
  8
241
  6
CONTINUOUS
 10
12.89289351552722
 20
-16.943570226430911
 30
0.0
 11
7.2360392659902271
 21
-14.115143567323701
 31
0.0
  0
LINE
  5
1897
  8
241
  6
CONTINUOUS
 10
13.00000026822087
 20
-13.97222559899093
 30
0.0
 11
13.00000026822087
 21
-6.8059908226132491
 31
0.0
  0
LINE
  5
1898
  8
241
  6
CONTINUOUS
 10
14.20000055804846
 20
-13.97222559899093
 30
0.0
 11
14.20000055804846
 21
-6.8059908226132491
 31
0.0
  0
LINE
  5
1899
  8
240
  6
CONTINUOUS
 10
19.963961443863781
 20
-14.115143567323701
 30
0.0
 11
19.50000040233132
 21
-14.3471240546716
 31
0.0
  0
LINE
  5
189A
  8
241
  6
CONTINUOUS
 10
19.50000040233132
 20
-14.3471240546716
 30
0.0
 11
14.30710731074211
 21
-16.943570226430911
 31
0.0
  0
LINE
  5
189B
  8
240
  6
CONTINUOUS
 10
19.963961443863781
 20
-13.4080369025469
 30
0.0
 11
19.573506528104161
 21
-10.655575431883349
 31
0.0
  0
LINE
  5
189C
  8
241
  6
CONTINUOUS
 10
19.04720365724706
 20
-11.544364016040671
 30
0.0
 11
19.863536785123841
 21
-13.406441546976581
 31
0.0
  0
LINE
  5
189D
  8
240
  6
CONTINUOUS
 10
19.963961443863781
 20
-13.4080369025469
 30
0.0
 11
19.963961443863781
 21
-14.115143567323701
 31
0.0
  0
LINE
  5
189E
  8
241
  6
CONTINUOUS
 10
19.863536785123841
 20
-13.406441546976581
 30
0.0
 11
19.963961443863781
 21
-14.115143567323701
 31
0.0
  0
LINE
  5
189F
  8
240
  6
CONTINUOUS
 10
19.50000040233132
 20
-10.6188226491213
 30
0.0
 11
19.573506528104161
 21
-10.655575431883349
 31
0.0
  0
LINE
  5
18A0
  8
241
  6
CONTINUOUS
 10
12.38091107995797
 20
-13.6622132078594
 30
0.0
 11
12.893665116280291
 21
-16.185041517019279
 31
0.0
  0
LINE
  5
18A1
  8
241
  6
CONTINUOUS
 10
14.30237116188712
 20
-13.92096402674164
 30
0.0
 11
12.893665116280291
 21
-16.185041517019279
 31
0.0
  0
LINE
  5
18A2
  8
241
  6
CONTINUOUS
 10
14.30710731074211
 20
-16.943570226430911
 30
0.0
 11
14.304032473553219
 21
-13.920132132469529
 31
0.0
  0
LINE
  5
18A3
  8
241
  6
CONTINUOUS
 10
12.893665116280291
 20
-16.185041517019279
 30
0.0
 11
12.89289351552722
 21
-16.943570226430911
 31
0.0
  0
LINE
  5
18A4
  8
241
  6
CONTINUOUS
 10
14.30710731074211
 20
-16.943570226430911
 30
0.0
 11
12.89289351552722
 21
-16.943570226430911
 31
0.0
  0
LINE
  5
18A5
  8
241
  6
CONTINUOUS
 10
13.00000026822087
 20
-13.97222559899093
 30
0.0
 11
14.20000055804846
 21
-13.97222559899093
 31
0.0
  0
LINE
  5
18A6
  8
241
  6
CONTINUOUS
 10
13.00000026822087
 20
-6.8059908226132491
 30
0.0
 11
14.20000055804846
 21
-6.8059908226132491
 31
0.0
  0
LINE
  5
18A7
  8
240
  6
CONTINUOUS
 10
7.6999999582767202
 20
-15.51316864788534
 30
0.0
 11
7.6999999582767202
 21
-16.453515738248839
 31
0.0
  0
LINE
  5
18A8
  8
240
  6
CONTINUOUS
 10
7.6999999582767202
 20
-16.453515738248839
 30
0.0
 11
7.6999999582767202
 21
-20.503576844930659
 31
0.0
  0
LINE
  5
18A9
  8
241
  6
CONTINUOUS
 10
7.2360392659902271
 20
-14.115143567323701
 30
0.0
 11
7.7000004023313124
 21
-11.31748508212344
 31
0.0
  0
LINE
  5
18AA
  8
241
  6
CONTINUOUS
 10
7.6999999582767202
 20
-14.347123913466939
 30
0.0
 11
7.6999999582767202
 21
-15.51316864788534
 31
0.0
  0
LINE
  5
18AB
  8
240
  6
CONTINUOUS
 10
19.963961443863781
 20
24.21799860894679
 30
0.0
 11
19.963961443863781
 21
25.63221193850039
 31
0.0
  0
LINE
  5
18AC
  8
240
  6
CONTINUOUS
 10
7.2360392659902839
 20
25.63221193850039
 30
0.0
 11
7.2360392659902839
 21
24.21799860894679
 31
0.0
  0
LINE
  5
18AD
  8
241
  6
CONTINUOUS
 10
12.39780616015198
 20
16.65518432855605
 30
0.0
 11
7.626494392752674
 21
14.26952891051768
 31
0.0
  0
LINE
  5
18AE
  8
241
  6
CONTINUOUS
 10
12.89289351552727
 20
14.34549503028391
 30
0.0
 11
7.2360392659902839
 21
11.517067439854131
 31
0.0
  0
LINE
  5
18AF
  8
241
  6
CONTINUOUS
 10
7.2360392659902839
 20
10.809960775077331
 30
0.0
 11
12.89289351552727
 21
7.9815341159701179
 31
0.0
  0
LINE
  5
18B0
  8
241
  6
CONTINUOUS
 10
19.075420044828181
 20
14.518572017550451
 30
0.0
 11
19.50000040233132
 21
13.726294040679919
 31
0.0
  0
LINE
  5
18B1
  8
240
  6
CONTINUOUS
 10
19.50000040233132
 20
13.726294040679919
 30
0.0
 11
19.573506528104161
 21
13.589129783213121
 31
0.0
  0
LINE
  5
18B3
  8
241
  6
CONTINUOUS
 10
19.963961443863781
 20
11.517067439854131
 30
0.0
 11
14.30710731074217
 21
14.34549503028391
 31
0.0
  0
LINE
  5
18B4
  8
240
  6
CONTINUOUS
 10
19.50000040233132
 20
14.617924578487861
 30
0.0
 11
19.50000040233132
 21
13.726294040679919
 31
0.0
  0
LINE
  5
18B5
  8
241
  6
CONTINUOUS
 10
14.30710731074217
 20
7.9815341159701179
 30
0.0
 11
19.50000040233132
 21
10.577980287729419
 31
0.0
  0
LINE
  5
18B6
  8
240
  6
CONTINUOUS
 10
19.50000040233132
 20
10.577980287729419
 30
0.0
 11
19.963961443863781
 21
10.809960775077331
 31
0.0
  0
LINE
  5
18B7
  8
240
  6
CONTINUOUS
 10
19.963961443863781
 20
10.809960775077331
 30
0.0
 11
19.963961443863781
 21
11.517067439854131
 31
0.0
  0
LINE
  5
18B8
  8
240
  6
CONTINUOUS
 10
19.573506528104161
 20
13.589129783213121
 30
0.0
 11
19.863536785123841
 21
12.224998325109469
 31
0.0
  0
LINE
  5
18B9
  8
240
  6
CONTINUOUS
 10
19.863536785123841
 20
12.224998325109469
 30
0.0
 11
19.963961443863781
 21
11.517067439854131
 31
0.0
  0
LINE
  5
18BA
  8
241
  6
CONTINUOUS
 10
12.89289351552727
 20
7.9815341159701179
 30
0.0
 11
14.30710731074217
 21
7.9815341159701179
 31
0.0
  0
ARC
  5
18BB
  8
241
  6
CONTINUOUS
 10
16.626654995717761
 20
7.5928732495472211
 30
0.0
 40
1.3866059365416961
 50
116.57103680961851
 51
117.53853512844699
  0
ARC
  5
18BC
  8
241
  6
CONTINUOUS
 10
10.57259312344374
 20
7.5914270731430653
 30
0.0
 40
1.388236164051595
 50
62.46152321199385
 51
63.427868238997249
  0
LINE
  5
18BD
  8
241
  6
CONTINUOUS
 10
19.075420044828181
 20
14.518572017550451
 30
0.0
 11
14.304107986390621
 21
16.904227435588819
 31
0.0
  0
LINE
  5
18BE
  8
240
  6
CONTINUOUS
 10
19.50000040233132
 20
14.617924578487861
 30
0.0
 11
19.50000040233132
 21
23.474246263504011
 31
0.0
  0
LINE
  5
18BF
  8
241
  6
CONTINUOUS
 10
18.98489292943847
 20
23.238928988575921
 30
0.0
 11
19.50000040233132
 21
23.754036054015149
 31
0.0
  0
LINE
  5
18C0
  8
240
  6
CONTINUOUS
 10
19.50000040233132
 20
23.754036054015149
 30
0.0
 11
19.963961443863781
 21
24.21799860894679
 31
0.0
  0
LINE
  5
18C1
  8
240
  6
CONTINUOUS
 10
19.50000040233132
 20
23.467784747481328
 30
0.0
 11
19.50000040233132
 21
23.754036054015149
 31
0.0
  0
LINE
  5
18C2
  8
241
  6
CONTINUOUS
 10
13.00000026822093
 20
16.735862999988591
 30
0.0
 11
13.00000026822093
 21
22.700000554323179
 31
0.0
  0
LINE
  5
18C3
  8
241
  6
CONTINUOUS
 10
14.20000055804851
 20
16.88207127153872
 30
0.0
 11
14.20000055804851
 21
22.700000554323179
 31
0.0
  0
LINE
  5
18C4
  8
241
  6
CONTINUOUS
 10
12.39780616015198
 20
16.65518432855605
 30
0.0
 11
14.256690163165359
 21
16.904227435588819
 31
0.0
  0
LINE
  5
18C5
  8
241
  6
CONTINUOUS
 10
14.256690163165359
 20
16.904227435588819
 30
0.0
 11
12.89366511628034
 21
15.00359829515217
 31
0.0
  0
LINE
  5
18C6
  8
241
  6
CONTINUOUS
 10
14.30710731074217
 20
14.34549503028391
 30
0.0
 11
14.304107986390621
 21
16.904227435588819
 31
0.0
  0
LINE
  5
18C7
  8
241
  6
CONTINUOUS
 10
12.39780616015198
 20
16.65518432855605
 30
0.0
 11
12.89366511628034
 21
15.00359829515217
 31
0.0
  0
LINE
  5
18C8
  8
241
  6
CONTINUOUS
 10
12.89366511628034
 20
15.00359829515217
 30
0.0
 11
12.89289351552727
 21
14.34549503028391
 31
0.0
  0
LINE
  5
18C9
  8
241
  6
CONTINUOUS
 10
14.30710731074217
 20
14.34549503028391
 30
0.0
 11
12.89289351552727
 21
14.34549503028391
 31
0.0
  0
LINE
  5
18CA
  8
241
  6
CONTINUOUS
 10
14.256690163165359
 20
16.904227435588819
 30
0.0
 11
14.304107986390621
 21
16.904227435588819
 31
0.0
  0
LINE
  5
18CB
  8
241
  6
CONTINUOUS
 10
7.2360392659902839
 20
11.517067439854131
 30
0.0
 11
7.626494392752674
 21
14.26952891051768
 31
0.0
  0
LINE
  5
18CC
  8
241
  6
CONTINUOUS
 10
7.6999999582767771
 20
8.337438106536851
 30
0.0
 11
7.6999999582767771
 21
7.073154207319007
 31
0.0
  0
LINE
  5
18CD
  8
241
  6
CONTINUOUS
 10
7.6999999582767771
 20
7.073154207319007
 30
0.0
 11
7.6999999582767771
 21
3.0230926349758951
 31
0.0
  0
LINE
  5
18CE
  8
241
  6
CONTINUOUS
 10
7.2360392659902839
 20
11.517067439854131
 30
0.0
 11
7.2360392659902839
 21
10.809960775077331
 31
0.0
  0
LINE
  5
18CF
  8
241
  6
CONTINUOUS
 10
7.6999999582767771
 20
10.579817928373799
 30
0.0
 11
7.6999999582767771
 21
8.337438106536851
 31
0.0
  0
LINE
  5
18D0
  8
241
  6
CONTINUOUS
 10
7.6999999582767771
 20
14.306281693279731
 30
0.0
 11
7.6999999582767771
 21
15.49999974668024
 31
0.0
  0
LINE
  5
18D1
  8
240
  6
CONTINUOUS
 10
7.6999999582767771
 20
15.49999974668024
 30
0.0
 11
7.6999999582767771
 21
23.526670411229119
 31
0.0
  0
LINE
  5
18D2
  8
240
  6
CONTINUOUS
 10
7.2360392659902839
 20
24.21799860894679
 30
0.0
 11
7.6999999582767771
 21
23.75428192317484
 31
0.0
  0
LINE
  5
18D3
  8
241
  6
CONTINUOUS
 10
7.6999999582767771
 20
23.75428192317484
 30
0.0
 11
8.1333518028259544
 21
23.320686072111119
 31
0.0
  0
LINE
  5
18D4
  8
240
  6
CONTINUOUS
 10
7.6999999582767771
 20
23.75428192317484
 30
0.0
 11
7.6999999582767771
 21
23.526670411229119
 31
0.0
  0
LINE
  5
18D5
  8
240
  6
CONTINUOUS
 10
12.89289351552727
 20
31.289067119359959
 30
0.0
 11
7.2360392659902839
 21
25.63221193850039
 31
0.0
  0
LINE
  5
18D6
  8
240
  6
CONTINUOUS
 10
19.963961443863781
 20
25.63221193850039
 30
0.0
 11
14.30710731074217
 21
31.289067119359959
 31
0.0
  0
LINE
  5
18D7
  8
240
  6
CONTINUOUS
 10
14.30710731074217
 20
31.289067119359959
 30
0.0
 11
12.89289351552727
 21
31.289067119359959
 31
0.0
  0
LINE
  5
18D8
  8
245
  6
CENTER2
 10
-23.492187944865609
 20
-0.0000000000000142
 30
0.0
 11
22.91005893935019
 21
0.0000000000000142
 31
0.0
  0
LINE
  5
18D9
  8
241
  6
CONTINUOUS
 10
19.50000040233132
 20
-10.891511105000991
 30
0.0
 11
19.05794515932828
 21
-11.53898205886072
 31
0.0
  0
LINE
  5
18FE
  8
241
  6
CONTINUOUS
 10
0.0
 20
9.00000000000027
 30
0.0
 11
0.0
 21
-9.0000000000000391
 31
0.0
  0
LINE
  5
1965
  8
241
  6
CONTINUOUS
 10
10.7422
 20
22.704599999999999
 30
0.0
 11
16.393985719991569
 21
22.704599999999999
 31
0.0
  0
ARC
  5
1966
  8
241
  6
CONTINUOUS
 10
10.970376174893881
 20
29.50251781403615
 30
0.0
 40
6.8017461708872391
 50
245.34821802178581
 51
268.07755466915108
  0
ARC
  5
1967
  8
241
  6
CONTINUOUS
 10
16.34270595442317
 20
29.501938362621988
 30
0.0
 40
6.7975317895784357
 50
270.43223659722833
 51
292.87350905592371
  0
ARC
  5
1968
  8
241
  6
CONTINUOUS
 10
13.81016874612984
 20
1.1741803037359471
 30
0.0
 40
6.930245806242155
 50
34.813536673780703
 51
47.716886320056147
  0
ARC
  5
1A8B
  8
241
  6
CONTINUOUS
 10
31.565892936887021
 20
9.5460053934232239
 30
0.0
 40
24.740253653382439
 50
195.57744930369111
 51
221.37213577702661
  0
ARC
  5
1A8C
  8
241
  6
CONTINUOUS
 10
-4.4635461311835023
 20
9.6902320541375122
 30
0.0
 40
24.908900903503891
 50
318.52737187448662
 51
344.02232826119638
  0
LINE
  5
1A8D
  8
241
  6
CONTINUOUS
 10
7.7000000000000002
 20
-11.317500000000001
 30
0.0
 11
13.00000026822087
 21
-13.97222559899093
 31
0.0
  0
LINE
  5
1A8E
  8
241
  6
CONTINUOUS
 10
14.199999999999999
 20
-13.972200000000001
 30
0.0
 11
19.05794515932828
 21
-11.53898205886072
 31
0.0
  0
ARC
  5
1A8F
  8
241
  6
CONTINUOUS
 10
15.107626434158769
 20
-14.36486393065733
 30
0.0
 40
4.1214785009192108
 50
324.73562142885828
 51
358.35191348333842
  0
ARC
  5
1A90
  8
241
  6
CONTINUOUS
 10
11.132821400248799
 20
-22.588701118787569
 30
0.0
 40
9.3824912156562785
 50
26.901396747699501
 51
38.527807430469679
  0
ARC
  5
1A91
  8
241
  6
CONTINUOUS
 10
13.3675759545481
 20
-6.4436961784645881
 30
0.0
 40
11.49642604348214
 50
240.6219228981833
 51
296.36388708619171
  0
ARC
  5
1A92
  8
241
  6
CONTINUOUS
 10
36.147349046619851
 20
-9.8171051977537473
 30
0.0
 40
30.38835873192188
 50
200.58908604970711
 51
220.38414344802629
  0
ARC
  5
1A93
  8
241
  6
CONTINUOUS
 10
-7.734753174749418
 20
-10.44254128321346
 30
0.0
 40
29.061116896738771
 50
319.00616215520279
 51
339.5790358363052
  0
LINE
  5
1A94
  8
240
  6
CONTINUOUS
 10
7.6999999582767771
 20
15.49999974668024
 30
0.0
 11
0.0000000000000284
 21
15.50000000202655
 31
0.0
  0
LINE
  5
1A95
  8
240
  6
CONTINUOUS
 10
7.7000000000000002
 20
-15.5
 30
0.0
 11
-0.0000000000000284
 21
-15.49999974668027
 31
0.0
  0
LINE
  5
1A96
  8
241
  6
CONTINUOUS
 10
13.0
 20
-30.854299999999999
 30
0.0
 11
7.6999999582767202
 21
-25.544799958206731
 31
0.0
  0
LINE
  5
1A97
  8
241
  6
CONTINUOUS
 10
14.219150000000001
 20
-30.835149999999999
 30
0.0
 11
19.50000040233132
 21
-25.50943568348886
 31
0.0
  0
LINE
  5
1C04
  8
250
  6
CONTINUOUS
 10
-18.819458601570162
 20
-20.912892786968321
 30
0.0
 11
-32.147363332865311
 21
-20.912892786968321
 31
0.0
1001
ITEMNAME
1000
LNSP2
  0
LINE
  5
1C05
  8
240
  6
CONTINUOUS
 10
-20.0
 20
9.0
 30
0.0
 11
-8.5647005400000005
 21
9.0
 31
0.0
  0
LINE
  5
1C06
  8
240
  6
CONTINUOUS
 10
-8.5647005400000005
 20
-9.0
 30
0.0
 11
-20.0
 21
-9.0
 31
0.0
  0
LINE
  5
1C07
  8
240
  6
CONTINUOUS
 10
-20.0
 20
-9.0
 30
0.0
 11
-20.0
 21
9.0
 31
0.0
  0
LINE
  5
1C08
  8
241
  6
CONTINUOUS
 10
-8.5647005400000005
 20
-9.0
 30
0.0
 11
-1.4352994599999991
 21
-9.0
 31
0.0
  0
LINE
  5
1C09
  8
240
  6
CONTINUOUS
 10
-7.4100000000000001
 20
-11.0
 30
0.0
 11
-2.5899999999999981
 21
-11.0
 31
0.0
  0
LINE
  5
1C0A
  8
240
  6
CONTINUOUS
 10
-8.5647005400000005
 20
-9.0
 30
0.0
 11
-7.4100000000000001
 21
-11.0
 31
0.0
  0
LINE
  5
1C0B
  8
240
  6
CONTINUOUS
 10
-1.4352994599999991
 20
-9.0
 30
0.0
 11
-2.5899999999999981
 21
-11.0
 31
0.0
  0
CIRCLE
  5
1C0C
  8
241
  6
CONTINUOUS
 10
-8.0
 20
0.0
 30
0.0
 40
2.25
  0
CIRCLE
  5
1C0D
  8
241
  6
CONTINUOUS
 10
-8.0
 20
0.0
 30
0.0
 40
3.0
  0
LINE
  5
1C0E
  8
245
  6
CENTER2
 10
-8.0
 20
4.0
 30
0.0
 11
-8.0
 21
-4.0
 31
0.0
  0
LINE
  5
1C0F
  8
240
  6
CONTINUOUS
 10
-7.4100000000000001
 20
11.0
 30
0.0
 11
-2.5899999999999981
 21
11.0
 31
0.0
  0
LINE
  5
1C10
  8
241
  6
CONTINUOUS
 10
-8.5647005400000005
 20
9.0
 30
0.0
 11
-1.4352994599999991
 21
9.0
 31
0.0
  0
LINE
  5
1C11
  8
240
  6
CONTINUOUS
 10
-8.5647005400000005
 20
9.0
 30
0.0
 11
-7.4100000000000001
 21
11.0
 31
0.0
  0
LINE
  5
1C12
  8
240
  6
CONTINUOUS
 10
-1.4352994599999991
 20
9.0
 30
0.0
 11
-2.5899999999999981
 21
11.0
 31
0.0
  0
LINE
  5
1C13
  8
240
  6
CONTINUOUS
 10
0.0
 20
9.0
 30
0.0
 11
-1.4352994599999991
 21
9.0
 31
0.0
  0
TEXT
  5
1C14
  8
250
  6
CONTINUOUS
 10
-29.747363332865309
 20
-19.91289278696831
 30
0.0
 40
2.799999999999998
  1
CK3
  7
YOKO
1001
ITEMNAME
1000
LNSP3
1001
ACAD
1000
MTEXTBEGIN
1070
    73
1070
     1
1070
    44
1040
1.0
1070
    74
1070
     0
1000
MTEXTEND
1000
MTEXTBEGIN
1070
    73
1070
     1
1070
    44
1040
1.0
1070
    74
1070
     0
1000
MTEXTEND
  0
LINE
  5
1C15
  8
250
  6
CONTINUOUS
 10
-13.0565467317249
 20
-10.93123664944342
 30
0.0
 11
-18.819458601570162
 21
-20.912892786968321
 31
0.0
1001
ACAD
1000
DSTYLE
1002
{
1070
     6
1000
OPEN
1070
   343
1005
0
1002
}
  0
LINE
  5
1C16
  8
250
  6
CONTINUOUS
 10
-13.3784195130696
 20
-10.745403312105941
 30
0.0
 11
-11.941546730000001
 21
-9.0
 31
0.0
  0
LINE
  5
1C17
  8
250
  6
CONTINUOUS
 10
-12.734673950380211
 20
-11.11706998678091
 30
0.0
 11
-11.941546730000001
 21
-9.0
 31
0.0
  0
LINE
  5
1C18
  8
250
  6
CONTINUOUS
 10
-11.941546730000001
 20
-9.0
 30
0.0
 11
-13.0565467317249
 21
-10.93123664944342
 31
0.0
  0
LINE
  5
1C19
  8
247
  6
CONTINUOUS
 10
4.0000000000011351
 20
-10.50000000000003
 30
0.0
 11
4.0000000000011804
 21
-6.7923076925360482
 31
0.0
  0
LINE
  5
1C1A
  8
247
  6
CONTINUOUS
 10
2.0000000000011791
 20
-9.8639147999903791
 30
0.0
 11
3.6799999999339841
 21
-10.34564704804591
 31
0.0
  0
LINE
  5
1C1B
  8
247
  6
CONTINUOUS
 10
2.7969230768923792
 20
-9.3601211228152508
 30
0.0
 11
2.7969230768923792
 21
-10.092428815093649
 31
0.0
  0
ARC
  5
1C1C
  8
247
  6
CONTINUOUS
 10
2.3077752538364602
 20
-9.1698107215574662
 30
0.0
 40
0.3101372647461394
 50
72.997889675292001
 51
172.92416621851231
  0
ARC
  5
1C1D
  8
247
  6
CONTINUOUS
 10
2.2441785048235912
 20
-9.4059820454433112
 30
0.0
 40
0.5546438372287014
 50
4.7429368522013924
 51
73.849226273266353
1001
GENIUS_GENOBJ-N-FIL_13
1002
{
1000
OWNER
1000
GEN
1002
}
1001
GENIUS_GENODEF_13
1002
{
1000
HIER
1070
     0
1002
}
1002
{
1000
MANEDIT
1070
     0
1002
}
1002
{
1000
NOSEL
1070
     0
1002
}
1002
{
1000
BEHIND
1070
     0
1002
}
1002
{
1000
OTHER
1070
     0
1002
}
1002
{
1000
REACTOR
1002
}
  0
LINE
  5
1C1E
  8
247
  6
CONTINUOUS
 10
3.6799999999339841
 20
-9.6133393557675113
 30
0.0
 11
3.6799999999339841
 21
-10.34564704804591
 31
0.0
  0
LINE
  5
1C1F
  8
247
  6
CONTINUOUS
 10
2.0000000000011791
 20
-9.8639147999903862
 30
0.0
 11
2.0000000000011791
 21
-9.131607107711984
 31
0.0
  0
ARC
  5
1C20
  8
247
  6
CONTINUOUS
 10
3.1099335702154791
 20
-9.4026451810134901
 30
0.0
 40
0.3158858408603088
 50
65.990941652528889
 51
172.26344345906949
  0
ARC
  5
1C21
  8
247
  6
CONTINUOUS
 10
3.1129602618672361
 20
-9.6699572883415552
 30
0.0
 40
0.5698593289889349
 50
5.701985164258037
 51
77.277338436822262
1001
GENIUS_GENOBJ-N-FIL_13
1002
{
1000
OWNER
1000
GEN
1002
}
1001
GENIUS_GENODEF_13
1002
{
1000
HIER
1070
     0
1002
}
1002
{
1000
MANEDIT
1070
     0
1002
}
1002
{
1000
NOSEL
1070
     0
1002
}
1002
{
1000
BEHIND
1070
     0
1002
}
1002
{
1000
OTHER
1070
     0
1002
}
1002
{
1000
REACTOR
1002
}
  0
LINE
  5
1C22
  8
247
  6
CONTINUOUS
 10
3.6799999999339841
 20
-8.847185509650723
 30
0.0
 11
2.0000000000011791
 21
-8.3654532615951975
 31
0.0
  0
LINE
  5
1C23
  8
247
  6
CONTINUOUS
 10
2.0000000000011791
 20
-7.168530184726392
 30
0.0
 11
2.0000000000011791
 21
-7.4853426914428889
 31
0.0
  0
LINE
  5
1C24
  8
247
  6
CONTINUOUS
 10
3.6799999999339841
 20
-7.9869917231551932
 30
0.0
 11
3.6799999999339841
 21
-7.6423763385535981
 31
0.0
  0
ARC
  5
1C25
  8
247
  6
CONTINUOUS
 10
3.1666396760678701
 20
-7.0054532616559921
 30
0.0
 40
1.261484046111637
 50
202.35948814152729
 51
254.993248542846
  0
ARC
  5
1C26
  8
247
  6
CONTINUOUS
 10
2.4526550868316912
 20
-7.378009092906602
 30
0.0
 40
0.4987765437607558
 50
94.994589319075374
 51
155.16632895730359
1001
GENIUS_GENOBJ-N-FIL_13
1002
{
1000
OWNER
1000
GEN
1002
}
1001
GENIUS_GENODEF_13
1002
{
1000
HIER
1070
     0
1002
}
1002
{
1000
MANEDIT
1070
     0
1002
}
1002
{
1000
NOSEL
1070
     0
1002
}
1002
{
1000
BEHIND
1070
     0
1002
}
1002
{
1000
OTHER
1070
     0
1002
}
1002
{
1000
REACTOR
1002
}
  0
ARC
  5
1C27
  8
247
  6
CONTINUOUS
 10
2.929681697576731
 20
-7.8553471608262431
 30
0.0
 40
0.7799577719285588
 50
15.846096555779971
 51
82.325137004169136
  0
ARC
  5
1C28
  8
247
  6
CONTINUOUS
 10
3.097176321578035
 20
-7.5281693110177983
 30
0.0
 40
0.7417556510953607
 50
249.71360167049701
 51
321.78874565640962
1001
GENIUS_GENOBJ-N-FIL_13
1002
{
1000
OWNER
1000
GEN
1002
}
1001
GENIUS_GENODEF_13
1002
{
1000
HIER
1070
     0
1002
}
1002
{
1000
MANEDIT
1070
     0
1002
}
1002
{
1000
NOSEL
1070
     0
1002
}
1002
{
1000
BEHIND
1070
     0
1002
}
1002
{
1000
OTHER
1070
     0
1002
}
1002
{
1000
REACTOR
1002
}
  0
LINE
  5
1C29
  8
247
  6
CONTINUOUS
 10
3.03384615380596
 20
-7.4700686462527921
 30
0.0
 11
3.03384615380596
 21
-7.082376338575993
 31
0.0
  0
ARC
  5
1C2A
  8
247
  6
CONTINUOUS
 10
3.0000000000011791
 20
-10.50000000000003
 30
0.0
 40
1.0
 50
180.0
 51
0.0
  0
LINE
  5
1C2B
  8
247
  6
CONTINUOUS
 10
2.0000000000011791
 20
-10.50000000000003
 30
0.0
 11
2.0000000000011791
 21
-10.14307692313122
 31
0.0
  0
ARC
  5
1C2C
  8
247
  6
CONTINUOUS
 10
3.0000000000011791
 20
-6.7923076925360331
 30
0.0
 40
1.0
 50
0.0
 51
180.0
  0
LINE
  5
1C2D
  8
240
  6
CONTINUOUS
 10
0.00000000000001
 20
-9.0
 30
0.0
 11
-1.4352994599999891
 21
-9.0000000000000018
 31
0.0
  0
ARC
  5
1C3B
  8
241
  6
CONTINUOUS
 10
13.28419871363365
 20
9.8888033001695046
 30
0.0
 40
6.2538912329364207
 50
206.7580273912221
 51
6.3268279826820688
  0
VIEWPORT
  5
22
 67
     1
  8
0
 10
261.51769911504419
 20
148.5
 30
0.0
 40
523.0353982300885
 41
297.0
 68
     1
 69
     1
1001
ACAD
1000
MVIEW
1002
{
1070
    16
1010
0.0
1020
0.0
1030
0.0
1010
0.0
1020
0.0
1030
1.0
1040
0.0
1040
297.0
1040
261.51769911504419
1040
148.5
1040
50.0
1040
0.0
1040
0.0
1070
     0
1070
   100
1070
     1
1070
     1
1070
     0
1070
     0
1070
     0
1070
     0
1040
0.0
1040
0.0
1040
0.0
1040
1.0
1040
1.0
1040
10.0
1040
10.0
1070
     0
1002
{
1002
}
1002
}
1001
GENIUS_GENODEF_13
1002
{
1000
HIER
1070
     0
1002
}
1002
{
1000
MANEDIT
1070
     0
1002
}
1002
{
1000
NOSEL
1070
     0
1002
}
1002
{
1000
BEHIND
1070
     0
1002
}
1002
{
1000
OTHER
1070
     0
1002
}
1002
{
1000
REACTOR
1002
}
1001
GENIUS_GENOBJ-N-SDF_13
1002
{
1000
OWNER
1000
GEN
1002
}
1001
GENIUS_GENSCREG_15
1000
PF
1040
1.0
1000
DF
1040
1.0
1000
MIN
1011
0.0
1021
0.0
1031
0.0
1021
0.0
1031
0.0
1000
MAX
1011
523.0353982300885
1021
0.0
1031
0.0
1021
297.0
1031
0.0
1000
FLAGS
1070
     4
  0
ENDSEC
  0
EOF
