  0
SECTION
  2
HEADER
  9
$ACADVER
  1
AC1009
  9
$INSBASE
 10
0.0
 20
0.0
 30
0.0
  9
$EXTMIN
 10
-45.799999999999997
 20
-22.928711451377598
 30
0.0
  9
$EXTMAX
 10
50.0
 20
87.325148041482663
 30
0.0
  9
$LIMMIN
 10
0.0
 20
0.0
  9
$LIMMAX
 10
297.0
 20
210.0
  9
$ORTHOMODE
 70
     0
  9
$REGENMODE
 70
     1
  9
$FILLMODE
 70
     1
  9
$QTEXTMODE
 70
     0
  9
$MIRRTEXT
 70
     1
  9
$DRAGMODE
 70
     2
  9
$LTSCALE
 40
10.0
  9
$OSMODE
 70
    32
  9
$ATTMODE
 70
     1
  9
$TEXTSIZE
 40
3.0
  9
$TRACEWID
 40
1.0
  9
$TEXTSTYLE
  7
YOKO
  9
$CLAYER
  8
240
  9
$CELTYPE
  6
BYLAYER
  9
$CECOLOR
 62
   256
  9
$DIMSCALE
 40
1.0
  9
$DIMASZ
 40
2.2299999999999991
  9
$DIMEXO
 40
0.5
  9
$DIMDLI
 40
7.0
  9
$DIMRND
 40
0.0
  9
$DIMDLE
 40
0.0
  9
$DIMEXE
 40
1.0
  9
$DIMTP
 40
0.0
  9
$DIMTM
 40
0.01
  9
$DIMTXT
 40
2.799999999999998
  9
$DIMCEN
 40
0.0
  9
$DIMTSZ
 40
0.0
  9
$DIMTOL
 70
     0
  9
$DIMLIM
 70
     0
  9
$DIMTIH
 70
     0
  9
$DIMTOH
 70
     0
  9
$DIMSE1
 70
     0
  9
$DIMSE2
 70
     0
  9
$DIMTAD
 70
     3
  9
$DIMZIN
 70
     9
  9
$DIMBLK
  1
OPEN
  9
$DIMASO
 70
     1
  9
$DIMSHO
 70
     1
  9
$DIMPOST
  1

  9
$DIMAPOST
  1

  9
$DIMALT
 70
     0
  9
$DIMALTD
 70
     2
  9
$DIMALTF
 40
25.399999999999999
  9
$DIMLFAC
 40
1.0
  9
$DIMTOFL
 70
     1
  9
$DIMTVP
 40
0.0
  9
$DIMTIX
 70
     1
  9
$DIMSOXD
 70
     0
  9
$DIMSAH
 70
     0
  9
$DIMBLK1
  1

  9
$DIMBLK2
  1

  9
$DIMSTYLE
  2
BIGT
  9
$DIMCLRD
 70
   256
  9
$DIMCLRE
 70
   256
  9
$DIMCLRT
 70
    40
  9
$DIMTFAC
 40
1.0
  9
$DIMGAP
 40
1.0
  9
$LUNITS
 70
     2
  9
$LUPREC
 70
     3
  9
$SKETCHINC
 40
1.0
  9
$FILLETRAD
 40
0.0
  9
$AUNITS
 70
     0
  9
$AUPREC
 70
     3
  9
$MENU
  1
.
  9
$ELEVATION
 40
0.0
  9
$PELEVATION
 40
0.0
  9
$THICKNESS
 40
0.0
  9
$LIMCHECK
 70
     0
  9
$BLIPMODE
 70
     0
  9
$CHAMFERA
 40
0.25
  9
$CHAMFERB
 40
0.25
  9
$SKPOLY
 70
     0
  9
$TDCREATE
 40
2455933.6575683099
  9
$TDUPDATE
 40
2459908.4217898729
  9
$TDINDWG
 40
0.0067930787
  9
$TDUSRTIMER
 40
0.0067928819
  9
$USRTIMER
 70
     1
  9
$ANGBASE
 50
0.0
  9
$ANGDIR
 70
     0
  9
$PDMODE
 70
     1
  9
$PDSIZE
 40
0.0
  9
$PLINEWID
 40
0.0
  9
$COORDS
 70
     1
  9
$SPLFRAME
 70
     0
  9
$SPLINETYPE
 70
     6
  9
$SPLINESEGS
 70
     4
  9
$ATTDIA
 70
     1
  9
$ATTREQ
 70
     1
  9
$HANDLING
 70
     1
  9
$HANDSEED
  5
244C
  9
$SURFTAB1
 70
     6
  9
$SURFTAB2
 70
     6
  9
$SURFTYPE
 70
     6
  9
$SURFU
 70
     6
  9
$SURFV
 70
     6
  9
$UCSNAME
  2

  9
$UCSORG
 10
0.0
 20
0.0
 30
0.0
  9
$UCSXDIR
 10
1.0
 20
0.0
 30
0.0
  9
$UCSYDIR
 10
0.0
 20
1.0
 30
0.0
  9
$PUCSNAME
  2

  9
$PUCSORG
 10
0.0
 20
0.0
 30
0.0
  9
$PUCSXDIR
 10
1.0
 20
0.0
 30
0.0
  9
$PUCSYDIR
 10
0.0
 20
1.0
 30
0.0
  9
$USERI1
 70
     1
  9
$USERI2
 70
     0
  9
$USERI3
 70
     0
  9
$USERI4
 70
     0
  9
$USERI5
 70
     0
  9
$USERR1
 40
0.0
  9
$USERR2
 40
0.0
  9
$USERR3
 40
0.0
  9
$USERR4
 40
0.0
  9
$USERR5
 40
0.0
  9
$WORLDVIEW
 70
     1
  9
$SHADEDGE
 70
     3
  9
$SHADEDIF
 70
    70
  9
$TILEMODE
 70
     1
  9
$MAXACTVP
 70
    16
  9
$PLIMCHECK
 70
     0
  9
$PEXTMIN
 10
1.0000000000000000E+020
 20
1.0000000000000000E+020
 30
1.0000000000000000E+020
  9
$PEXTMAX
 10
-1.0000000000000000E+020
 20
-1.0000000000000000E+020
 30
-1.0000000000000000E+020
  9
$PLIMMIN
 10
0.0
 20
0.0
  9
$PLIMMAX
 10
420.0
 20
297.0
  9
$UNITMODE
 70
     0
  9
$VISRETAIN
 70
     1
  9
$PLINEGEN
 70
     0
  9
$PSLTSCALE
 70
     1
  0
ENDSEC
  0
SECTION
  2
TABLES
  0
TABLE
  2
VPORT
 70
     1
  0
VPORT
  2
*ACTIVE
 70
     0
 10
0.0
 20
0.0
 11
1.0
 21
1.0
 12
26.34015226854482
 22
17.062267301558581
 13
0.0
 23
0.0
 14
7.0
 24
7.0
 15
7.0
 25
7.0
 16
0.0
 26
0.0
 36
1.0
 17
0.0
 27
0.0
 37
0.0
 40
133.97619686926919
 41
1.9454545454545451
 42
50.0
 43
0.0
 44
0.0
 50
0.0
 51
0.0
 71
     0
 72
  2000
 73
     1
 74
     0
 75
     0
 76
     0
 77
     0
 78
     0
  0
ENDTAB
  0
TABLE
  2
LTYPE
 70
    17
  0
LTYPE
  2
CONTINUOUS
 70
     0
  3
Solid line
 72
    65
 73
     0
 40
0.0
  0
LTYPE
  2
CENTER2
 70
     0
  3
___ _ ___ _ ___ _ ___ _ ___ _ ___ _ ___ _ ___ _
 72
    65
 73
     4
 40
1.125
 49
0.75
 49
-0.125
 49
0.125
 49
-0.125
  0
LTYPE
  2
HIDDEN2
 70
     0
  3
_ _ _ _ _ _ _ _ _ _ _ _ _ _ _ _ _ _ _ _ _ _ _ _
 72
    65
 73
     2
 40
0.1875
 49
0.125
 49
-0.0625
  0
LTYPE
  2
PHANTOM2
 70
     0
  3
___ _ _ ___ _ _ ___ _ _ ___ _ _ ___ _ _ ___ _ _
 72
    65
 73
     6
 40
1.25
 49
0.625
 49
-0.125
 49
0.125
 49
-0.125
 49
0.125
 49
-0.125
  0
LTYPE
  2
CENTER
 70
     0
  3
____ _ ____ _ ____ _ ____ _ ____ _ ____ _ ____ 
 72
    65
 73
     4
 40
2.0
 49
1.25
 49
-0.25
 49
0.25
 49
-0.25
  0
LTYPE
  2
AMCONSTR
 70
     0
  3
_______________________
 72
    65
 73
     2
 40
9999.0
 49
9999.0
 49
0.0
  0
LTYPE
  2
HIDDEN
 70
     0
  3
Hidden __ __ __ __ __ __ __ __ __ __ __ __ __ _
 72
    65
 73
     2
 40
9.5249999999999986
 49
6.349999999999997
 49
-3.174999999999998
  0
LTYPE
  2
AMZIGZAG2
 70
     0
  3
/\/-/\/-/\/-/\/-/\/-/\/
 72
    65
 73
     2
 40
0.4401
 49
0.0001
 49
-0.4400000000000003
  0
LTYPE
  2
ACANSTGB
 70
     0
  3
__ . . __ . .
 72
    65
 73
     6
 40
0.35433070866
 49
0.15748031496
 49
-0.03937007874
 49
0.03937007874
 49
-0.03937007874
 49
0.03937007874
 49
-0.03937007874
  0
LTYPE
  2
ACANSTGL
 70
     0
  3
_ _ _ _ _
 72
    65
 73
     2
 40
0.11811023622
 49
0.07874015748
 49
-0.03937007874
  0
ENDTAB
  0
TABLE
  2
LAYER
 70
    10
  0
LAYER
  2
0
 70
     0
 62
     7
  6
CONTINUOUS
  0
LAYER
  2
245
 70
     0
 62
     2
  6
CENTER2
  0
LAYER
  2
DEFPOINTS
 70
     0
 62
     7
  6
CONTINUOUS
  0
LAYER
  2
240
 70
     0
 62
     4
  6
CONTINUOUS
  0
LAYER
  2
241
 70
     0
 62
   211
  6
CONTINUOUS
  0
LAYER
  2
246
 70
     0
 62
     3
  6
PHANTOM2
  0
LAYER
  2
247
 70
     0
 62
    60
  6
CONTINUOUS
  0
LAYER
  2
250
 70
     0
 62
     3
  6
CONTINUOUS
  0
ENDTAB
  0
TABLE
  2
STYLE
 70
     6
  0
STYLE
  2
STANDARD
 70
     0
 40
0.0
 41
1.0
 50
0.0
 71
     0
 42
3.0
  3
romans.shx
  4
extfont.shx
  0
STYLE
  2
YOKO
 70
     0
 40
0.0
 41
1.0
 50
0.0
 71
     0
 42
3.0
  3
romans.shx
  4
extfont.shx
  0
STYLE
  2
ACANSGDT
 70
     0
 40
0.0
 41
1.0
 50
0.0
 71
     0
 42
3.0
  3
amgdt.shx
  4

  0
ENDTAB
  0
TABLE
  2
VIEW
 70
     0
  0
ENDTAB
  0
TABLE
  2
UCS
 70
     0
  0
ENDTAB
  0
TABLE
  2
APPID
 70
    41
  0
APPID
  2
ACAD
 70
     0
  0
APPID
  2
ACADANNOTATIVE
 70
     0
  0
APPID
  2
GLOBAL
 70
     0
  0
APPID
  2
DETAIL
 70
     0
  0
APPID
  2
GRPNAME
 70
     0
  0
APPID
  2
GPARA
 70
     0
  0
APPID
  2
MCAD_NO_VIS
 70
     0
  0
APPID
  2
ACAD_TEMP_GRAPHIC
 70
     0
  0
APPID
  2
ACATTRIBSERVICES
 70
     0
  0
APPID
  2
GENIUS_GENSCREG_15
 70
     0
  0
APPID
  2
GENIUS_GENODEF_13
 70
     0
  0
APPID
  2
GENIUS_GENOBJ-N-SDF_13
 70
     0
  0
APPID
  2
GENIUS_GENREC_14
 70
     0
  0
APPID
  2
GENIUS_GENOBJ-N-REC_13
 70
     0
  0
APPID
  2
GENIUS_GENDIMSH_14
 70
     0
  0
APPID
  2
GENIUS_GENOBJ-N-DIM_13
 70
     0
  0
APPID
  2
GENIUS_GENDIM_13
 70
     0
  0
APPID
  2
GENIUS_GENDTOL_13
 70
     0
  0
APPID
  2
GENIUS_GENOLIS_13
 70
     0
  0
APPID
  2
GENIUS_GENOENT_13
 70
     0
  0
APPID
  2
GENIUS_GENOBJ-F-FEM_13
 70
     0
  0
APPID
  2
GENIUS_GENOREF_13
 70
     0
  0
APPID
  2
GENIUS_GEFFEM_13
 70
     0
  0
APPID
  2
GENIUS_GEFFEMP_13
 70
     0
  0
APPID
  2
AD_DRAW
 70
     0
  0
APPID
  2
DESIGNERASSEMBLIES
 70
     0
  0
APPID
  2
ACADM_DIM_EDIT
 70
     0
  0
APPID
  2
AMDT_DM_ADJ
 70
     0
  0
APPID
  2
ITEMNAME
 70
     0
  0
APPID
  2
HATCH_TYPE
 70
     0
  0
APPID
  2
HATCH_DISPLAY
 70
     0
  0
APPID
  2
HATCH_DISTANCE
 70
     0
  0
APPID
  2
ACAD_DSTYLE_DIMBREAK
 70
     0
  0
APPID
  2
ACAD_DSTYLE_DIMJAG
 70
     0
  0
APPID
  2
ACAD_NAV_VCDISPLAY
 70
     0
  0
APPID
  2
GENIUS_GENOBJ-N-FIL_13
 70
     0
  0
APPID
  2
ACAECLAYERSTANDARD
 70
     0
  0
APPID
  2
ACAD_EXEMPT_FROM_CAD_STANDARDS
 70
     0
  0
APPID
  2
ACAD_DSTYLE_DIMINSPECT
 70
     0
  0
APPID
  2
ACAD_DSTYLE_DIMANGULAR_EXT
 70
     0
  0
APPID
  2
ACAD_MLEADERVER
 70
     0
  0
ENDTAB
  0
TABLE
  2
DIMSTYLE
 70
    12
  0
DIMSTYLE
  2
STANDARD
 70
     0
  3

  4

  5

  6

  7

 40
1.0
 41
0.18
 42
0.0625
 43
0.38
 44
0.18
 45
0.0
 46
0.0
 47
0.0
 48
0.0
140
0.18
141
0.09
142
0.0
143
25.399999999999999
144
1.0
145
0.0
146
1.0
147
0.09
 71
     0
 72
     0
 73
     1
 74
     1
 75
     0
 76
     0
 77
     0
 78
     0
170
     0
171
     2
172
     0
173
     0
174
     0
175
     0
176
     0
177
     0
178
     0
  0
DIMSTYLE
  2
BIGT
 70
     0
  3

  4

  5

  6

  7

 40
1.0
 41
2.2299999999999991
 42
0.5
 43
7.0
 44
1.0
 45
0.0
 46
0.0
 47
0.0
 48
0.01
140
2.799999999999998
141
0.0
142
0.0
143
25.399999999999999
144
1.0
145
0.0
146
1.0
147
1.0
 71
     0
 72
     0
 73
     0
 74
     0
 75
     0
 76
     0
 77
     3
 78
     9
170
     0
171
     2
172
     1
173
     0
174
     1
175
     0
176
   256
177
   256
178
    40
  0
DIMSTYLE
  2
AM_ANSI
 70
     0
  3

  4
mm
  5

  6

  7

 40
1.0
 41
0.1
 42
0.05
 43
0.5
 44
0.1
 45
0.0
 46
0.0
 47
0.1
 48
0.1
140
0.12
141
0.0
142
0.0
143
25.399999999999999
144
1.0
145
0.0
146
0.71
147
0.06
 71
     0
 72
     0
 73
     1
 74
     1
 75
     0
 76
     0
 77
     0
 78
     7
170
     0
171
     2
172
     0
173
     0
174
     0
175
     0
176
   256
177
   256
178
     2
  0
DIMSTYLE
  2
AM_ANSI$3
 70
     0
  3

  4
mm
  5

  6

  7

 40
1.0
 41
0.1
 42
0.05
 43
0.5
 44
0.1
 45
0.0
 46
0.0
 47
0.1
 48
0.1
140
0.12
141
0.0
142
0.0
143
25.399999999999999
144
1.0
145
0.0
146
0.71
147
0.06
 71
     0
 72
     0
 73
     1
 74
     1
 75
     0
 76
     0
 77
     0
 78
     7
170
     0
171
     2
172
     0
173
     0
174
     0
175
     0
176
   256
177
   256
178
     2
  0
DIMSTYLE
  2
AM_ANSI$4
 70
     0
  3

  4
mm
  5

  6

  7

 40
1.0
 41
0.1
 42
0.05
 43
0.5
 44
0.1
 45
0.0
 46
0.0
 47
0.1
 48
0.1
140
0.12
141
0.0
142
0.0
143
25.399999999999999
144
1.0
145
0.0
146
0.71
147
0.06
 71
     0
 72
     0
 73
     1
 74
     1
 75
     0
 76
     0
 77
     0
 78
     7
170
     0
171
     2
172
     0
173
     0
174
     0
175
     0
176
   256
177
   256
178
     2
  0
DIMSTYLE
  2
AM_ANSI$7
 70
     0
  3

  4
mm
  5

  6

  7

 40
1.0
 41
0.1
 42
0.05
 43
0.5
 44
0.1
 45
0.0
 46
0.0
 47
0.1
 48
0.1
140
0.24
141
0.0
142
0.0
143
25.399999999999999
144
1.0
145
0.0
146
0.71
147
0.06
 71
     0
 72
     0
 73
     1
 74
     1
 75
     0
 76
     0
 77
     0
 78
     7
170
     0
171
     2
172
     0
173
     0
174
     0
175
     0
176
   256
177
   256
178
     2
  0
DIMSTYLE
  2
AM_ANSI$SF
 70
     0
  3

  4
mm
  5

  6

  7

 40
1.0
 41
0.1
 42
0.05
 43
0.5
 44
0.1
 45
0.0
 46
0.0
 47
0.1
 48
0.1
140
0.12
141
0.0
142
0.0
143
25.399999999999999
144
1.0
145
0.0
146
0.71
147
0.06
 71
     0
 72
     0
 73
     1
 74
     1
 75
     1
 76
     1
 77
     0
 78
     7
170
     0
171
     2
172
     0
173
     0
174
     0
175
     0
176
   256
177
   256
178
     2
  0
DIMSTYLE
  2
AM_ANSI$SH
 70
     0
  3

  4
mm
  5

  6

  7

 40
1.0
 41
0.1
 42
0.05
 43
0.5
 44
0.1
 45
0.0
 46
0.0
 47
0.1
 48
0.1
140
0.12
141
0.0
142
0.0
143
25.399999999999999
144
1.0
145
0.0
146
0.71
147
0.06
 71
     0
 72
     0
 73
     1
 74
     1
 75
     1
 76
     1
 77
     0
 78
     7
170
     0
171
     2
172
     0
173
     1
174
     0
175
     0
176
   256
177
   256
178
     2
  0
ENDTAB
  0
ENDSEC
  0
SECTION
  2
BLOCKS
  0
BLOCK
  8
0
  2
$MODEL_SPACE
 70
     0
 10
0.0
 20
0.0
 30
0.0
  3
$MODEL_SPACE
  1

  0
ENDBLK
  5
2239
  8
0
  0
BLOCK
 67
     1
  8
0
  2
$PAPER_SPACE
 70
     0
 10
0.0
 20
0.0
 30
0.0
  3
$PAPER_SPACE
  1

  0
ENDBLK
  5
2235
 67
     1
  8
0
  0
BLOCK
  8
0
  2
_OPEN
 70
     0
 10
0.0
 20
0.0
 30
0.0
  3
_OPEN
  1

  0
LINE
  5
1A0B
  8
0
  6
BYBLOCK
 62
     0
 10
-1.0
 20
0.1666666666666666
 30
0.0
 11
0.0
 21
0.0
 31
0.0
  0
LINE
  5
1A0C
  8
0
  6
BYBLOCK
 62
     0
 10
-1.0
 20
-0.1666666666666666
 30
0.0
 11
0.0
 21
0.0
 31
0.0
  0
LINE
  5
1A0D
  8
0
  6
BYBLOCK
 62
     0
 10
0.0
 20
0.0
 30
0.0
 11
-1.0
 21
0.0
 31
0.0
  0
ENDBLK
  5
1A0E
  8
0
  0
BLOCK
  8
0
  2
_ACMFILLEDHALF
 70
     0
 10
0.0
 20
0.0
 30
0.0
  3
_ACMFILLEDHALF
  1

  0
TRACE
  5
22D2
  8
245
 62
     0
 10
-0.8
 20
0.0
 30
0.0
 11
-1.0
 21
0.166666666
 31
0.0
 12
0.0
 22
0.0
 32
0.0
 13
0.0
 23
0.0
 33
0.0
  0
LINE
  5
22D3
  8
245
 62
     0
 10
-1.0
 20
0.0
 30
0.0
 11
-0.8
 21
0.0
 31
0.0
  0
ENDBLK
  5
22D1
  8
0
  0
ENDSEC
  0
SECTION
  2
ENTITIES
  0
LINE
  5
193B
  8
250
  6
CONTINUOUS
 10
-0.3423105293401249
 20
-15.50000008146718
 30
0.0
 11
-28.999999999999989
 21
-15.499999999999989
 31
0.0
  0
LINE
  5
193C
  8
250
  6
CONTINUOUS
 10
-0.3423105293401231
 20
15.5
 30
0.0
 11
-28.999999999999979
 21
15.5
 31
0.0
  0
LINE
  5
193D
  8
250
  6
CONTINUOUS
 10
-27.999999999999989
 20
-13.269999999999991
 30
0.0
 11
-27.999999999999979
 21
13.27
 31
0.0
  0
TEXT
  5
193F
  8
250
  6
CONTINUOUS
 10
-28.999999999999979
 20
-3.6428571428571361
 30
0.0
 40
3.0
  1
\U+2205
 50
90.0
1001
ACAD
1000
MTEXTBEGIN
1070
    73
1070
     1
1070
    44
1040
1.0
1070
    74
1070
     0
1000
MTEXTEND
  0
TEXT
  5
1940
  8
250
  6
CONTINUOUS
 10
-28.999999999999979
 20
-0.9285714285714251
 30
0.0
 40
3.0
  1
31
 50
90.0
1001
ACAD
1000
MTEXTBEGIN
1070
    73
1070
     1
1070
    44
1040
1.0
1070
    74
1070
     0
1000
MTEXTEND
  0
LINE
  5
1941
  8
250
  6
CONTINUOUS
 10
-28.371666666666648
 20
13.27
 30
0.0
 11
-27.999999999999979
 21
15.5
 31
0.0
  0
LINE
  5
1942
  8
250
  6
CONTINUOUS
 10
-27.62833333333332
 20
13.27
 30
0.0
 11
-27.999999999999979
 21
15.5
 31
0.0
  0
LINE
  5
1943
  8
250
  6
CONTINUOUS
 10
-27.999999999999979
 20
15.5
 30
0.0
 11
-27.999999999999979
 21
13.27
 31
0.0
  0
LINE
  5
1944
  8
250
  6
CONTINUOUS
 10
-27.62833333333333
 20
-13.269999999999991
 30
0.0
 11
-27.999999999999989
 21
-15.499999999999989
 31
0.0
  0
LINE
  5
1945
  8
250
  6
CONTINUOUS
 10
-28.371666666666659
 20
-13.269999999999991
 30
0.0
 11
-27.999999999999989
 21
-15.499999999999989
 31
0.0
  0
LINE
  5
1946
  8
250
  6
CONTINUOUS
 10
-27.999999999999989
 20
-15.499999999999989
 30
0.0
 11
-27.999999999999989
 21
-13.269999999999991
 31
0.0
  0
LINE
  5
194B
  8
250
  6
CONTINUOUS
 10
13.952508689916099
 20
21.703553390593271
 30
0.0
 11
9.138756393261664
 21
26.517305687247688
 31
0.0
  0
ARC
  5
194C
  8
250
  6
CONTINUOUS
 10
19.96395923197267
 20
15.692102848536701
 30
0.0
 40
14.30914866994482
 50
98.938284575628813
 51
126.061715424371
  0
LINE
  5
194D
  8
250
  6
CONTINUOUS
 10
0.0
 20
16.0
 30
0.0
 11
0.0000000000000013
 21
36.0
 31
0.0
  0
LINE
  5
194E
  8
250
  6
CONTINUOUS
 10
19.96291621363099
 20
16.19314481914045
 30
0.0
 11
19.96291621363099
 21
36.0
 31
0.0
  0
LINE
  5
194F
  8
250
  6
CONTINUOUS
 10
2.2299999999999991
 20
35.0
 30
0.0
 11
17.73291621363099
 21
35.0
 31
0.0
  0
LINE
  5
1950
  8
250
  6
CONTINUOUS
 10
15.156062015683871
 20
21.000000000000011
 30
0.0
 11
43.0
 21
21.0
 31
0.0
  0
LINE
  5
1951
  8
250
  6
CONTINUOUS
 10
42.000000000000007
 20
18.77
 30
0.0
 11
42.000000000000007
 21
-4.5333333333333341
 31
0.0
  0
LINE
  5
1952
  8
250
  6
CONTINUOUS
 10
20.15606108960581
 20
16.0
 30
0.0
 11
36.000000000000007
 21
15.99999999999998
 31
0.0
  0
LINE
  5
1953
  8
250
  6
CONTINUOUS
 10
35.000000000000021
 20
13.77
 30
0.0
 11
35.000000000000021
 21
-4.5333333333333341
 31
0.0
  0
LINE
  5
1954
  8
250
  6
CONTINUOUS
 10
14.806062080509321
 20
-21.349999999999991
 30
0.0
 11
50.0
 21
-21.350000000000001
 31
0.0
  0
LINE
  5
1955
  8
250
  6
CONTINUOUS
 10
14.806062080509321
 20
21.350000000000019
 30
0.0
 11
50.0
 21
21.350000000000019
 31
0.0
  0
LINE
  5
1956
  8
250
  6
CONTINUOUS
 10
49.0
 20
-19.120000000000001
 30
0.0
 11
49.000000000000021
 21
19.120000000000001
 31
0.0
  0
LINE
  5
1957
  8
250
  6
CONTINUOUS
 10
12.04184834291704
 20
21.000000000000011
 30
0.0
 11
-43.0
 21
21.000000000000028
 31
0.0
  0
LINE
  5
1958
  8
250
  6
CONTINUOUS
 10
-42.0
 20
18.770000000000021
 30
0.0
 11
-42.000000000000007
 21
-4.5333251770590381
 31
0.0
  0
LINE
  5
1959
  8
250
  6
CONTINUOUS
 10
7.0418491660975331
 20
16.0
 30
0.0
 11
-36.0
 21
16.000000000000011
 31
0.0
  0
LINE
  5
195A
  8
250
  6
CONTINUOUS
 10
-35.000000000000007
 20
13.77000000000001
 30
0.0
 11
-35.000000000000007
 21
-4.5333263534325523
 31
0.0
  0
TEXT
  5
195B
  8
250
  6
CONTINUOUS
 10
-43.0
 20
-3.799991843725711
 30
0.0
 40
2.799999999999998
  1
\U+220542
 50
90.0
  0
LINE
  5
195C
  8
250
  6
CONTINUOUS
 10
-42.371666666666663
 20
18.770000000000021
 30
0.0
 11
-42.0
 21
21.000000000000028
 31
0.0
  0
LINE
  5
195D
  8
250
  6
CONTINUOUS
 10
-41.62833333333333
 20
18.770000000000021
 30
0.0
 11
-42.0
 21
21.000000000000028
 31
0.0
  0
LINE
  5
195E
  8
250
  6
CONTINUOUS
 10
-42.0
 20
21.000000000000028
 30
0.0
 11
-42.0
 21
18.770000000000021
 31
0.0
  0
TEXT
  5
195F
  8
250
  6
CONTINUOUS
 10
-36.000000000000007
 20
-3.7999930200992229
 30
0.0
 40
2.799999999999998
  1
\U+220532
 50
90.0
  0
LINE
  5
1960
  8
250
  6
CONTINUOUS
 10
-35.37166666666667
 20
13.77000000000001
 30
0.0
 11
-35.0
 21
16.000000000000011
 31
0.0
  0
LINE
  5
1961
  8
250
  6
CONTINUOUS
 10
-34.62833333333333
 20
13.77000000000001
 30
0.0
 11
-35.0
 21
16.000000000000011
 31
0.0
  0
LINE
  5
1962
  8
250
  6
CONTINUOUS
 10
-35.0
 20
16.000000000000011
 30
0.0
 11
-35.0
 21
13.77000000000001
 31
0.0
  0
TEXT
  5
1963
  8
250
  6
CONTINUOUS
 10
10.632781150169389
 20
28.652478089320631
 30
0.0
 40
2.799999999999998
  1
45\U+00B0
 50
19.21213486684789
  0
LINE
  5
1964
  8
250
  6
CONTINUOUS
 10
11.78231860469225
 20
26.976893586682209
 30
0.0
 11
9.8458631744482101
 21
25.810198906061149
 31
0.0
  0
LINE
  5
1965
  8
250
  6
CONTINUOUS
 10
11.29925787420736
 20
27.541868608349411
 30
0.0
 11
9.8458631744482101
 21
25.810198906061149
 31
0.0
  0
LINE
  5
1966
  8
250
  6
CONTINUOUS
 10
9.8458631744482101
 20
25.810198906061149
 30
0.0
 11
11.54078823944981
 21
27.25938109751581
 31
0.0
  0
LINE
  5
1967
  8
250
  6
CONTINUOUS
 10
17.711778594769111
 20
30.19802165980456
 30
0.0
 11
19.963959231972702
 21
30.001251518481521
 31
0.0
  0
LINE
  5
1968
  8
250
  6
CONTINUOUS
 10
17.769700745540199
 20
29.456948472531881
 30
0.0
 11
19.963959231972702
 21
30.001251518481521
 31
0.0
  0
LINE
  5
1969
  8
250
  6
CONTINUOUS
 10
19.963959231972702
 20
30.001251518481521
 30
0.0
 11
17.74073967015466
 21
29.827485066168212
 31
0.0
  0
TEXT
  5
196A
  8
250
  6
CONTINUOUS
 10
7.3147914401488281
 20
36.0
 30
0.0
 40
2.799999999999998
  1
20
  0
LINE
  5
196B
  8
250
  6
CONTINUOUS
 10
17.73291621363099
 20
35.37166666666667
 30
0.0
 11
19.96291621363099
 21
35.0
 31
0.0
  0
LINE
  5
196C
  8
250
  6
CONTINUOUS
 10
17.73291621363099
 20
34.62833333333333
 30
0.0
 11
19.96291621363099
 21
35.0
 31
0.0
  0
LINE
  5
196D
  8
250
  6
CONTINUOUS
 10
19.96291621363099
 20
35.0
 30
0.0
 11
17.73291621363099
 21
35.0
 31
0.0
  0
LINE
  5
196E
  8
250
  6
CONTINUOUS
 10
2.2299999999999991
 20
34.62833333333333
 30
0.0
 11
0.0000000000000012
 21
35.0
 31
0.0
  0
LINE
  5
196F
  8
250
  6
CONTINUOUS
 10
2.2299999999999991
 20
35.37166666666667
 30
0.0
 11
0.0000000000000012
 21
35.0
 31
0.0
  0
LINE
  5
1970
  8
250
  6
CONTINUOUS
 10
0.0000000000000012
 20
35.0
 30
0.0
 11
2.2299999999999991
 21
35.0
 31
0.0
  0
TEXT
  5
1971
  8
250
  6
CONTINUOUS
 10
41.0
 20
-3.7999999999999909
 30
0.0
 40
2.799999999999998
  1
\U+220542
 50
90.0
  0
LINE
  5
1972
  8
250
  6
CONTINUOUS
 10
41.628333333333337
 20
18.77
 30
0.0
 11
42.000000000000007
 21
21.0
 31
0.0
  0
LINE
  5
1973
  8
250
  6
CONTINUOUS
 10
42.371666666666663
 20
18.77
 30
0.0
 11
42.000000000000007
 21
21.0
 31
0.0
  0
LINE
  5
1974
  8
250
  6
CONTINUOUS
 10
42.000000000000007
 20
21.0
 30
0.0
 11
42.000000000000007
 21
18.77
 31
0.0
  0
TEXT
  5
1975
  8
250
  6
CONTINUOUS
 10
34.000000000000007
 20
-3.7999999999999909
 30
0.0
 40
2.799999999999998
  1
\U+220532
 50
90.0
  0
LINE
  5
1976
  8
250
  6
CONTINUOUS
 10
34.628333333333337
 20
13.77
 30
0.0
 11
35.000000000000021
 21
15.99999999999998
 31
0.0
  0
LINE
  5
1977
  8
250
  6
CONTINUOUS
 10
35.371666666666691
 20
13.77
 30
0.0
 11
35.000000000000021
 21
15.99999999999998
 31
0.0
  0
LINE
  5
1978
  8
250
  6
CONTINUOUS
 10
35.000000000000021
 20
15.99999999999998
 30
0.0
 11
35.000000000000021
 21
13.77
 31
0.0
  0
TEXT
  5
1979
  8
250
  6
CONTINUOUS
 10
48.0
 20
-5.8952380952380787
 30
0.0
 40
3.0
  1
\U+2205
 50
90.0
  0
TEXT
  5
197A
  8
250
  6
CONTINUOUS
 10
47.899999999999999
 20
-3.1809523809523621
 30
0.0
 40
2.799999999999998
  1
42.7
 50
90.0
  0
LINE
  5
197B
  8
250
  6
CONTINUOUS
 10
48.628333333333337
 20
19.120000000000001
 30
0.0
 11
49.000000000000021
 21
21.350000000000019
 31
0.0
  0
LINE
  5
197C
  8
250
  6
CONTINUOUS
 10
49.371666666666677
 20
19.120000000000001
 30
0.0
 11
49.000000000000021
 21
21.350000000000019
 31
0.0
  0
LINE
  5
197D
  8
250
  6
CONTINUOUS
 10
49.000000000000021
 20
21.350000000000019
 30
0.0
 11
49.000000000000021
 21
19.120000000000001
 31
0.0
  0
LINE
  5
197E
  8
250
  6
CONTINUOUS
 10
49.37166666666667
 20
-19.120000000000001
 30
0.0
 11
49.0
 21
-21.350000000000001
 31
0.0
  0
LINE
  5
197F
  8
250
  6
CONTINUOUS
 10
48.62833333333333
 20
-19.120000000000001
 30
0.0
 11
49.0
 21
-21.350000000000001
 31
0.0
  0
LINE
  5
1980
  8
250
  6
CONTINUOUS
 10
49.0
 20
-21.350000000000001
 30
0.0
 11
49.0
 21
-19.120000000000001
 31
0.0
  0
TEXT
  5
1981
  8
241
 10
-42.0
 20
49.0
 30
0.0
 40
5.0
  1
CKB3-C3242-45B-20
  7
YOKO
 11
-42.0
 21
49.0
 31
0.0
 73
     1
  0
LINE
  5
1C93
  8
241
  6
CONTINUOUS
 10
7.2360392659902839
 20
9.98104231469142
 30
0.0
 11
7.626494392752674
 21
12.22752136533822
 31
0.0
  0
LINE
  5
1C94
  8
240
  6
CONTINUOUS
 10
19.863536785123902
 20
10.55883486033434
 30
0.0
 11
19.963961443863841
 21
9.98104231469142
 31
0.0
  0
LINE
  5
1C95
  8
241
  6
CONTINUOUS
 10
19.963961443863841
 20
9.98104231469142
 30
0.0
 11
14.30710731074217
 21
13.98104165617843
 31
0.0
  0
LINE
  5
1C96
  8
241
  6
CONTINUOUS
 10
12.89289351552727
 20
13.98104165617843
 30
0.0
 11
7.2360392659902839
 21
9.98104231469142
 31
0.0
  0
LINE
  5
1C97
  8
240
  6
CONTINUOUS
 10
0.0
 20
-15.500000082440289
 30
0.0
 11
0.0
 21
-9.0000000000000036
 31
0.0
  0
LINE
  5
1C98
  8
240
  6
CONTINUOUS
 10
0.0
 20
9.0
 30
0.0
 11
0.0
 21
15.500000082440319
 31
0.0
  0
LINE
  5
1C99
  8
240
  6
CONTINUOUS
 10
19.963961443863809
 20
-12.102362676690349
 30
0.0
 11
19.500000418857582
 21
-12.43043261641786
 31
0.0
  0
LINE
  5
1C9A
  8
241
  6
CONTINUOUS
 10
19.500000402331349
 20
-12.43043262810367
 30
0.0
 11
14.30710731074214
 21
-16.102362018177359
 31
0.0
  0
LINE
  5
1C9B
  8
241
  6
CONTINUOUS
 10
14.30710731074214
 20
4.981042479288134
 30
0.0
 11
19.500000402331381
 21
8.6529723160095955
 31
0.0
  0
LINE
  5
1C9C
  8
240
  6
CONTINUOUS
 10
19.500000402331381
 20
8.6529724738941862
 30
0.0
 11
19.963961443863841
 21
8.9810424793196812
 31
0.0
  0
LINE
  5
1C9D
  8
240
  6
CONTINUOUS
 10
19.500000402331349
 20
-15.50147983194972
 30
0.0
 11
19.500000402331349
 21
-12.43043259304625
 31
0.0
  0
LINE
  5
1C9E
  8
241
  6
CONTINUOUS
 10
19.500000402331349
 20
-9.4011928875959256
 30
0.0
 11
19.500000402331349
 21
-8.8039068482902376
 31
0.0
  0
LINE
  5
1C9F
  8
240
  6
CONTINUOUS
 10
19.500000402331349
 20
-8.8039068482902376
 30
0.0
 11
19.500000402331349
 21
8.6529724738941631
 31
0.0
  0
LINE
  5
1CA0
  8
240
  6
CONTINUOUS
 10
19.57350652810419
 20
-8.8894129257512304
 30
0.0
 11
19.86353678512387
 21
-11.523479581342199
 31
0.0
  0
LINE
  5
1CA1
  8
241
  6
CONTINUOUS
 10
19.023800058227948
 20
-10.117409305167779
 30
0.0
 11
19.86353678512387
 21
-11.523479581342199
 31
0.0
  0
LINE
  5
1CA2
  8
240
  6
CONTINUOUS
 10
19.86353678512387
 20
-11.523479581342199
 30
0.0
 11
19.963961443863809
 21
-12.102362676690349
 31
0.0
  0
LINE
  5
1CA4
  8
240
  6
CONTINUOUS
 10
19.57350652810419
 20
-8.8894129257512304
 30
0.0
 11
19.57350652810419
 21
-8.8558837906717827
 31
0.0
  0
LINE
  5
1CA5
  8
240
  6
CONTINUOUS
 10
19.500000402331349
 20
-8.8039068482902376
 30
0.0
 11
19.57350652810419
 21
-8.8558837906717827
 31
0.0
  0
LINE
  5
1CA6
  8
240
  6
CONTINUOUS
 10
19.963961443863841
 20
8.9810424793196812
 30
0.0
 11
19.963961443863841
 21
9.98104231469142
 31
0.0
  0
LINE
  5
1CA7
  8
241
  6
CONTINUOUS
 10
12.89289351552725
 20
-16.102362018177359
 30
0.0
 11
7.2360392659902573
 21
-12.102362676690319
 31
0.0
  0
LINE
  5
1CA8
  8
241
  6
CONTINUOUS
 10
14.20000055804848
 20
-13.54277007867614
 30
0.0
 11
14.20000055804848
 21
-4.91743481771499
 31
0.0
  0
LINE
  5
1CA9
  8
241
  6
CONTINUOUS
 10
13.0000002682209
 20
-13.54277007867614
 30
0.0
 11
13.0000002682209
 21
-4.91743481771499
 31
0.0
  0
LINE
  5
1CAA
  8
240
  6
CONTINUOUS
 10
13.0000002682209
 20
-20.31326764697155
 30
0.0
 11
14.20000055804848
 21
-20.31326764697155
 31
0.0
  0
LINE
  5
1CAB
  8
241
  6
CONTINUOUS
 10
12.89366511628031
 20
-15.453013343386059
 30
0.0
 11
12.89289351552725
 21
-16.102362018177359
 31
0.0
  0
LINE
  5
1CAC
  8
241
  6
CONTINUOUS
 10
14.30710731074214
 20
-16.102362018177359
 30
0.0
 11
14.304107986390591
 21
-13.57767030342117
 31
0.0
  0
LINE
  5
1CAD
  8
241
  6
CONTINUOUS
 10
14.30710731074214
 20
-16.102362018177359
 30
0.0
 11
12.89289351552725
 21
-16.102362018177359
 31
0.0
  0
LINE
  5
1CAE
  8
241
  6
CONTINUOUS
 10
12.39780616015196
 20
-13.225468846750861
 30
0.0
 11
12.89366511628031
 21
-15.453013343386059
 31
0.0
  0
LINE
  5
1CAF
  8
241
  6
CONTINUOUS
 10
14.0724922530353
 20
-13.54277007867614
 30
0.0
 11
14.256690163165331
 21
-13.57767030342117
 31
0.0
  0
LINE
  5
1CB0
  8
241
  6
CONTINUOUS
 10
14.256690163165331
 20
-13.57767030342117
 30
0.0
 11
14.304107986390591
 21
-13.57767030342117
 31
0.0
  0
LINE
  5
1CB1
  8
241
  6
CONTINUOUS
 10
14.256690163165331
 20
-13.57767030342117
 30
0.0
 11
12.89366511628031
 21
-15.453013343386059
 31
0.0
  0
LINE
  5
1CB2
  8
241
  6
CONTINUOUS
 10
13.0000002682209
 20
-13.54277007867614
 30
0.0
 11
14.20000055804848
 21
-13.54277007867614
 31
0.0
  0
LINE
  5
1CB3
  8
241
  6
CONTINUOUS
 10
7.6000001281499854
 20
-9.7076465743856488
 30
0.0
 11
7.6000001281499854
 21
3.0458164231691272
 31
0.0
  0
LINE
  5
1CB4
  8
241
  6
CONTINUOUS
 10
13.0000002682209
 20
-4.91743481771499
 30
0.0
 11
14.20000055804848
 21
-4.91743481771499
 31
0.0
  0
LINE
  5
1CB5
  8
241
  6
CONTINUOUS
 10
7.2360392659902573
 20
-12.102362676690319
 30
0.0
 11
7.645820825195325
 21
-9.7402382752287835
 31
0.0
  0
LINE
  5
1CB6
  8
241
  6
CONTINUOUS
 10
7.2360392659902839
 20
8.9810424793196812
 30
0.0
 11
12.89289351552725
 21
4.981042479288134
 31
0.0
  0
POLYLINE
  5
1CB7
  8
241
  6
CONTINUOUS
 66
     1
 10
0.0
 20
0.0
 30
0.0
 70
     8
  0
VERTEX
  5
1CB8
  8
241
  6
CONTINUOUS
 10
16.001799999999999
 20
6.20608
 30
0.0
 70
    32
  0
VERTEX
  5
1CB9
  8
241
  6
CONTINUOUS
 10
16.0017
 20
6.2059499999999987
 30
0.0
 70
    32
  0
VERTEX
  5
1CBA
  8
241
  6
CONTINUOUS
 10
16.0017
 20
6.2058200000000001
 30
0.0
 70
    32
  0
VERTEX
  5
1CBB
  8
241
  6
CONTINUOUS
 10
16.0017
 20
6.205689999999997
 30
0.0
 70
    32
  0
VERTEX
  5
1CBC
  8
241
  6
CONTINUOUS
 10
16.0016
 20
6.205549999999997
 30
0.0
 70
    32
  0
VERTEX
  5
1CBD
  8
241
  6
CONTINUOUS
 10
16.0016
 20
6.2054199999999993
 30
0.0
 70
    32
  0
VERTEX
  5
1CBE
  8
241
  6
CONTINUOUS
 10
16.0015
 20
6.2052899999999971
 30
0.0
 70
    32
  0
VERTEX
  5
1CBF
  8
241
  6
CONTINUOUS
 10
16.0015
 20
6.2051600000000002
 30
0.0
 70
    32
  0
VERTEX
  5
1CC0
  8
241
  6
CONTINUOUS
 10
16.0015
 20
6.2050199999999993
 30
0.0
 70
    32
  0
VERTEX
  5
1CC1
  8
241
  6
CONTINUOUS
 10
16.0014
 20
6.204889999999998
 30
0.0
 70
    32
  0
VERTEX
  5
1CC2
  8
241
  6
CONTINUOUS
 10
16.0014
 20
6.2047600000000003
 30
0.0
 70
    32
  0
VERTEX
  5
1CC3
  8
241
  6
CONTINUOUS
 10
16.001300000000001
 20
6.2046299999999981
 30
0.0
 70
    32
  0
VERTEX
  5
1CC4
  8
241
  6
CONTINUOUS
 10
16.001300000000001
 20
6.2045000000000003
 30
0.0
 70
    32
  0
VERTEX
  5
1CC5
  8
241
  6
CONTINUOUS
 10
16.001300000000001
 20
6.2043600000000003
 30
0.0
 70
    32
  0
VERTEX
  5
1CC6
  8
241
  6
CONTINUOUS
 10
16.001200000000001
 20
6.204229999999999
 30
0.0
 70
    32
  0
VERTEX
  5
1CC7
  8
241
  6
CONTINUOUS
 10
16.001200000000001
 20
6.2041000000000004
 30
0.0
 70
    32
  0
VERTEX
  5
1CC8
  8
241
  6
CONTINUOUS
 10
16.001200000000001
 20
6.2039699999999991
 30
0.0
 70
    32
  0
VERTEX
  5
1CC9
  8
241
  6
CONTINUOUS
 10
16.001100000000001
 20
6.2038399999999987
 30
0.0
 70
    32
  0
VERTEX
  5
1CCA
  8
241
  6
CONTINUOUS
 10
16.001100000000001
 20
6.2037000000000004
 30
0.0
 70
    32
  0
VERTEX
  5
1CCB
  8
241
  6
CONTINUOUS
 10
16.001000000000001
 20
6.20357
 30
0.0
 70
    32
  0
VERTEX
  5
1CCC
  8
241
  6
CONTINUOUS
 10
16.001000000000001
 20
6.2034399999999987
 30
0.0
 70
    32
  0
VERTEX
  5
1CCD
  8
241
  6
CONTINUOUS
 10
16.001000000000001
 20
6.2033100000000001
 30
0.0
 70
    32
  0
VERTEX
  5
1CCE
  8
241
  6
CONTINUOUS
 10
16.000900000000001
 20
6.203179999999997
 30
0.0
 70
    32
  0
VERTEX
  5
1CCF
  8
241
  6
CONTINUOUS
 10
16.000900000000001
 20
6.203039999999997
 30
0.0
 70
    32
  0
VERTEX
  5
1CD0
  8
241
  6
CONTINUOUS
 10
16.000800000000002
 20
6.2029100000000001
 30
0.0
 70
    32
  0
VERTEX
  5
1CD1
  8
241
  6
CONTINUOUS
 10
16.000800000000002
 20
6.2027799999999971
 30
0.0
 70
    32
  0
VERTEX
  5
1CD2
  8
241
  6
CONTINUOUS
 10
16.000800000000002
 20
6.2026500000000002
 30
0.0
 70
    32
  0
VERTEX
  5
1CD3
  8
241
  6
CONTINUOUS
 10
16.000699999999998
 20
6.202519999999998
 30
0.0
 70
    32
  0
VERTEX
  5
1CD4
  8
241
  6
CONTINUOUS
 10
16.000699999999998
 20
6.2023900000000003
 30
0.0
 70
    32
  0
VERTEX
  5
1CD5
  8
241
  6
CONTINUOUS
 10
16.000699999999998
 20
6.2022500000000003
 30
0.0
 70
    32
  0
VERTEX
  5
1CD6
  8
241
  6
CONTINUOUS
 10
16.000599999999999
 20
6.2021199999999981
 30
0.0
 70
    32
  0
VERTEX
  5
1CD7
  8
241
  6
CONTINUOUS
 10
16.000599999999999
 20
6.2019900000000003
 30
0.0
 70
    32
  0
VERTEX
  5
1CD8
  8
241
  6
CONTINUOUS
 10
16.000499999999999
 20
6.201859999999999
 30
0.0
 70
    32
  0
VERTEX
  5
1CD9
  8
241
  6
CONTINUOUS
 10
16.000499999999999
 20
6.2017300000000004
 30
0.0
 70
    32
  0
VERTEX
  5
1CDA
  8
241
  6
CONTINUOUS
 10
16.000499999999999
 20
6.2015900000000004
 30
0.0
 70
    32
  0
VERTEX
  5
1CDB
  8
241
  6
CONTINUOUS
 10
16.000399999999999
 20
6.2014599999999991
 30
0.0
 70
    32
  0
VERTEX
  5
1CDC
  8
241
  6
CONTINUOUS
 10
16.000399999999999
 20
6.2013299999999987
 30
0.0
 70
    32
  0
VERTEX
  5
1CDD
  8
241
  6
CONTINUOUS
 10
16.000299999999999
 20
6.2012
 30
0.0
 70
    32
  0
VERTEX
  5
1CDE
  8
241
  6
CONTINUOUS
 10
16.000299999999999
 20
6.2010699999999987
 30
0.0
 70
    32
  0
VERTEX
  5
1CDF
  8
241
  6
CONTINUOUS
 10
16.000299999999999
 20
6.2009299999999987
 30
0.0
 70
    32
  0
VERTEX
  5
1CE0
  8
241
  6
CONTINUOUS
 10
16.0002
 20
6.2008000000000001
 30
0.0
 70
    32
  0
VERTEX
  5
1CE1
  8
241
  6
CONTINUOUS
 10
16.0002
 20
6.200669999999997
 30
0.0
 70
    32
  0
VERTEX
  5
1CE2
  8
241
  6
CONTINUOUS
 10
16.0002
 20
6.2005400000000002
 30
0.0
 70
    32
  0
VERTEX
  5
1CE3
  8
241
  6
CONTINUOUS
 10
16.0001
 20
6.2004099999999971
 30
0.0
 70
    32
  0
VERTEX
  5
1CE4
  8
241
  6
CONTINUOUS
 10
16.0001
 20
6.2002699999999971
 30
0.0
 70
    32
  0
VERTEX
  5
1CE5
  8
241
  6
CONTINUOUS
 10
16.0
 20
6.2001400000000002
 30
0.0
 70
    32
  0
VERTEX
  5
1CE6
  8
241
  6
CONTINUOUS
 10
16.0
 20
6.200009999999998
 30
0.0
 70
    32
  0
VERTEX
  5
1CE7
  8
241
  6
CONTINUOUS
 10
16.0
 20
6.1998800000000003
 30
0.0
 70
    32
  0
VERTEX
  5
1CE8
  8
241
  6
CONTINUOUS
 10
15.9999
 20
6.1997499999999981
 30
0.0
 70
    32
  0
VERTEX
  5
1CE9
  8
241
  6
CONTINUOUS
 10
15.9999
 20
6.1996099999999981
 30
0.0
 70
    32
  0
VERTEX
  5
1CEA
  8
241
  6
CONTINUOUS
 10
15.9998
 20
6.1994800000000003
 30
0.0
 70
    32
  0
VERTEX
  5
1CEB
  8
241
  6
CONTINUOUS
 10
15.9998
 20
6.199349999999999
 30
0.0
 70
    32
  0
VERTEX
  5
1CEC
  8
241
  6
CONTINUOUS
 10
15.9998
 20
6.1992199999999986
 30
0.0
 70
    32
  0
VERTEX
  5
1CED
  8
241
  6
CONTINUOUS
 10
15.999700000000001
 20
6.1990899999999991
 30
0.0
 70
    32
  0
VERTEX
  5
1CEE
  8
241
  6
CONTINUOUS
 10
15.999700000000001
 20
6.1989499999999991
 30
0.0
 70
    32
  0
VERTEX
  5
1CEF
  8
241
  6
CONTINUOUS
 10
15.999700000000001
 20
6.1988199999999987
 30
0.0
 70
    32
  0
VERTEX
  5
1CF0
  8
241
  6
CONTINUOUS
 10
15.999599999999999
 20
6.19869
 30
0.0
 70
    32
  0
VERTEX
  5
1CF1
  8
241
  6
CONTINUOUS
 10
15.999599999999999
 20
6.1985599999999987
 30
0.0
 70
    32
  0
VERTEX
  5
1CF2
  8
241
  6
CONTINUOUS
 10
15.999499999999999
 20
6.1984300000000001
 30
0.0
 70
    32
  0
VERTEX
  5
1CF3
  8
241
  6
CONTINUOUS
 10
15.999499999999999
 20
6.1982900000000001
 30
0.0
 70
    32
  0
VERTEX
  5
1CF4
  8
241
  6
CONTINUOUS
 10
15.999499999999999
 20
6.198159999999997
 30
0.0
 70
    32
  0
VERTEX
  5
1CF5
  8
241
  6
CONTINUOUS
 10
15.9994
 20
6.1980300000000002
 30
0.0
 70
    32
  0
VERTEX
  5
1CF6
  8
241
  6
CONTINUOUS
 10
15.9994
 20
6.1978999999999971
 30
0.0
 70
    32
  0
VERTEX
  5
1CF7
  8
241
  6
CONTINUOUS
 10
15.9993
 20
6.1977699999999993
 30
0.0
 70
    32
  0
VERTEX
  5
1CF8
  8
241
  6
CONTINUOUS
 10
15.9993
 20
6.197639999999998
 30
0.0
 70
    32
  0
VERTEX
  5
1CF9
  8
241
  6
CONTINUOUS
 10
15.9993
 20
6.197499999999998
 30
0.0
 70
    32
  0
VERTEX
  5
1CFA
  8
241
  6
CONTINUOUS
 10
15.9992
 20
6.1973700000000003
 30
0.0
 70
    32
  0
VERTEX
  5
1CFB
  8
241
  6
CONTINUOUS
 10
15.9992
 20
6.1972399999999981
 30
0.0
 70
    32
  0
VERTEX
  5
1CFC
  8
241
  6
CONTINUOUS
 10
15.9992
 20
6.1971099999999986
 30
0.0
 70
    32
  0
VERTEX
  5
1CFD
  8
241
  6
CONTINUOUS
 10
15.9991
 20
6.196979999999999
 30
0.0
 70
    32
  0
VERTEX
  5
1CFE
  8
241
  6
CONTINUOUS
 10
15.9991
 20
6.196839999999999
 30
0.0
 70
    32
  0
VERTEX
  5
1CFF
  8
241
  6
CONTINUOUS
 10
15.999000000000001
 20
6.1967099999999986
 30
0.0
 70
    32
  0
VERTEX
  5
1D00
  8
241
  6
CONTINUOUS
 10
15.999000000000001
 20
6.1965799999999991
 30
0.0
 70
    32
  0
VERTEX
  5
1D01
  8
241
  6
CONTINUOUS
 10
15.999000000000001
 20
6.1964499999999987
 30
0.0
 70
    32
  0
VERTEX
  5
1D02
  8
241
  6
CONTINUOUS
 10
15.998900000000001
 20
6.1963200000000001
 30
0.0
 70
    32
  0
VERTEX
  5
1D03
  8
241
  6
CONTINUOUS
 10
15.998900000000001
 20
6.19618
 30
0.0
 70
    32
  0
VERTEX
  5
1D04
  8
241
  6
CONTINUOUS
 10
15.998799999999999
 20
6.1960499999999987
 30
0.0
 70
    32
  0
VERTEX
  5
1D05
  8
241
  6
CONTINUOUS
 10
15.998799999999999
 20
6.1959200000000001
 30
0.0
 70
    32
  0
VERTEX
  5
1D06
  8
241
  6
CONTINUOUS
 10
15.998799999999999
 20
6.195789999999997
 30
0.0
 70
    32
  0
VERTEX
  5
1D07
  8
241
  6
CONTINUOUS
 10
15.998699999999999
 20
6.1956600000000002
 30
0.0
 70
    32
  0
VERTEX
  5
1D08
  8
241
  6
CONTINUOUS
 10
15.998699999999999
 20
6.1955299999999971
 30
0.0
 70
    32
  0
VERTEX
  5
1D09
  8
241
  6
CONTINUOUS
 10
15.998699999999999
 20
6.1953899999999971
 30
0.0
 70
    32
  0
VERTEX
  5
1D0A
  8
241
  6
CONTINUOUS
 10
15.9986
 20
6.1952600000000002
 30
0.0
 70
    32
  0
VERTEX
  5
1D0B
  8
241
  6
CONTINUOUS
 10
15.9986
 20
6.195129999999998
 30
0.0
 70
    32
  0
VERTEX
  5
1D0C
  8
241
  6
CONTINUOUS
 10
15.9985
 20
6.1950000000000003
 30
0.0
 70
    32
  0
VERTEX
  5
1D0D
  8
241
  6
CONTINUOUS
 10
15.9985
 20
6.1948699999999981
 30
0.0
 70
    32
  0
VERTEX
  5
1D0E
  8
241
  6
CONTINUOUS
 10
15.9985
 20
6.1947299999999981
 30
0.0
 70
    32
  0
VERTEX
  5
1D0F
  8
241
  6
CONTINUOUS
 10
15.9984
 20
6.1946000000000003
 30
0.0
 70
    32
  0
VERTEX
  5
1D10
  8
241
  6
CONTINUOUS
 10
15.9984
 20
6.194469999999999
 30
0.0
 70
    32
  0
VERTEX
  5
1D11
  8
241
  6
CONTINUOUS
 10
15.9983
 20
6.1943400000000004
 30
0.0
 70
    32
  0
VERTEX
  5
1D12
  8
241
  6
CONTINUOUS
 10
15.9983
 20
6.1942099999999991
 30
0.0
 70
    32
  0
VERTEX
  5
1D13
  8
241
  6
CONTINUOUS
 10
15.9983
 20
6.1940799999999987
 30
0.0
 70
    32
  0
VERTEX
  5
1D14
  8
241
  6
CONTINUOUS
 10
15.998200000000001
 20
6.1939399999999987
 30
0.0
 70
    32
  0
VERTEX
  5
1D15
  8
241
  6
CONTINUOUS
 10
15.998200000000001
 20
6.19381
 30
0.0
 70
    32
  0
VERTEX
  5
1D16
  8
241
  6
CONTINUOUS
 10
15.998100000000001
 20
6.1936799999999987
 30
0.0
 70
    32
  0
VERTEX
  5
1D17
  8
241
  6
CONTINUOUS
 10
15.998100000000001
 20
6.1935500000000001
 30
0.0
 70
    32
  0
VERTEX
  5
1D18
  8
241
  6
CONTINUOUS
 10
15.998100000000001
 20
6.193419999999997
 30
0.0
 70
    32
  0
VERTEX
  5
1D19
  8
241
  6
CONTINUOUS
 10
15.997999999999999
 20
6.193279999999997
 30
0.0
 70
    32
  0
VERTEX
  5
1D1A
  8
241
  6
CONTINUOUS
 10
15.997999999999999
 20
6.1931500000000002
 30
0.0
 70
    32
  0
VERTEX
  5
1D1B
  8
241
  6
CONTINUOUS
 10
15.997999999999999
 20
6.1930199999999971
 30
0.0
 70
    32
  0
VERTEX
  5
1D1C
  8
241
  6
CONTINUOUS
 10
15.9979
 20
6.1928900000000002
 30
0.0
 70
    32
  0
VERTEX
  5
1D1D
  8
241
  6
CONTINUOUS
 10
15.9979
 20
6.192759999999998
 30
0.0
 70
    32
  0
VERTEX
  5
1D1E
  8
241
  6
CONTINUOUS
 10
15.9978
 20
6.1926300000000003
 30
0.0
 70
    32
  0
VERTEX
  5
1D1F
  8
241
  6
CONTINUOUS
 10
15.9978
 20
6.1924900000000003
 30
0.0
 70
    32
  0
VERTEX
  5
1D20
  8
241
  6
CONTINUOUS
 10
15.9978
 20
6.1923599999999981
 30
0.0
 70
    32
  0
VERTEX
  5
1D21
  8
241
  6
CONTINUOUS
 10
15.9977
 20
6.1922300000000003
 30
0.0
 70
    32
  0
VERTEX
  5
1D22
  8
241
  6
CONTINUOUS
 10
15.9977
 20
6.192099999999999
 30
0.0
 70
    32
  0
VERTEX
  5
1D23
  8
241
  6
CONTINUOUS
 10
15.9976
 20
6.1919699999999986
 30
0.0
 70
    32
  0
VERTEX
  5
1D24
  8
241
  6
CONTINUOUS
 10
15.9976
 20
6.1918300000000004
 30
0.0
 70
    32
  0
VERTEX
  5
1D25
  8
241
  6
CONTINUOUS
 10
15.9976
 20
6.1916999999999991
 30
0.0
 70
    32
  0
VERTEX
  5
1D26
  8
241
  6
CONTINUOUS
 10
15.9975
 20
6.1915699999999987
 30
0.0
 70
    32
  0
VERTEX
  5
1D27
  8
241
  6
CONTINUOUS
 10
15.9975
 20
6.1914400000000001
 30
0.0
 70
    32
  0
VERTEX
  5
1D28
  8
241
  6
CONTINUOUS
 10
15.997400000000001
 20
6.191309999999997
 30
0.0
 70
    32
  0
VERTEX
  5
1D29
  8
241
  6
CONTINUOUS
 10
15.997400000000001
 20
6.1911800000000001
 30
0.0
 70
    32
  0
VERTEX
  5
1D2A
  8
241
  6
CONTINUOUS
 10
15.997400000000001
 20
6.1910400000000001
 30
0.0
 70
    32
  0
VERTEX
  5
1D2B
  8
241
  6
CONTINUOUS
 10
15.997299999999999
 20
6.190909999999997
 30
0.0
 70
    32
  0
VERTEX
  5
1D2C
  8
241
  6
CONTINUOUS
 10
15.997299999999999
 20
6.1907800000000002
 30
0.0
 70
    32
  0
VERTEX
  5
1D2D
  8
241
  6
CONTINUOUS
 10
15.997299999999999
 20
6.1906499999999971
 30
0.0
 70
    32
  0
VERTEX
  5
1D2E
  8
241
  6
CONTINUOUS
 10
15.997199999999999
 20
6.1905200000000002
 30
0.0
 70
    32
  0
VERTEX
  5
1D2F
  8
241
  6
CONTINUOUS
 10
15.997199999999999
 20
6.1903800000000002
 30
0.0
 70
    32
  0
VERTEX
  5
1D30
  8
241
  6
CONTINUOUS
 10
15.9971
 20
6.190249999999998
 30
0.0
 70
    32
  0
VERTEX
  5
1D31
  8
241
  6
CONTINUOUS
 10
15.9971
 20
6.1901200000000003
 30
0.0
 70
    32
  0
VERTEX
  5
1D32
  8
241
  6
CONTINUOUS
 10
15.9971
 20
6.1899899999999981
 30
0.0
 70
    32
  0
VERTEX
  5
1D33
  8
241
  6
CONTINUOUS
 10
15.997
 20
6.1898599999999986
 30
0.0
 70
    32
  0
VERTEX
  5
1D34
  8
241
  6
CONTINUOUS
 10
15.997
 20
6.1897299999999991
 30
0.0
 70
    32
  0
VERTEX
  5
1D35
  8
241
  6
CONTINUOUS
 10
15.9969
 20
6.189589999999999
 30
0.0
 70
    32
  0
VERTEX
  5
1D36
  8
241
  6
CONTINUOUS
 10
15.9969
 20
6.1894599999999986
 30
0.0
 70
    32
  0
VERTEX
  5
1D37
  8
241
  6
CONTINUOUS
 10
15.9969
 20
6.1893299999999991
 30
0.0
 70
    32
  0
SEQEND
  5
1D38
  8
241
  6
CONTINUOUS
  0
LINE
  5
1D39
  8
241
  6
CONTINUOUS
 10
12.89289351552725
 20
4.981042479288134
 30
0.0
 11
14.30710731074214
 21
4.981042479288134
 31
0.0
  0
POLYLINE
  5
1D3A
  8
241
  6
CONTINUOUS
 66
     1
 10
0.0
 20
0.0
 30
0.0
 70
     8
  0
VERTEX
  5
1D3B
  8
241
  6
CONTINUOUS
 10
11.203099999999999
 20
6.1893299999999991
 30
0.0
 70
    32
  0
VERTEX
  5
1D3C
  8
241
  6
CONTINUOUS
 10
11.203099999999999
 20
6.1894599999999986
 30
0.0
 70
    32
  0
VERTEX
  5
1D3D
  8
241
  6
CONTINUOUS
 10
11.203099999999999
 20
6.189589999999999
 30
0.0
 70
    32
  0
VERTEX
  5
1D3E
  8
241
  6
CONTINUOUS
 10
11.202999999999999
 20
6.1897299999999991
 30
0.0
 70
    32
  0
VERTEX
  5
1D3F
  8
241
  6
CONTINUOUS
 10
11.202999999999999
 20
6.1898599999999986
 30
0.0
 70
    32
  0
VERTEX
  5
1D40
  8
241
  6
CONTINUOUS
 10
11.2029
 20
6.1899899999999981
 30
0.0
 70
    32
  0
VERTEX
  5
1D41
  8
241
  6
CONTINUOUS
 10
11.2029
 20
6.1901200000000003
 30
0.0
 70
    32
  0
VERTEX
  5
1D42
  8
241
  6
CONTINUOUS
 10
11.2029
 20
6.190249999999998
 30
0.0
 70
    32
  0
VERTEX
  5
1D43
  8
241
  6
CONTINUOUS
 10
11.2028
 20
6.1903899999999981
 30
0.0
 70
    32
  0
VERTEX
  5
1D44
  8
241
  6
CONTINUOUS
 10
11.2028
 20
6.1905200000000002
 30
0.0
 70
    32
  0
VERTEX
  5
1D45
  8
241
  6
CONTINUOUS
 10
11.2027
 20
6.1906499999999971
 30
0.0
 70
    32
  0
VERTEX
  5
1D46
  8
241
  6
CONTINUOUS
 10
11.2027
 20
6.1907800000000002
 30
0.0
 70
    32
  0
VERTEX
  5
1D47
  8
241
  6
CONTINUOUS
 10
11.2027
 20
6.190909999999997
 30
0.0
 70
    32
  0
VERTEX
  5
1D48
  8
241
  6
CONTINUOUS
 10
11.2026
 20
6.1910400000000001
 30
0.0
 70
    32
  0
VERTEX
  5
1D49
  8
241
  6
CONTINUOUS
 10
11.2026
 20
6.1911800000000001
 30
0.0
 70
    32
  0
VERTEX
  5
1D4A
  8
241
  6
CONTINUOUS
 10
11.2026
 20
6.191309999999997
 30
0.0
 70
    32
  0
VERTEX
  5
1D4B
  8
241
  6
CONTINUOUS
 10
11.202500000000001
 20
6.1914400000000001
 30
0.0
 70
    32
  0
VERTEX
  5
1D4C
  8
241
  6
CONTINUOUS
 10
11.202500000000001
 20
6.1915699999999987
 30
0.0
 70
    32
  0
VERTEX
  5
1D4D
  8
241
  6
CONTINUOUS
 10
11.202400000000001
 20
6.1916999999999991
 30
0.0
 70
    32
  0
VERTEX
  5
1D4E
  8
241
  6
CONTINUOUS
 10
11.202400000000001
 20
6.19184
 30
0.0
 70
    32
  0
VERTEX
  5
1D4F
  8
241
  6
CONTINUOUS
 10
11.202400000000001
 20
6.1919699999999986
 30
0.0
 70
    32
  0
VERTEX
  5
1D50
  8
241
  6
CONTINUOUS
 10
11.202299999999999
 20
6.192099999999999
 30
0.0
 70
    32
  0
VERTEX
  5
1D51
  8
241
  6
CONTINUOUS
 10
11.202299999999999
 20
6.1922300000000003
 30
0.0
 70
    32
  0
VERTEX
  5
1D52
  8
241
  6
CONTINUOUS
 10
11.202199999999999
 20
6.1923599999999981
 30
0.0
 70
    32
  0
VERTEX
  5
1D53
  8
241
  6
CONTINUOUS
 10
11.202199999999999
 20
6.1924900000000003
 30
0.0
 70
    32
  0
VERTEX
  5
1D54
  8
241
  6
CONTINUOUS
 10
11.202199999999999
 20
6.1926300000000003
 30
0.0
 70
    32
  0
VERTEX
  5
1D55
  8
241
  6
CONTINUOUS
 10
11.2021
 20
6.192759999999998
 30
0.0
 70
    32
  0
VERTEX
  5
1D56
  8
241
  6
CONTINUOUS
 10
11.2021
 20
6.1928900000000002
 30
0.0
 70
    32
  0
VERTEX
  5
1D57
  8
241
  6
CONTINUOUS
 10
11.202
 20
6.1930199999999971
 30
0.0
 70
    32
  0
VERTEX
  5
1D58
  8
241
  6
CONTINUOUS
 10
11.202
 20
6.1931500000000002
 30
0.0
 70
    32
  0
VERTEX
  5
1D59
  8
241
  6
CONTINUOUS
 10
11.202
 20
6.1932900000000002
 30
0.0
 70
    32
  0
VERTEX
  5
1D5A
  8
241
  6
CONTINUOUS
 10
11.2019
 20
6.193419999999997
 30
0.0
 70
    32
  0
VERTEX
  5
1D5B
  8
241
  6
CONTINUOUS
 10
11.2019
 20
6.1935500000000001
 30
0.0
 70
    32
  0
VERTEX
  5
1D5C
  8
241
  6
CONTINUOUS
 10
11.2019
 20
6.1936799999999987
 30
0.0
 70
    32
  0
VERTEX
  5
1D5D
  8
241
  6
CONTINUOUS
 10
11.2018
 20
6.19381
 30
0.0
 70
    32
  0
VERTEX
  5
1D5E
  8
241
  6
CONTINUOUS
 10
11.2018
 20
6.1939399999999987
 30
0.0
 70
    32
  0
VERTEX
  5
1D5F
  8
241
  6
CONTINUOUS
 10
11.201700000000001
 20
6.1940799999999987
 30
0.0
 70
    32
  0
VERTEX
  5
1D60
  8
241
  6
CONTINUOUS
 10
11.201700000000001
 20
6.1942099999999991
 30
0.0
 70
    32
  0
VERTEX
  5
1D61
  8
241
  6
CONTINUOUS
 10
11.201700000000001
 20
6.1943400000000004
 30
0.0
 70
    32
  0
VERTEX
  5
1D62
  8
241
  6
CONTINUOUS
 10
11.201599999999999
 20
6.194469999999999
 30
0.0
 70
    32
  0
VERTEX
  5
1D63
  8
241
  6
CONTINUOUS
 10
11.201599999999999
 20
6.1946000000000003
 30
0.0
 70
    32
  0
VERTEX
  5
1D64
  8
241
  6
CONTINUOUS
 10
11.201499999999999
 20
6.1947400000000004
 30
0.0
 70
    32
  0
VERTEX
  5
1D65
  8
241
  6
CONTINUOUS
 10
11.201499999999999
 20
6.1948699999999981
 30
0.0
 70
    32
  0
VERTEX
  5
1D66
  8
241
  6
CONTINUOUS
 10
11.201499999999999
 20
6.1950000000000003
 30
0.0
 70
    32
  0
VERTEX
  5
1D67
  8
241
  6
CONTINUOUS
 10
11.2014
 20
6.195129999999998
 30
0.0
 70
    32
  0
VERTEX
  5
1D68
  8
241
  6
CONTINUOUS
 10
11.2014
 20
6.1952600000000002
 30
0.0
 70
    32
  0
VERTEX
  5
1D69
  8
241
  6
CONTINUOUS
 10
11.2013
 20
6.1954000000000002
 30
0.0
 70
    32
  0
VERTEX
  5
1D6A
  8
241
  6
CONTINUOUS
 10
11.2013
 20
6.1955299999999971
 30
0.0
 70
    32
  0
VERTEX
  5
1D6B
  8
241
  6
CONTINUOUS
 10
11.2013
 20
6.1956600000000002
 30
0.0
 70
    32
  0
VERTEX
  5
1D6C
  8
241
  6
CONTINUOUS
 10
11.2012
 20
6.195789999999997
 30
0.0
 70
    32
  0
VERTEX
  5
1D6D
  8
241
  6
CONTINUOUS
 10
11.2012
 20
6.1959200000000001
 30
0.0
 70
    32
  0
VERTEX
  5
1D6E
  8
241
  6
CONTINUOUS
 10
11.2012
 20
6.1960499999999987
 30
0.0
 70
    32
  0
VERTEX
  5
1D6F
  8
241
  6
CONTINUOUS
 10
11.2011
 20
6.1961899999999988
 30
0.0
 70
    32
  0
VERTEX
  5
1D70
  8
241
  6
CONTINUOUS
 10
11.2011
 20
6.1963200000000001
 30
0.0
 70
    32
  0
VERTEX
  5
1D71
  8
241
  6
CONTINUOUS
 10
11.201000000000001
 20
6.1964499999999987
 30
0.0
 70
    32
  0
VERTEX
  5
1D72
  8
241
  6
CONTINUOUS
 10
11.201000000000001
 20
6.1965799999999991
 30
0.0
 70
    32
  0
VERTEX
  5
1D73
  8
241
  6
CONTINUOUS
 10
11.201000000000001
 20
6.1967099999999986
 30
0.0
 70
    32
  0
VERTEX
  5
1D74
  8
241
  6
CONTINUOUS
 10
11.200900000000001
 20
6.1968500000000004
 30
0.0
 70
    32
  0
VERTEX
  5
1D75
  8
241
  6
CONTINUOUS
 10
11.200900000000001
 20
6.196979999999999
 30
0.0
 70
    32
  0
VERTEX
  5
1D76
  8
241
  6
CONTINUOUS
 10
11.200799999999999
 20
6.1971099999999986
 30
0.0
 70
    32
  0
VERTEX
  5
1D77
  8
241
  6
CONTINUOUS
 10
11.200799999999999
 20
6.1972399999999981
 30
0.0
 70
    32
  0
VERTEX
  5
1D78
  8
241
  6
CONTINUOUS
 10
11.200799999999999
 20
6.1973700000000003
 30
0.0
 70
    32
  0
VERTEX
  5
1D79
  8
241
  6
CONTINUOUS
 10
11.200699999999999
 20
6.1975100000000003
 30
0.0
 70
    32
  0
VERTEX
  5
1D7A
  8
241
  6
CONTINUOUS
 10
11.200699999999999
 20
6.197639999999998
 30
0.0
 70
    32
  0
VERTEX
  5
1D7B
  8
241
  6
CONTINUOUS
 10
11.200699999999999
 20
6.1977699999999993
 30
0.0
 70
    32
  0
VERTEX
  5
1D7C
  8
241
  6
CONTINUOUS
 10
11.2006
 20
6.1978999999999971
 30
0.0
 70
    32
  0
VERTEX
  5
1D7D
  8
241
  6
CONTINUOUS
 10
11.2006
 20
6.1980300000000002
 30
0.0
 70
    32
  0
VERTEX
  5
1D7E
  8
241
  6
CONTINUOUS
 10
11.2005
 20
6.1981699999999993
 30
0.0
 70
    32
  0
VERTEX
  5
1D7F
  8
241
  6
CONTINUOUS
 10
11.2005
 20
6.198299999999997
 30
0.0
 70
    32
  0
VERTEX
  5
1D80
  8
241
  6
CONTINUOUS
 10
11.2005
 20
6.1984300000000001
 30
0.0
 70
    32
  0
VERTEX
  5
1D81
  8
241
  6
CONTINUOUS
 10
11.2004
 20
6.1985599999999987
 30
0.0
 70
    32
  0
VERTEX
  5
1D82
  8
241
  6
CONTINUOUS
 10
11.2004
 20
6.19869
 30
0.0
 70
    32
  0
VERTEX
  5
1D83
  8
241
  6
CONTINUOUS
 10
11.2003
 20
6.1988199999999987
 30
0.0
 70
    32
  0
VERTEX
  5
1D84
  8
241
  6
CONTINUOUS
 10
11.2003
 20
6.1989599999999987
 30
0.0
 70
    32
  0
VERTEX
  5
1D85
  8
241
  6
CONTINUOUS
 10
11.2003
 20
6.1990899999999991
 30
0.0
 70
    32
  0
VERTEX
  5
1D86
  8
241
  6
CONTINUOUS
 10
11.200200000000001
 20
6.1992199999999986
 30
0.0
 70
    32
  0
VERTEX
  5
1D87
  8
241
  6
CONTINUOUS
 10
11.200200000000001
 20
6.199349999999999
 30
0.0
 70
    32
  0
VERTEX
  5
1D88
  8
241
  6
CONTINUOUS
 10
11.200200000000001
 20
6.1994800000000003
 30
0.0
 70
    32
  0
VERTEX
  5
1D89
  8
241
  6
CONTINUOUS
 10
11.200100000000001
 20
6.1996199999999986
 30
0.0
 70
    32
  0
VERTEX
  5
1D8A
  8
241
  6
CONTINUOUS
 10
11.200100000000001
 20
6.1997499999999981
 30
0.0
 70
    32
  0
VERTEX
  5
1D8B
  8
241
  6
CONTINUOUS
 10
11.199999999999999
 20
6.1998800000000003
 30
0.0
 70
    32
  0
VERTEX
  5
1D8C
  8
241
  6
CONTINUOUS
 10
11.199999999999999
 20
6.200009999999998
 30
0.0
 70
    32
  0
VERTEX
  5
1D8D
  8
241
  6
CONTINUOUS
 10
11.199999999999999
 20
6.2001400000000002
 30
0.0
 70
    32
  0
VERTEX
  5
1D8E
  8
241
  6
CONTINUOUS
 10
11.1999
 20
6.2002800000000002
 30
0.0
 70
    32
  0
VERTEX
  5
1D8F
  8
241
  6
CONTINUOUS
 10
11.1999
 20
6.2004099999999971
 30
0.0
 70
    32
  0
VERTEX
  5
1D90
  8
241
  6
CONTINUOUS
 10
11.1998
 20
6.2005400000000002
 30
0.0
 70
    32
  0
VERTEX
  5
1D91
  8
241
  6
CONTINUOUS
 10
11.1998
 20
6.200669999999997
 30
0.0
 70
    32
  0
VERTEX
  5
1D92
  8
241
  6
CONTINUOUS
 10
11.1998
 20
6.2008000000000001
 30
0.0
 70
    32
  0
VERTEX
  5
1D93
  8
241
  6
CONTINUOUS
 10
11.1997
 20
6.2009400000000001
 30
0.0
 70
    32
  0
VERTEX
  5
1D94
  8
241
  6
CONTINUOUS
 10
11.1997
 20
6.2010699999999987
 30
0.0
 70
    32
  0
VERTEX
  5
1D95
  8
241
  6
CONTINUOUS
 10
11.1997
 20
6.2012
 30
0.0
 70
    32
  0
VERTEX
  5
1D96
  8
241
  6
CONTINUOUS
 10
11.1996
 20
6.2013299999999987
 30
0.0
 70
    32
  0
VERTEX
  5
1D97
  8
241
  6
CONTINUOUS
 10
11.1996
 20
6.2014599999999991
 30
0.0
 70
    32
  0
VERTEX
  5
1D98
  8
241
  6
CONTINUOUS
 10
11.1995
 20
6.2015900000000004
 30
0.0
 70
    32
  0
VERTEX
  5
1D99
  8
241
  6
CONTINUOUS
 10
11.1995
 20
6.2017300000000004
 30
0.0
 70
    32
  0
VERTEX
  5
1D9A
  8
241
  6
CONTINUOUS
 10
11.1995
 20
6.201859999999999
 30
0.0
 70
    32
  0
VERTEX
  5
1D9B
  8
241
  6
CONTINUOUS
 10
11.199400000000001
 20
6.2019900000000003
 30
0.0
 70
    32
  0
VERTEX
  5
1D9C
  8
241
  6
CONTINUOUS
 10
11.199400000000001
 20
6.2021199999999981
 30
0.0
 70
    32
  0
VERTEX
  5
1D9D
  8
241
  6
CONTINUOUS
 10
11.199299999999999
 20
6.2022500000000003
 30
0.0
 70
    32
  0
VERTEX
  5
1D9E
  8
241
  6
CONTINUOUS
 10
11.199299999999999
 20
6.2023900000000003
 30
0.0
 70
    32
  0
VERTEX
  5
1D9F
  8
241
  6
CONTINUOUS
 10
11.199299999999999
 20
6.202519999999998
 30
0.0
 70
    32
  0
VERTEX
  5
1DA0
  8
241
  6
CONTINUOUS
 10
11.199199999999999
 20
6.2026500000000002
 30
0.0
 70
    32
  0
VERTEX
  5
1DA1
  8
241
  6
CONTINUOUS
 10
11.199199999999999
 20
6.2027799999999971
 30
0.0
 70
    32
  0
VERTEX
  5
1DA2
  8
241
  6
CONTINUOUS
 10
11.199199999999999
 20
6.2029100000000001
 30
0.0
 70
    32
  0
VERTEX
  5
1DA3
  8
241
  6
CONTINUOUS
 10
11.1991
 20
6.2030500000000002
 30
0.0
 70
    32
  0
VERTEX
  5
1DA4
  8
241
  6
CONTINUOUS
 10
11.1991
 20
6.203179999999997
 30
0.0
 70
    32
  0
VERTEX
  5
1DA5
  8
241
  6
CONTINUOUS
 10
11.199
 20
6.2033100000000001
 30
0.0
 70
    32
  0
VERTEX
  5
1DA6
  8
241
  6
CONTINUOUS
 10
11.199
 20
6.2034399999999987
 30
0.0
 70
    32
  0
VERTEX
  5
1DA7
  8
241
  6
CONTINUOUS
 10
11.199
 20
6.20357
 30
0.0
 70
    32
  0
VERTEX
  5
1DA8
  8
241
  6
CONTINUOUS
 10
11.1989
 20
6.2037100000000001
 30
0.0
 70
    32
  0
VERTEX
  5
1DA9
  8
241
  6
CONTINUOUS
 10
11.1989
 20
6.2038399999999987
 30
0.0
 70
    32
  0
VERTEX
  5
1DAA
  8
241
  6
CONTINUOUS
 10
11.1988
 20
6.2039699999999991
 30
0.0
 70
    32
  0
VERTEX
  5
1DAB
  8
241
  6
CONTINUOUS
 10
11.1988
 20
6.2041000000000004
 30
0.0
 70
    32
  0
VERTEX
  5
1DAC
  8
241
  6
CONTINUOUS
 10
11.1988
 20
6.204229999999999
 30
0.0
 70
    32
  0
VERTEX
  5
1DAD
  8
241
  6
CONTINUOUS
 10
11.198700000000001
 20
6.2043699999999991
 30
0.0
 70
    32
  0
VERTEX
  5
1DAE
  8
241
  6
CONTINUOUS
 10
11.198700000000001
 20
6.2045000000000003
 30
0.0
 70
    32
  0
VERTEX
  5
1DAF
  8
241
  6
CONTINUOUS
 10
11.198700000000001
 20
6.2046299999999981
 30
0.0
 70
    32
  0
VERTEX
  5
1DB0
  8
241
  6
CONTINUOUS
 10
11.198600000000001
 20
6.2047600000000003
 30
0.0
 70
    32
  0
VERTEX
  5
1DB1
  8
241
  6
CONTINUOUS
 10
11.198600000000001
 20
6.204889999999998
 30
0.0
 70
    32
  0
VERTEX
  5
1DB2
  8
241
  6
CONTINUOUS
 10
11.198499999999999
 20
6.205029999999998
 30
0.0
 70
    32
  0
VERTEX
  5
1DB3
  8
241
  6
CONTINUOUS
 10
11.198499999999999
 20
6.2051600000000002
 30
0.0
 70
    32
  0
VERTEX
  5
1DB4
  8
241
  6
CONTINUOUS
 10
11.198499999999999
 20
6.2052899999999971
 30
0.0
 70
    32
  0
VERTEX
  5
1DB5
  8
241
  6
CONTINUOUS
 10
11.198399999999999
 20
6.2054199999999993
 30
0.0
 70
    32
  0
VERTEX
  5
1DB6
  8
241
  6
CONTINUOUS
 10
11.198399999999999
 20
6.205549999999997
 30
0.0
 70
    32
  0
VERTEX
  5
1DB7
  8
241
  6
CONTINUOUS
 10
11.1983
 20
6.205689999999997
 30
0.0
 70
    32
  0
VERTEX
  5
1DB8
  8
241
  6
CONTINUOUS
 10
11.1983
 20
6.2058200000000001
 30
0.0
 70
    32
  0
VERTEX
  5
1DB9
  8
241
  6
CONTINUOUS
 10
11.1983
 20
6.2059499999999987
 30
0.0
 70
    32
  0
VERTEX
  5
1DBA
  8
241
  6
CONTINUOUS
 10
11.1982
 20
6.20608
 30
0.0
 70
    32
  0
SEQEND
  5
1DBB
  8
241
  6
CONTINUOUS
  0
LINE
  5
1DBC
  8
241
  6
CONTINUOUS
 10
7.2360392659902839
 20
9.98104231469142
 30
0.0
 11
7.2360392659902839
 21
8.9810424793196812
 31
0.0
  0
LINE
  5
1DBD
  8
241
  6
CONTINUOUS
 10
19.075420044828231
 20
12.579721504919521
 30
0.0
 11
14.304107986390621
 21
15.95354906934722
 31
0.0
  0
LINE
  5
1DBE
  8
240
  6
CONTINUOUS
 10
19.500000402331381
 20
11.49101358405278
 30
0.0
 11
19.500000402331381
 21
15.60000006597749
 31
0.0
  0
LINE
  5
1DBF
  8
241
  6
CONTINUOUS
 10
19.075420044828231
 20
12.579721504919521
 30
0.0
 11
19.500000402331381
 21
11.49101358405278
 31
0.0
  0
LINE
  5
1DC0
  8
240
  6
CONTINUOUS
 10
19.500000402331381
 20
11.49101358405278
 30
0.0
 11
19.863536785123902
 21
10.55883486033434
 31
0.0
  0
LINE
  5
1DC1
  8
241
  6
CONTINUOUS
 10
12.39780616015198
 20
15.60134761267693
 30
0.0
 11
7.626494392752674
 21
12.22752136533822
 31
0.0
  0
LINE
  5
1DC2
  8
241
  6
CONTINUOUS
 10
13.00000026822093
 20
15.71544491068817
 30
0.0
 11
13.00000026822093
 21
20.31326764697155
 31
0.0
  0
LINE
  5
1DC3
  8
241
  6
CONTINUOUS
 10
14.20000055804851
 20
15.91864884460216
 30
0.0
 11
14.20000055804851
 21
20.31326764697155
 31
0.0
  0
LINE
  5
1DC4
  8
241
  6
CONTINUOUS
 10
12.39780616015198
 20
15.60134761267693
 30
0.0
 11
14.256690163165359
 21
15.95354906934722
 31
0.0
  0
LINE
  5
1DC5
  8
241
  6
CONTINUOUS
 10
12.39780616015198
 20
15.60134761267693
 30
0.0
 11
12.89366511628034
 21
14.48836862237823
 31
0.0
  0
LINE
  5
1DC6
  8
241
  6
CONTINUOUS
 10
14.256690163165359
 20
15.95354906934722
 30
0.0
 11
14.304107986390621
 21
15.95354906934722
 31
0.0
  0
LINE
  5
1DC7
  8
241
  6
CONTINUOUS
 10
14.256690163165359
 20
15.95354906934722
 30
0.0
 11
12.89366511628034
 21
14.48836862237823
 31
0.0
  0
LINE
  5
1DC8
  8
241
  6
CONTINUOUS
 10
12.89366511628034
 20
14.48836862237823
 30
0.0
 11
12.89289351552727
 21
13.98104165617843
 31
0.0
  0
LINE
  5
1DC9
  8
241
  6
CONTINUOUS
 10
14.30710731074217
 20
13.98104165617843
 30
0.0
 11
14.304107986390621
 21
15.95354906934722
 31
0.0
  0
LINE
  5
1DCA
  8
241
  6
CONTINUOUS
 10
14.30710731074217
 20
13.98104165617843
 30
0.0
 11
12.89289351552727
 21
13.98104165617843
 31
0.0
  0
LINE
  5
1DCB
  8
240
  6
CONTINUOUS
 10
13.00000026822093
 20
20.31326764697155
 30
0.0
 11
14.20000055804851
 21
20.31326764697155
 31
0.0
  0
LINE
  5
1DCC
  8
241
  6
CONTINUOUS
 10
7.600000128150012
 20
12.08352534031172
 30
0.0
 11
7.600000128150012
 21
15.500000082440319
 31
0.0
  0
LINE
  5
1DCD
  8
245
  6
CENTER2
 10
-22.125175507943851
 20
0.0
 30
0.0
 11
22.32319817825962
 21
0.0
 31
0.0
  0
LINE
  5
1DCE
  8
246
  6
PHANTOM2
 10
19.96291621363099
 20
14.278931489586849
 30
0.0
 11
19.53948248973089
 21
13.855498250474881
 31
0.0
  0
LINE
  5
1DCF
  8
246
  6
PHANTOM2
 10
19.96291621363099
 20
14.278931489586849
 30
0.0
 11
19.96291621363099
 21
15.693144819140461
 31
0.0
  0
LINE
  5
1DD0
  8
246
  6
PHANTOM2
 10
19.96291621363099
 20
15.693144819140461
 30
0.0
 11
14.306062080509321
 21
21.350000000000019
 31
0.0
  0
LINE
  5
1DD1
  8
246
  6
PHANTOM2
 10
14.306062080509321
 20
21.350000000000019
 30
0.0
 11
12.891848285294429
 21
21.350000000000019
 31
0.0
  0
LINE
  5
1DD2
  8
246
  6
PHANTOM2
 10
12.891848285294429
 20
21.350000000000019
 30
0.0
 11
7.2349940357574383
 21
15.693144819140461
 31
0.0
  0
LINE
  5
1DD3
  8
246
  6
PHANTOM2
 10
7.2349940357574383
 20
15.693144819140461
 30
0.0
 11
7.2349940357574383
 21
15.500000082440319
 31
0.0
  0
LINE
  5
1DD4
  8
246
  6
PHANTOM2
 10
7.2349940357574383
 20
-15.69314481914043
 30
0.0
 11
7.2349940357574383
 21
-15.500000082440289
 31
0.0
  0
LINE
  5
1DD5
  8
246
  6
PHANTOM2
 10
19.96291621363099
 20
-14.278931489586819
 30
0.0
 11
19.53948248973089
 21
-13.855498250474851
 31
0.0
  0
LINE
  5
1DD6
  8
246
  6
PHANTOM2
 10
19.96291621363099
 20
-14.278931489586819
 30
0.0
 11
19.96291621363099
 21
-15.69314481914043
 31
0.0
  0
LINE
  5
1DD7
  8
246
  6
PHANTOM2
 10
19.96291621363099
 20
-15.69314481914043
 30
0.0
 11
14.306062080509321
 21
-21.349999999999991
 31
0.0
  0
LINE
  5
1DD8
  8
246
  6
PHANTOM2
 10
14.306062080509321
 20
-21.349999999999991
 30
0.0
 11
12.891848285294429
 21
-21.349999999999991
 31
0.0
  0
LINE
  5
1DD9
  8
246
  6
PHANTOM2
 10
12.891848285294429
 20
-21.349999999999991
 30
0.0
 11
7.2349940357574383
 21
-15.69314481914043
 31
0.0
  0
LINE
  5
1DFF
  8
241
  6
CONTINUOUS
 10
0.0
 20
9.0
 30
0.0
 11
0.0
 21
-9.0
 31
0.0
  0
LINE
  5
210C
  8
241
  6
CONTINUOUS
 10
7.6000001281499854
 20
-9.7076465743856488
 30
0.0
 11
12.39780616015196
 21
-13.225468846750861
 31
0.0
  0
LINE
  5
210D
  8
241
  6
CONTINUOUS
 10
12.39780616015196
 20
-13.225468846750861
 30
0.0
 11
13.0000002682209
 21
-13.54277007867614
 31
0.0
  0
LINE
  5
210E
  8
241
  6
CONTINUOUS
 10
19.066099999999999
 20
-10.079000000000001
 30
0.0
 11
14.304107986390591
 21
-13.57767030342117
 31
0.0
  0
LINE
  5
210F
  8
241
  6
CONTINUOUS
 10
19.066099999999999
 20
-10.079000000000001
 30
0.0
 11
19.500000402331349
 21
-9.4011928875959256
 31
0.0
  0
LINE
  5
21B2
  8
240
  6
CONTINUOUS
 10
7.5999999999999988
 20
-15.5
 30
0.0
 11
13.0
 21
-20.313300000000002
 31
0.0
  0
LINE
  5
21B3
  8
240
  6
CONTINUOUS
 10
19.500000402331349
 20
-15.50147983194972
 30
0.0
 11
14.199999999999999
 21
-20.313300000000002
 31
0.0
  0
LINE
  5
21B4
  8
240
  6
CONTINUOUS
 10
19.5
 20
15.6
 30
0.0
 11
14.20000055804851
 21
20.31326764697155
 31
0.0
  0
LINE
  5
21B5
  8
240
  6
CONTINUOUS
 10
13.00000026822093
 20
20.31326764697155
 30
0.0
 11
7.600000128150012
 21
15.5
 31
0.0
  0
LINE
  5
21B6
  8
240
  6
CONTINUOUS
 10
7.600000128150012
 20
15.5
 30
0.0
 11
0.0
 21
15.500000082440319
 31
0.0
  0
LINE
  5
21B7
  8
240
  6
CONTINUOUS
 10
7.5999999999999979
 20
-15.5
 30
0.0
 11
0.0
 21
-15.5
 31
0.0
  0
LINE
  5
2322
  8
250
  6
CONTINUOUS
 10
-18.638872388958561
 20
-20.600108292223759
 30
0.0
 11
-31.494295332878739
 21
-20.600108292223759
 31
0.0
1001
ITEMNAME
1000
LNSP2
  0
LINE
  5
2323
  8
240
  6
CONTINUOUS
 10
-20.0
 20
9.0
 30
0.0
 11
-8.5647005400000005
 21
9.0
 31
0.0
  0
LINE
  5
2324
  8
240
  6
CONTINUOUS
 10
-8.5647005400000005
 20
-9.0
 30
0.0
 11
-20.0
 21
-9.0
 31
0.0
  0
LINE
  5
2325
  8
240
  6
CONTINUOUS
 10
-20.0
 20
-9.0
 30
0.0
 11
-20.0
 21
9.0
 31
0.0
  0
LINE
  5
2326
  8
241
  6
CONTINUOUS
 10
-8.5647005400000005
 20
-9.0
 30
0.0
 11
-1.4352994599999991
 21
-9.0
 31
0.0
  0
LINE
  5
2327
  8
240
  6
CONTINUOUS
 10
-7.4100000000000001
 20
-11.0
 30
0.0
 11
-2.5899999999999981
 21
-11.0
 31
0.0
  0
LINE
  5
2328
  8
240
  6
CONTINUOUS
 10
-8.5647005400000005
 20
-9.0
 30
0.0
 11
-7.4100000000000001
 21
-11.0
 31
0.0
  0
LINE
  5
2329
  8
240
  6
CONTINUOUS
 10
-1.4352994599999991
 20
-9.0
 30
0.0
 11
-2.5899999999999981
 21
-11.0
 31
0.0
  0
LINE
  5
232A
  8
240
  6
CONTINUOUS
 10
0.0
 20
-9.0
 30
0.0
 11
-1.4352994599999991
 21
-9.0
 31
0.0
  0
CIRCLE
  5
232B
  8
241
  6
CONTINUOUS
 10
-8.0
 20
0.0
 30
0.0
 40
2.25
  0
CIRCLE
  5
232C
  8
241
  6
CONTINUOUS
 10
-8.0
 20
0.0
 30
0.0
 40
3.0
  0
LINE
  5
232D
  8
245
  6
CENTER2
 10
-8.0
 20
4.0
 30
0.0
 11
-8.0
 21
-4.0
 31
0.0
  0
LINE
  5
232E
  8
240
  6
CONTINUOUS
 10
-7.4100000000000001
 20
11.0
 30
0.0
 11
-2.5899999999999981
 21
11.0
 31
0.0
  0
LINE
  5
232F
  8
241
  6
CONTINUOUS
 10
-8.5647005400000005
 20
9.0
 30
0.0
 11
-1.4352994599999991
 21
9.0
 31
0.0
  0
LINE
  5
2330
  8
240
  6
CONTINUOUS
 10
-8.5647005400000005
 20
9.0
 30
0.0
 11
-7.4100000000000001
 21
11.0
 31
0.0
  0
LINE
  5
2331
  8
240
  6
CONTINUOUS
 10
-1.4352994599999991
 20
9.0
 30
0.0
 11
-2.5899999999999981
 21
11.0
 31
0.0
  0
LINE
  5
2332
  8
240
  6
CONTINUOUS
 10
0.0
 20
9.0
 30
0.0
 11
-1.4352994599999991
 21
9.0
 31
0.0
  0
TEXT
  5
2333
  8
250
  6
CONTINUOUS
 10
-29.09429533287874
 20
-19.600108292223759
 30
0.0
 40
2.799999999999998
  1
CK3
  7
YOKO
1001
ITEMNAME
1000
LNSP3
1001
ACAD
1000
MTEXTBEGIN
1070
    73
1070
     1
1070
    44
1040
1.0
1070
    74
1070
     0
1000
MTEXTEND
1000
MTEXTBEGIN
1070
    73
1070
     1
1070
    44
1040
1.0
1070
    74
1070
     0
1000
MTEXTEND
  0
LINE
  5
2334
  8
250
  6
CONTINUOUS
 10
-13.0565467317249
 20
-10.93123664944342
 30
0.0
 11
-18.638872388958561
 21
-20.600108292223759
 31
0.0
1001
ACAD
1000
DSTYLE
1002
{
1070
     6
1000
OPEN
1070
   343
1005
0
1002
}
  0
LINE
  5
2335
  8
250
  6
CONTINUOUS
 10
-13.3784195130696
 20
-10.745403312105941
 30
0.0
 11
-11.941546730000001
 21
-9.0
 31
0.0
  0
LINE
  5
2336
  8
250
  6
CONTINUOUS
 10
-12.734673950380211
 20
-11.11706998678091
 30
0.0
 11
-11.941546730000001
 21
-9.0
 31
0.0
  0
LINE
  5
2337
  8
250
  6
CONTINUOUS
 10
-11.941546730000001
 20
-9.0
 30
0.0
 11
-13.0565467317249
 21
-10.93123664944342
 31
0.0
  0
LINE
  5
2338
  8
247
  6
CONTINUOUS
 10
4.0000000000011351
 20
-10.50000000000003
 30
0.0
 11
4.0000000000011804
 21
-6.7923076925360482
 31
0.0
  0
LINE
  5
2339
  8
247
  6
CONTINUOUS
 10
2.0000000000011791
 20
-9.8639147999903791
 30
0.0
 11
3.6799999999339841
 21
-10.34564704804591
 31
0.0
  0
LINE
  5
233A
  8
247
  6
CONTINUOUS
 10
2.7969230768923792
 20
-9.3601211228152508
 30
0.0
 11
2.7969230768923792
 21
-10.092428815093649
 31
0.0
  0
ARC
  5
233B
  8
247
  6
CONTINUOUS
 10
2.3077752538364602
 20
-9.1698107215574662
 30
0.0
 40
0.3101372647461394
 50
72.997889675292001
 51
172.92416621851231
  0
ARC
  5
233C
  8
247
  6
CONTINUOUS
 10
2.2441785048235912
 20
-9.4059820454433112
 30
0.0
 40
0.5546438372287014
 50
4.7429368522013924
 51
73.849226273266353
1001
GENIUS_GENOBJ-N-FIL_13
1002
{
1000
OWNER
1000
GEN
1002
}
1001
GENIUS_GENODEF_13
1002
{
1000
HIER
1070
     0
1002
}
1002
{
1000
MANEDIT
1070
     0
1002
}
1002
{
1000
NOSEL
1070
     0
1002
}
1002
{
1000
BEHIND
1070
     0
1002
}
1002
{
1000
OTHER
1070
     0
1002
}
1002
{
1000
REACTOR
1002
}
  0
LINE
  5
233D
  8
247
  6
CONTINUOUS
 10
3.6799999999339841
 20
-9.6133393557675113
 30
0.0
 11
3.6799999999339841
 21
-10.34564704804591
 31
0.0
  0
LINE
  5
233E
  8
247
  6
CONTINUOUS
 10
2.0000000000011791
 20
-9.8639147999903862
 30
0.0
 11
2.0000000000011791
 21
-9.131607107711984
 31
0.0
  0
ARC
  5
233F
  8
247
  6
CONTINUOUS
 10
3.1099335702154791
 20
-9.4026451810134901
 30
0.0
 40
0.3158858408603088
 50
65.990941652528889
 51
172.26344345906949
  0
ARC
  5
2340
  8
247
  6
CONTINUOUS
 10
3.1129602618672361
 20
-9.6699572883415552
 30
0.0
 40
0.5698593289889349
 50
5.701985164258037
 51
77.277338436822262
1001
GENIUS_GENOBJ-N-FIL_13
1002
{
1000
OWNER
1000
GEN
1002
}
1001
GENIUS_GENODEF_13
1002
{
1000
HIER
1070
     0
1002
}
1002
{
1000
MANEDIT
1070
     0
1002
}
1002
{
1000
NOSEL
1070
     0
1002
}
1002
{
1000
BEHIND
1070
     0
1002
}
1002
{
1000
OTHER
1070
     0
1002
}
1002
{
1000
REACTOR
1002
}
  0
LINE
  5
2341
  8
247
  6
CONTINUOUS
 10
3.6799999999339841
 20
-8.847185509650723
 30
0.0
 11
2.0000000000011791
 21
-8.3654532615951975
 31
0.0
  0
LINE
  5
2342
  8
247
  6
CONTINUOUS
 10
2.0000000000011791
 20
-7.168530184726392
 30
0.0
 11
2.0000000000011791
 21
-7.4853426914428889
 31
0.0
  0
LINE
  5
2343
  8
247
  6
CONTINUOUS
 10
3.6799999999339841
 20
-7.9869917231551932
 30
0.0
 11
3.6799999999339841
 21
-7.6423763385535981
 31
0.0
  0
ARC
  5
2344
  8
247
  6
CONTINUOUS
 10
3.1666396760678701
 20
-7.0054532616559921
 30
0.0
 40
1.261484046111637
 50
202.35948814152729
 51
254.993248542846
  0
ARC
  5
2345
  8
247
  6
CONTINUOUS
 10
2.4526550868316912
 20
-7.378009092906602
 30
0.0
 40
0.4987765437607558
 50
94.994589319075374
 51
155.16632895730359
1001
GENIUS_GENOBJ-N-FIL_13
1002
{
1000
OWNER
1000
GEN
1002
}
1001
GENIUS_GENODEF_13
1002
{
1000
HIER
1070
     0
1002
}
1002
{
1000
MANEDIT
1070
     0
1002
}
1002
{
1000
NOSEL
1070
     0
1002
}
1002
{
1000
BEHIND
1070
     0
1002
}
1002
{
1000
OTHER
1070
     0
1002
}
1002
{
1000
REACTOR
1002
}
  0
ARC
  5
2346
  8
247
  6
CONTINUOUS
 10
2.929681697576731
 20
-7.8553471608262431
 30
0.0
 40
0.7799577719285588
 50
15.846096555779971
 51
82.325137004169136
  0
ARC
  5
2347
  8
247
  6
CONTINUOUS
 10
3.097176321578035
 20
-7.5281693110177983
 30
0.0
 40
0.7417556510953607
 50
249.71360167049701
 51
321.78874565640962
1001
GENIUS_GENOBJ-N-FIL_13
1002
{
1000
OWNER
1000
GEN
1002
}
1001
GENIUS_GENODEF_13
1002
{
1000
HIER
1070
     0
1002
}
1002
{
1000
MANEDIT
1070
     0
1002
}
1002
{
1000
NOSEL
1070
     0
1002
}
1002
{
1000
BEHIND
1070
     0
1002
}
1002
{
1000
OTHER
1070
     0
1002
}
1002
{
1000
REACTOR
1002
}
  0
LINE
  5
2348
  8
247
  6
CONTINUOUS
 10
3.03384615380596
 20
-7.4700686462527921
 30
0.0
 11
3.03384615380596
 21
-7.082376338575993
 31
0.0
  0
ARC
  5
2349
  8
247
  6
CONTINUOUS
 10
3.0000000000011791
 20
-10.50000000000003
 30
0.0
 40
1.0
 50
180.0
 51
0.0
  0
LINE
  5
234A
  8
247
  6
CONTINUOUS
 10
2.0000000000011791
 20
-10.50000000000003
 30
0.0
 11
2.0000000000011791
 21
-10.14307692313122
 31
0.0
  0
ARC
  5
234B
  8
247
  6
CONTINUOUS
 10
3.0000000000011791
 20
-6.7923076925360331
 30
0.0
 40
1.0
 50
0.0
 51
180.0
  0
ARC
  5
2351
  8
241
  6
CONTINUOUS
 10
21.94109368461805
 20
6.9350558583875177
 30
0.0
 40
14.846706257882159
 50
172.0790078003557
 51
232.97040894158229
  0
ARC
  5
2359
  8
241
  6
CONTINUOUS
 10
9.1826327025827883
 20
4.1914595115832194
 30
0.0
 40
10.399323828950671
 50
298.84688454188591
 51
352.80200681675979
  0
LINE
  5
235A
  8
241
  6
CONTINUOUS
 10
7.2360392659902573
 20
-12.102362676690319
 30
0.0
 11
7.5999999999999988
 21
-15.5
 31
0.0
  0
ARC
  5
235C
  8
241
  6
CONTINUOUS
 10
13.654977046810449
 20
8.6606469432374222
 30
0.0
 40
6.4269289348476493
 50
177.14250392786451
 51
335.43058873229739
  0
VIEWPORT
  5
22
 67
     1
  8
0
 10
261.51769911504419
 20
148.5
 30
0.0
 40
523.0353982300885
 41
297.0
 68
     1
 69
     1
1001
ACAD
1000
MVIEW
1002
{
1070
    16
1010
0.0
1020
0.0
1030
0.0
1010
0.0
1020
0.0
1030
1.0
1040
0.0
1040
297.0
1040
261.51769911504419
1040
148.5
1040
50.0
1040
0.0
1040
0.0
1070
     0
1070
   100
1070
     1
1070
     1
1070
     0
1070
     0
1070
     0
1070
     0
1040
0.0
1040
0.0
1040
0.0
1040
1.0
1040
1.0
1040
10.0
1040
10.0
1070
     0
1002
{
1002
}
1002
}
1001
GENIUS_GENODEF_13
1002
{
1000
HIER
1070
     0
1002
}
1002
{
1000
MANEDIT
1070
     0
1002
}
1002
{
1000
NOSEL
1070
     0
1002
}
1002
{
1000
BEHIND
1070
     0
1002
}
1002
{
1000
OTHER
1070
     0
1002
}
1002
{
1000
REACTOR
1002
}
1001
GENIUS_GENOBJ-N-SDF_13
1002
{
1000
OWNER
1000
GEN
1002
}
1001
GENIUS_GENSCREG_15
1000
PF
1040
1.0
1000
DF
1040
1.0
1000
MIN
1011
0.0
1021
0.0
1031
0.0
1021
0.0
1031
0.0
1000
MAX
1011
523.0353982300885
1021
0.0
1031
0.0
1021
297.0
1031
0.0
1000
FLAGS
1070
     4
  0
ENDSEC
  0
EOF
