  0
SECTION
  2
HEADER
  9
$ACADVER
  1
AC1009
  9
$INSBASE
 10
0.0
 20
0.0
 30
0.0
  9
$EXTMIN
 10
-26.5684995000000015
 20
-13.9580029000000003
 30
0.0
  9
$EXTMAX
 10
45.3380186899999984
 20
43.5000000000000071
 30
0.0
  9
$LIMMIN
 10
0.0
 20
0.0
  9
$LIMMAX
 10
420.0
 20
297.0
  9
$ORTHOMODE
 70
     1
  9
$REGENMODE
 70
     1
  9
$FILLMODE
 70
     1
  9
$QTEXTMODE
 70
     0
  9
$MIRRTEXT
 70
     1
  9
$DRAGMODE
 70
     2
  9
$LTSCALE
 40
10.0
  9
$OSMODE
 70
   807
  9
$ATTMODE
 70
     1
  9
$TEXTSIZE
 40
3.0
  9
$TRACEWID
 40
1.0
  9
$TEXTSTYLE
  7
YOKO
  9
$CLAYER
  8
240
  9
$CELTYPE
  6
BYLAYER
  9
$CECOLOR
 62
   256
  9
$DIMSCALE
 40
1.0
  9
$DIMASZ
 40
2.2299999999999991
  9
$DIMEXO
 40
0.5
  9
$DIMDLI
 40
2.5
  9
$DIMRND
 40
0.0
  9
$DIMDLE
 40
0.0
  9
$DIMEXE
 40
1.0
  9
$DIMTP
 40
0.0
  9
$DIMTM
 40
0.0
  9
$DIMTXT
 40
2.799999999999998
  9
$DIMCEN
 40
0.0
  9
$DIMTSZ
 40
0.0
  9
$DIMTOL
 70
     0
  9
$DIMLIM
 70
     0
  9
$DIMTIH
 70
     0
  9
$DIMTOH
 70
     0
  9
$DIMSE1
 70
     0
  9
$DIMSE2
 70
     0
  9
$DIMTAD
 70
     3
  9
$DIMZIN
 70
     8
  9
$DIMBLK
  1

  9
$DIMASO
 70
     1
  9
$DIMSHO
 70
     1
  9
$DIMPOST
  1

  9
$DIMAPOST
  1

  9
$DIMALT
 70
     0
  9
$DIMALTD
 70
     2
  9
$DIMALTF
 40
25.3999999999999986
  9
$DIMLFAC
 40
1.0
  9
$DIMTOFL
 70
     1
  9
$DIMTVP
 40
0.0
  9
$DIMTIX
 70
     1
  9
$DIMSOXD
 70
     0
  9
$DIMSAH
 70
     1
  9
$DIMBLK1
  1
OPEN
  9
$DIMBLK2
  1
OPEN
  9
$DIMSTYLE
  2
BIGT
  9
$DIMCLRD
 70
   256
  9
$DIMCLRE
 70
   256
  9
$DIMCLRT
 70
    40
  9
$DIMTFAC
 40
1.0
  9
$DIMGAP
 40
1.0
  9
$LUNITS
 70
     2
  9
$LUPREC
 70
     2
  9
$SKETCHINC
 40
1.0
  9
$FILLETRAD
 40
0.0
  9
$AUNITS
 70
     0
  9
$AUPREC
 70
     3
  9
$MENU
  1
.
  9
$ELEVATION
 40
0.0
  9
$PELEVATION
 40
0.0
  9
$THICKNESS
 40
0.0
  9
$LIMCHECK
 70
     0
  9
$BLIPMODE
 70
     0
  9
$CHAMFERA
 40
10.0
  9
$CHAMFERB
 40
10.0
  9
$SKPOLY
 70
     0
  9
$TDCREATE
 40
2455447.6234606481157243
  9
$TDUPDATE
 40
2458295.6390277780592442
  9
$TDINDWG
 40
0.0195017593
  9
$TDUSRTIMER
 40
0.0195017477
  9
$USRTIMER
 70
     1
  9
$ANGBASE
 50
0.0
  9
$ANGDIR
 70
     0
  9
$PDMODE
 70
     1
  9
$PDSIZE
 40
-5.0
  9
$PLINEWID
 40
0.0
  9
$COORDS
 70
     1
  9
$SPLFRAME
 70
     0
  9
$SPLINETYPE
 70
     6
  9
$SPLINESEGS
 70
     8
  9
$ATTDIA
 70
     1
  9
$ATTREQ
 70
     1
  9
$HANDLING
 70
     1
  9
$HANDSEED
  5
E79
  9
$SURFTAB1
 70
     6
  9
$SURFTAB2
 70
     6
  9
$SURFTYPE
 70
     6
  9
$SURFU
 70
     6
  9
$SURFV
 70
     6
  9
$UCSNAME
  2

  9
$UCSORG
 10
0.0
 20
0.0
 30
0.0
  9
$UCSXDIR
 10
1.0
 20
0.0
 30
0.0
  9
$UCSYDIR
 10
0.0
 20
1.0
 30
0.0
  9
$PUCSNAME
  2

  9
$PUCSORG
 10
0.0
 20
0.0
 30
0.0
  9
$PUCSXDIR
 10
1.0
 20
0.0
 30
0.0
  9
$PUCSYDIR
 10
0.0
 20
1.0
 30
0.0
  9
$USERI1
 70
     1
  9
$USERI2
 70
     0
  9
$USERI3
 70
     0
  9
$USERI4
 70
     0
  9
$USERI5
 70
     0
  9
$USERR1
 40
0.0
  9
$USERR2
 40
0.0
  9
$USERR3
 40
0.0
  9
$USERR4
 40
0.0
  9
$USERR5
 40
0.0
  9
$WORLDVIEW
 70
     1
  9
$SHADEDGE
 70
     3
  9
$SHADEDIF
 70
    70
  9
$TILEMODE
 70
     1
  9
$MAXACTVP
 70
    16
  9
$PLIMCHECK
 70
     0
  9
$PEXTMIN
 10
1.0000000000000000E+20
 20
1.0000000000000000E+20
 30
1.0000000000000000E+20
  9
$PEXTMAX
 10
-1.0000000000000000E+20
 20
-1.0000000000000000E+20
 30
-1.0000000000000000E+20
  9
$PLIMMIN
 10
0.0
 20
0.0
  9
$PLIMMAX
 10
420.0
 20
297.0
  9
$UNITMODE
 70
     0
  9
$VISRETAIN
 70
     0
  9
$PLINEGEN
 70
     0
  9
$PSLTSCALE
 70
     1
  0
ENDSEC
  0
SECTION
  2
TABLES
  0
TABLE
  2
VPORT
 70
     1
  0
VPORT
  2
*ACTIVE
 70
     0
 10
0.0
 20
0.0
 11
1.0
 21
1.0
 12
24.9025812742165016
 22
8.6455148543725429
 13
0.0
 23
0.0
 14
7.0
 24
7.0
 15
7.0
 25
7.0
 16
0.0
 26
0.0
 36
1.0
 17
0.0
 27
0.0
 37
0.0
 40
91.1903340838782128
 41
1.887387387387387
 42
50.0
 43
0.0
 44
0.0
 50
0.0
 51
0.0
 71
     0
 72
  2000
 73
     1
 74
     0
 75
     0
 76
     0
 77
     0
 78
     0
  0
ENDTAB
  0
TABLE
  2
LTYPE
 70
    22
  0
LTYPE
  2
CONTINUOUS
 70
     0
  3
Solid line
 72
    65
 73
     0
 40
0.0
  0
LTYPE
  2
CENTER2
 70
     0
  3
___ _ ___ _ ___ _ ___ _ ___ _ ___ _ ___ _ ___ _
 72
    65
 73
     4
 40
1.125
 49
0.75
 49
-0.125
 49
0.125
 49
-0.125
  0
LTYPE
  2
HIDDEN2
 70
     0
  3
_ _ _ _ _ _ _ _ _ _ _ _ _ _ _ _ _ _ _ _ _ _ _ _
 72
    65
 73
     2
 40
0.1875
 49
0.125
 49
-0.0625
  0
LTYPE
  2
PHANTOM2
 70
     0
  3
Phantom (.5x) ___ _ _ ___ _ _ ___ _ _ ___ _ _
 72
    65
 73
     6
 40
31.75
 49
15.875
 49
-3.174999999999998
 49
3.174999999999998
 49
-3.174999999999998
 49
3.174999999999998
 49
-3.174999999999998
  0
LTYPE
  2
AMCONSTR
 70
     0
  3
_______________________
 72
    65
 73
     2
 40
9999.0
 49
9999.0
 49
0.0
  0
LTYPE
  2
CENTER
 70
     0
  3
____ _ ____ _ ____ _ ____ _ ____ _ ____ _ ____ 
 72
    65
 73
     4
 40
2.0
 49
1.25
 49
-0.25
 49
0.25
 49
-0.25
  0
LTYPE
  2
HIDDEN
 70
     0
  3
Hidden __ __ __ __ __ __ __ __ __ __ __ __ __ _
 72
    65
 73
     2
 40
9.5249999999999986
 49
6.349999999999997
 49
-3.174999999999998
  0
LTYPE
  2
AMZIGZAG2
 70
     0
  3
/\/-/\/-/\/-/\/-/\/-/\/
 72
    65
 73
     2
 40
0.4401
 49
0.0001
 49
-0.4400000000000003
  0
LTYPE
  2
ACANSTGB
 70
     0
  3
__ . . __ . .
 72
    65
 73
     6
 40
0.35433070866
 49
0.15748031496
 49
-0.03937007874
 49
0.03937007874
 49
-0.03937007874
 49
0.03937007874
 49
-0.03937007874
  0
LTYPE
  2
ACANSTGL
 70
     0
  3
_ _ _ _ _
 72
    65
 73
     2
 40
0.11811023622
 49
0.07874015748
 49
-0.03937007874
  0
ENDTAB
  0
TABLE
  2
LAYER
 70
     9
  0
LAYER
  2
0
 70
     0
 62
     7
  6
CONTINUOUS
  0
LAYER
  2
240
 70
     0
 62
     4
  6
CONTINUOUS
  0
LAYER
  2
241
 70
     0
 62
   211
  6
CONTINUOUS
  0
LAYER
  2
242
 70
     0
 62
     3
  6
CONTINUOUS
  0
LAYER
  2
245
 70
     0
 62
     2
  6
CENTER2
  0
LAYER
  2
250
 70
     0
 62
     3
  6
CONTINUOUS
  0
LAYER
  2
DEFPOINTS
 70
     0
 62
     7
  6
CONTINUOUS
  0
LAYER
  2
243
 70
     0
 62
   211
  6
HIDDEN2
  0
LAYER
  2
247
 70
     0
 62
    60
  6
CONTINUOUS
  0
ENDTAB
  0
TABLE
  2
STYLE
 70
     9
  0
STYLE
  2
STANDARD
 70
     0
 40
0.0
 41
1.0
 50
0.0
 71
     0
 42
3.0
  3
romans.shx
  4
BIGFONT.SHX
  0
STYLE
  2
YOKO
 70
     0
 40
0.0
 41
1.0
 50
0.0
 71
     0
 42
3.0
  3
romans.shx
  4
extfont.shx
  0
STYLE
  2
ACANSGDT
 70
     0
 40
0.0
 41
1.0
 50
0.0
 71
     0
 42
3.0
  3
amgdt.shx
  4

  0
ENDTAB
  0
TABLE
  2
VIEW
 70
     0
  0
ENDTAB
  0
TABLE
  2
UCS
 70
     0
  0
ENDTAB
  0
TABLE
  2
APPID
 70
    26
  0
APPID
  2
ACAD
 70
     0
  0
APPID
  2
ACADANNOTATIVE
 70
     0
  0
APPID
  2
GLOBAL
 70
     0
  0
APPID
  2
DETAIL
 70
     0
  0
APPID
  2
GRPNAME
 70
     0
  0
APPID
  2
GPARA
 70
     0
  0
APPID
  2
DCO15
 70
     0
  0
APPID
  2
ITEMNAME
 70
     0
  0
APPID
  2
GRADE_0
 70
     0
  0
APPID
  2
CONTENTBLOCKICON
 70
     0
  0
APPID
  2
MCAD_NO_VIS
 70
     0
  0
APPID
  2
ACAD_TEMP_GRAPHIC
 70
     0
  0
APPID
  2
ACATTRIBSERVICES
 70
     0
  0
APPID
  2
DESIGNERASSEMBLIES
 70
     0
  0
APPID
  2
ACAD_DSTYLE_DIMJAG
 70
     0
  0
APPID
  2
ACAD_DSTYLE_DIMBREAK
 70
     0
  0
APPID
  2
GENIUS_GENSCREG_15
 70
     0
  0
APPID
  2
GENIUS_GENODEF_13
 70
     0
  0
APPID
  2
GENIUS_GENOBJ-N-SDF_13
 70
     0
  0
APPID
  2
ACAD_NAV_VCDISPLAY
 70
     0
  0
APPID
  2
ACAECLAYERSTANDARD
 70
     0
  0
APPID
  2
GENIUS_GENDTOL_13
 70
     0
  0
APPID
  2
ACAD_DSTYLE_DIMINSPECT
 70
     0
  0
APPID
  2
GENIUS_GENOBJ-N-FIL_13
 70
     0
  0
APPID
  2
ACAD_MLEADERVER
 70
     0
  0
APPID
  2
ACAD_EXEMPT_FROM_CAD_STANDARDS
 70
     0
  0
ENDTAB
  0
TABLE
  2
DIMSTYLE
 70
    24
  0
DIMSTYLE
  2
STANDARD
 70
     0
  3

  4

  5

  6

  7

 40
1.0
 41
0.18
 42
0.0625
 43
0.38
 44
0.18
 45
0.0
 46
0.0
 47
0.0
 48
0.0
140
0.18
141
0.09
142
0.0
143
25.3999999999999986
144
1.0
145
0.0
146
1.0
147
0.09
 71
     0
 72
     0
 73
     1
 74
     1
 75
     0
 76
     0
 77
     0
 78
     0
170
     0
171
     2
172
     0
173
     0
174
     0
175
     0
176
     0
177
     0
178
     0
  0
DIMSTYLE
  2
BIGT
 70
     0
  3

  4

  5

  6

  7

 40
1.0
 41
2.2299999999999991
 42
0.5
 43
2.5
 44
1.0
 45
0.0
 46
0.0
 47
0.0
 48
0.0
140
2.799999999999998
141
0.0
142
0.0
143
25.3999999999999986
144
1.0
145
0.0
146
1.0
147
1.0
 71
     0
 72
     0
 73
     0
 74
     0
 75
     0
 76
     0
 77
     3
 78
     8
170
     0
171
     2
172
     1
173
     1
174
     1
175
     0
176
   256
177
   256
178
    40
  0
DIMSTYLE
  2
AM_ANSI
 70
     0
  3

  4
mm
  5

  6

  7

 40
1.0
 41
0.1
 42
0.05
 43
0.5
 44
0.1
 45
0.0
 46
0.0
 47
0.1
 48
0.1
140
0.12
141
0.0
142
0.0
143
25.3999999999999986
144
1.0
145
0.0
146
0.71
147
0.06
 71
     0
 72
     0
 73
     1
 74
     1
 75
     0
 76
     0
 77
     0
 78
     7
170
     0
171
     2
172
     0
173
     0
174
     0
175
     0
176
   256
177
   256
178
     2
  0
DIMSTYLE
  2
AM_ANSI$3
 70
     0
  3

  4
mm
  5

  6

  7

 40
1.0
 41
0.1
 42
0.05
 43
0.5
 44
0.1
 45
0.0
 46
0.0
 47
0.1
 48
0.1
140
0.12
141
0.0
142
0.0
143
25.3999999999999986
144
1.0
145
0.0
146
0.71
147
0.06
 71
     0
 72
     0
 73
     1
 74
     1
 75
     0
 76
     0
 77
     0
 78
     7
170
     0
171
     2
172
     0
173
     0
174
     0
175
     0
176
   256
177
   256
178
     2
  0
DIMSTYLE
  2
AM_ANSI$4
 70
     0
  3

  4
mm
  5

  6

  7

 40
1.0
 41
0.1
 42
0.05
 43
0.5
 44
0.1
 45
0.0
 46
0.0
 47
0.1
 48
0.1
140
0.12
141
0.0
142
0.0
143
25.3999999999999986
144
1.0
145
0.0
146
0.71
147
0.06
 71
     0
 72
     0
 73
     1
 74
     1
 75
     0
 76
     0
 77
     0
 78
     7
170
     0
171
     2
172
     0
173
     0
174
     0
175
     0
176
   256
177
   256
178
     2
  0
DIMSTYLE
  2
AM_ANSI$7
 70
     0
  3

  4
mm
  5

  6

  7

 40
1.0
 41
0.1
 42
0.05
 43
0.5
 44
0.1
 45
0.0
 46
0.0
 47
0.1
 48
0.1
140
0.24
141
0.0
142
0.0
143
25.3999999999999986
144
1.0
145
0.0
146
0.71
147
0.06
 71
     0
 72
     0
 73
     1
 74
     1
 75
     0
 76
     0
 77
     0
 78
     7
170
     0
171
     2
172
     0
173
     0
174
     0
175
     0
176
   256
177
   256
178
     2
  0
DIMSTYLE
  2
AM_ANSI$SF
 70
     0
  3

  4
mm
  5

  6

  7

 40
1.0
 41
0.1
 42
0.05
 43
0.5
 44
0.1
 45
0.0
 46
0.0
 47
0.1
 48
0.1
140
0.12
141
0.0
142
0.0
143
25.3999999999999986
144
1.0
145
0.0
146
0.71
147
0.06
 71
     0
 72
     0
 73
     1
 74
     1
 75
     1
 76
     1
 77
     0
 78
     7
170
     0
171
     2
172
     0
173
     0
174
     0
175
     0
176
   256
177
   256
178
     2
  0
DIMSTYLE
  2
AM_ANSI$SH
 70
     0
  3

  4
mm
  5

  6

  7

 40
1.0
 41
0.1
 42
0.05
 43
0.5
 44
0.1
 45
0.0
 46
0.0
 47
0.1
 48
0.1
140
0.12
141
0.0
142
0.0
143
25.3999999999999986
144
1.0
145
0.0
146
0.71
147
0.06
 71
     0
 72
     0
 73
     1
 74
     1
 75
     1
 76
     1
 77
     0
 78
     7
170
     0
171
     2
172
     0
173
     1
174
     0
175
     0
176
   256
177
   256
178
     2
  0
ENDTAB
  0
ENDSEC
  0
SECTION
  2
BLOCKS
  0
BLOCK
  8
0
  2
$MODEL_SPACE
 70
     0
 10
0.0
 20
0.0
 30
0.0
  3
$MODEL_SPACE
  1

  0
ENDBLK
  5
D4F
  8
0
  0
BLOCK
 67
     1
  8
0
  2
$PAPER_SPACE
 70
     0
 10
0.0
 20
0.0
 30
0.0
  3
$PAPER_SPACE
  1

  0
ENDBLK
  5
D4B
 67
     1
  8
0
  0
BLOCK
  8
0
  2
_OPEN
 70
     0
 10
0.0
 20
0.0
 30
0.0
  3
_OPEN
  1

  0
LINE
  5
595
  8
0
  6
BYBLOCK
 62
     0
 10
-1.0
 20
0.16666667
 30
0.0
 11
0.0
 21
0.0
 31
0.0
  0
LINE
  5
596
  8
0
  6
BYBLOCK
 62
     0
 10
-1.0
 20
-0.16666667
 30
0.0
 11
0.0
 21
0.0
 31
0.0
  0
LINE
  5
597
  8
0
  6
BYBLOCK
 62
     0
 10
0.0
 20
0.0
 30
0.0
 11
-1.0
 21
0.0
 31
0.0
  0
ENDBLK
  5
599
  8
0
  0
BLOCK
  8
0
  2
矢印なし
 70
     0
 10
0.0
 20
0.0
 30
0.0
  3
矢印なし
  1

  0
ENDBLK
  5
6E5
  8
0
  0
BLOCK
  8
0
  2
_ACMFILLEDHALF
 70
     0
 10
0.0
 20
0.0
 30
0.0
  3
_ACMFILLEDHALF
  1

  0
TRACE
  5
BFE
  8
240
 62
     0
 10
-0.8
 20
0.0
 30
0.0
 11
-1.0
 21
0.166666666
 31
0.0
 12
0.0
 22
0.0
 32
0.0
 13
0.0
 23
0.0
 33
0.0
  0
LINE
  5
BFF
  8
240
 62
     0
 10
-1.0
 20
0.0
 30
0.0
 11
-0.8
 21
0.0
 31
0.0
  0
ENDBLK
  5
C00
  8
0
  0
ENDSEC
  0
SECTION
  2
ENTITIES
  0
INSERT
  5
6E6
  8
245
  2
矢印なし
 10
175.6238269700000103
 20
90.551235719999994
 30
0.0
  0
TEXT
  5
893
  8
241
  6
CONTINUOUS
 10
-16.0
 20
38.5
 30
0.0
 40
5.0
  1
CKB22-30
  7
YOKO
 11
-16.0
 21
38.5
 31
0.0
 73
     1
  0
LINE
  5
8AB
  8
250
  6
CONTINUOUS
 10
32.2713520300000027
 20
23.0335633299999998
 30
0.0
 11
45.3380186899999984
 21
23.0335633299999998
 31
0.0
1001
ITEMNAME
1000
LNSP2
  0
LINE
  5
8B3
  8
250
  6
CONTINUOUS
 10
-13.5018328400000005
 20
-13.9580029000000003
 30
0.0
 11
-26.5684995000000015
 21
-13.9580029000000003
 31
0.0
1001
ITEMNAME
1000
LNSP2
  0
LINE
  5
AD0
  8
245
  6
CENTER2
 10
30.8000000000000007
 20
0.0
 30
0.0
 11
-17.1999999999999993
 21
0.0
 31
0.0
  0
LINE
  5
AD1
  8
240
  6
CONTINUOUS
 10
-16.0
 20
7.0
 30
0.0
 11
-6.5410253999999979
 21
7.0
 31
0.0
  0
LINE
  5
AD2
  8
240
  6
CONTINUOUS
 10
-16.0
 20
-7.0
 30
0.0
 11
-6.5410253999999979
 21
-7.0
 31
0.0
  0
LINE
  5
AD5
  8
240
  6
CONTINUOUS
 10
-16.0
 20
-7.0
 30
0.0
 11
-16.0
 21
7.0
 31
0.0
  0
LINE
  5
AD7
  8
240
  6
CONTINUOUS
 10
30.0
 20
-12.0
 30
0.0
 11
30.0
 21
12.0
 31
0.0
  0
LINE
  5
AD8
  8
241
  6
CONTINUOUS
 10
0.0
 20
-7.0
 30
0.0
 11
0.0
 21
7.0
 31
0.0
  0
LINE
  5
AD9
  8
240
  6
CONTINUOUS
 10
30.0
 20
-12.0
 30
0.0
 11
0.0
 21
-12.0
 31
0.0
  0
LINE
  5
ADA
  8
240
  6
CONTINUOUS
 10
-5.674999999999998
 20
-8.5
 30
0.0
 11
-2.3250000000000002
 21
-8.5
 31
0.0
  0
LINE
  5
ADB
  8
241
  6
CONTINUOUS
 10
-1.458974599999999
 20
-7.0
 30
0.0
 11
-6.5410253999999979
 21
-7.0
 31
0.0
  0
LINE
  5
ADC
  8
240
  6
CONTINUOUS
 10
-5.674999999999998
 20
-8.5
 30
0.0
 11
-6.5410253999999979
 21
-7.0
 31
0.0
  0
LINE
  5
ADD
  8
240
  6
CONTINUOUS
 10
0.0
 20
-12.0
 30
0.0
 11
0.0
 21
-7.0
 31
0.0
  0
LINE
  5
ADE
  8
240
  6
CONTINUOUS
 10
0.0
 20
-7.0
 30
0.0
 11
-1.458974599999999
 21
-7.0
 31
0.0
  0
LINE
  5
ADF
  8
240
  6
CONTINUOUS
 10
-1.458974599999999
 20
-7.0
 30
0.0
 11
-2.3250000000000002
 21
-8.5
 31
0.0
  0
CIRCLE
  5
AE1
  8
242
 10
23.5
 20
0.0
 30
0.0
 40
2.25
  0
CIRCLE
  5
AE2
  8
241
  6
CONTINUOUS
 10
23.5
 20
0.0
 30
0.0
 40
2.5
  0
LINE
  5
AE3
  8
243
  6
HIDDEN2
 10
12.5
 20
7.0
 30
0.0
 11
30.0
 21
7.0
 31
0.0
  0
LINE
  5
AE4
  8
240
  6
CONTINUOUS
 10
30.0
 20
12.0
 30
0.0
 11
0.0
 21
12.0
 31
0.0
  0
LINE
  5
AE5
  8
240
  6
CONTINUOUS
 10
0.0
 20
7.0
 30
0.0
 11
0.0
 21
12.0
 31
0.0
  0
LINE
  5
AE6
  8
240
  6
CONTINUOUS
 10
-5.674999999999998
 20
8.5
 30
0.0
 11
-6.5410253999999979
 21
7.0
 31
0.0
  0
LINE
  5
AE7
  8
240
  6
CONTINUOUS
 10
-1.458974599999999
 20
7.0
 30
0.0
 11
-2.3250000000000002
 21
8.5
 31
0.0
  0
LINE
  5
AE8
  8
241
  6
CONTINUOUS
 10
-1.458974599999999
 20
7.0
 30
0.0
 11
-6.5410253999999979
 21
7.0
 31
0.0
  0
CIRCLE
  5
AE9
  8
241
  6
CONTINUOUS
 10
-6.5
 20
0.0
 30
0.0
 40
2.5
  0
LINE
  5
AEA
  8
245
  6
CENTER2
 10
-6.5
 20
3.5
 30
0.0
 11
-6.5
 21
-3.5
 31
0.0
  0
CIRCLE
  5
AEB
  8
241
  6
CONTINUOUS
 10
-6.5
 20
0.0
 30
0.0
 40
2.0
  0
LINE
  5
AEF
  8
240
  6
CONTINUOUS
 10
0.0
 20
7.0
 30
0.0
 11
-1.458974599999999
 21
7.0
 31
0.0
  0
LINE
  5
AF0
  8
240
  6
CONTINUOUS
 10
-5.674999999999998
 20
8.5
 30
0.0
 11
-2.3250000000000002
 21
8.5
 31
0.0
  0
LINE
  5
AF3
  8
245
  6
CENTER2
 10
23.5
 20
3.5
 30
0.0
 11
23.5
 21
-3.5
 31
0.0
1001
GRPNAME
1000
PASTMD1R
  0
TEXT
  5
AF5
  8
250
  6
CONTINUOUS
 10
-24.1684994999999994
 20
-12.9580029000000003
 30
0.0
 40
2.799999999999998
  1
CK2
  7
YOKO
1001
ITEMNAME
1000
LNSP3
1001
ACAD
1000
MTEXTBEGIN
1070
    73
1070
     1
1070
    44
1040
1.0
1070
    74
1070
     0
1000
MTEXTEND
1000
MTEXTBEGIN
1070
    73
1070
     1
1070
    44
1040
1.0
1070
    74
1070
     0
1000
MTEXTEND
  0
TEXT
  5
AF8
  8
250
  6
CONTINUOUS
 10
34.6713520300000013
 20
24.0335633299999998
 30
0.0
 40
2.799999999999998
  1
CK2
  7
YOKO
1001
ITEMNAME
1000
LNSP3
1001
ACAD
1000
MTEXTBEGIN
1070
    73
1070
     1
1070
    44
1040
1.0
1070
    74
1070
     0
1000
MTEXTEND
1000
MTEXTBEGIN
1070
    73
1070
     1
1070
    44
1040
1.0
1070
    74
1070
     0
1000
MTEXTEND
  0
LINE
  5
AFB
  8
250
  6
CONTINUOUS
 10
30.5
 20
-12.0
 30
0.0
 11
42.0
 21
-12.0
 31
0.0
  0
LINE
  5
AFC
  8
250
  6
CONTINUOUS
 10
30.5
 20
12.0
 30
0.0
 11
42.0
 21
12.0
 31
0.0
  0
LINE
  5
AFD
  8
250
  6
CONTINUOUS
 10
41.0
 20
-9.7699999999999996
 30
0.0
 11
41.0
 21
9.7699999999999996
 31
0.0
  0
LINE
  5
B01
  8
250
  6
CONTINUOUS
 10
0.0
 20
12.5
 30
0.0
 11
0.0
 21
25.5
 31
0.0
  0
LINE
  5
B02
  8
250
  6
CONTINUOUS
 10
30.0
 20
12.5
 30
0.0
 11
30.0
 21
25.5
 31
0.0
  0
LINE
  5
B03
  8
250
  6
CONTINUOUS
 10
2.2299999999999991
 20
24.5
 30
0.0
 11
27.7699999999999996
 21
24.5
 31
0.0
  0
LINE
  5
B07
  8
241
  6
CONTINUOUS
 10
22.25
 20
-0.72168784
 30
0.0
 11
23.5
 21
-1.443375669999998
 31
0.0
  0
LINE
  5
B08
  8
241
  6
CONTINUOUS
 10
23.5
 20
-1.443375669999998
 30
0.0
 11
24.75
 21
-0.72168784
 31
0.0
  0
LINE
  5
B09
  8
241
  6
CONTINUOUS
 10
24.75
 20
-0.72168784
 30
0.0
 11
24.75
 21
0.72168784
 31
0.0
  0
LINE
  5
B0A
  8
241
  6
CONTINUOUS
 10
24.75
 20
0.72168784
 30
0.0
 11
23.5
 21
1.443375669999998
 31
0.0
  0
LINE
  5
B0B
  8
241
  6
CONTINUOUS
 10
23.5
 20
1.443375669999998
 30
0.0
 11
22.25
 21
0.72168784
 31
0.0
  0
LINE
  5
B0C
  8
241
  6
CONTINUOUS
 10
22.25
 20
0.72168784
 30
0.0
 11
22.25
 21
-0.72168784
 31
0.0
  0
LINE
  5
B0D
  8
250
  6
CONTINUOUS
 10
-10.5996279905543105
 20
-8.931236650119267
 30
0.0
 11
-13.5018328400000005
 21
-13.9580029000000003
 31
0.0
1001
ACAD
1000
DSTYLE
1002
{
1070
     6
1000
OPEN
1070
   343
1005
594
1002
}
  0
LINE
  5
B0E
  8
250
  6
CONTINUOUS
 10
-10.9215007720116404
 20
-8.7454033129768831
 30
0.0
 11
-9.4846279899999981
 21
-7.0
 31
0.0
  0
LINE
  5
B0F
  8
250
  6
CONTINUOUS
 10
-10.2777552090969699
 20
-9.1170699872616492
 30
0.0
 11
-9.4846279899999981
 21
-7.0
 31
0.0
  0
LINE
  5
B10
  8
250
  6
CONTINUOUS
 10
-9.4846279899999981
 20
-7.0
 30
0.0
 11
-10.5996279905543105
 21
-8.931236650119267
 31
0.0
  0
LINE
  5
B11
  8
250
  6
CONTINUOUS
 10
27.0161212701711513
 20
13.9312366503404892
 30
0.0
 11
32.2713520300000027
 21
23.0335633299999998
 31
0.0
1001
ACAD
1000
DSTYLE
1002
{
1070
     6
1000
OPEN
1070
   343
1005
594
1002
}
  0
LINE
  5
B12
  8
250
  6
CONTINUOUS
 10
27.3379940516653583
 20
13.74540331326196
 30
0.0
 11
25.9011212700000009
 21
12.0
 31
0.0
  0
LINE
  5
B13
  8
250
  6
CONTINUOUS
 10
26.6942484886769513
 20
14.1170699874190095
 30
0.0
 11
25.9011212700000009
 21
12.0
 31
0.0
  0
LINE
  5
B14
  8
250
  6
CONTINUOUS
 10
25.9011212700000009
 20
12.0
 30
0.0
 11
27.0161212701711513
 21
13.9312366503404892
 31
0.0
  0
TEXT
  5
B15
  8
250
  6
CONTINUOUS
 10
40.0
 20
-3.9999999999999991
 30
0.0
 40
2.799999999999998
  1
\U+220524
 50
90.0
1001
ACAD
1000
MTEXTBEGIN
1070
    73
1070
     1
1070
    44
1040
1.0
1070
    74
1070
     0
1000
MTEXTEND
  0
LINE
  5
B16
  8
250
  6
CONTINUOUS
 10
40.6283333259000017
 20
9.7699999999999996
 30
0.0
 11
41.0
 21
12.0
 31
0.0
  0
LINE
  5
B17
  8
250
  6
CONTINUOUS
 10
41.371666674099977
 20
9.7699999999999996
 30
0.0
 11
41.0
 21
12.0
 31
0.0
  0
LINE
  5
B18
  8
250
  6
CONTINUOUS
 10
41.0
 20
12.0
 30
0.0
 11
41.0
 21
9.7699999999999996
 31
0.0
  0
LINE
  5
B19
  8
250
  6
CONTINUOUS
 10
41.371666674099977
 20
-9.7699999999999996
 30
0.0
 11
41.0
 21
-12.0
 31
0.0
  0
LINE
  5
B1A
  8
250
  6
CONTINUOUS
 10
40.6283333259000017
 20
-9.7699999999999996
 30
0.0
 11
41.0
 21
-12.0
 31
0.0
  0
LINE
  5
B1B
  8
250
  6
CONTINUOUS
 10
41.0
 20
-12.0
 30
0.0
 11
41.0
 21
-9.7699999999999996
 31
0.0
  0
TEXT
  5
B1C
  8
250
  6
CONTINUOUS
 10
12.3333333333333304
 20
25.5
 30
0.0
 40
2.799999999999998
  1
30
1001
ACAD
1000
MTEXTBEGIN
1070
    73
1070
     1
1070
    44
1040
1.0
1070
    74
1070
     0
1000
MTEXTEND
  0
LINE
  5
B1D
  8
250
  6
CONTINUOUS
 10
27.7699999999999996
 20
24.8716666740999983
 30
0.0
 11
30.0
 21
24.5
 31
0.0
  0
LINE
  5
B1E
  8
250
  6
CONTINUOUS
 10
27.7699999999999996
 20
24.1283333259000017
 30
0.0
 11
30.0
 21
24.5
 31
0.0
  0
LINE
  5
B1F
  8
250
  6
CONTINUOUS
 10
30.0
 20
24.5
 30
0.0
 11
27.7699999999999996
 21
24.5
 31
0.0
  0
LINE
  5
B20
  8
250
  6
CONTINUOUS
 10
2.2299999999999991
 20
24.1283333259000017
 30
0.0
 11
0.0
 21
24.5
 31
0.0
  0
LINE
  5
B21
  8
250
  6
CONTINUOUS
 10
2.2299999999999991
 20
24.8716666740999983
 30
0.0
 11
0.0
 21
24.5
 31
0.0
  0
LINE
  5
B22
  8
250
  6
CONTINUOUS
 10
0.0
 20
24.5
 30
0.0
 11
2.2299999999999991
 21
24.5
 31
0.0
  0
LINE
  5
BBB
  8
243
  6
HIDDEN2
 10
12.5
 20
-7.0
 30
0.0
 11
30.0
 21
-7.0
 31
0.0
  0
LINE
  5
C5A
  8
247
  6
CONTINUOUS
 10
3.9999999999997802
 20
-9.0000000000000124
 30
0.0
 11
3.999999999999825
 21
-5.2923076925360322
 31
0.0
  0
LINE
  5
C5B
  8
247
  6
CONTINUOUS
 10
1.999999999999825
 20
-8.3639147999903631
 30
0.0
 11
3.6799999999326309
 21
-8.8456470480458975
 31
0.0
  0
LINE
  5
C5C
  8
247
  6
CONTINUOUS
 10
2.7969230768910212
 20
-7.8601211228152339
 30
0.0
 11
2.7969230768910212
 21
-8.5924288150936388
 31
0.0
  0
ARC
  5
C5D
  8
247
  6
CONTINUOUS
 10
2.3077752538351071
 20
-7.669810721557452
 30
0.0
 40
0.3101372647461394
 50
72.9978896752920008
 51
172.9241662185123118
  0
ARC
  5
C5E
  8
247
  6
CONTINUOUS
 10
2.244178504822238
 20
-7.9059820454432961
 30
0.0
 40
0.5546438372287014
 50
4.7429368522013933
 51
73.8492262732663391
1001
GENIUS_GENOBJ-N-FIL_13
1002
{
1000
OWNER
1000
GEN
1002
}
1001
GENIUS_GENODEF_13
1002
{
1000
HIER
1070
     0
1002
}
1002
{
1000
MANEDIT
1070
     0
1002
}
1002
{
1000
NOSEL
1070
     0
1002
}
1002
{
1000
BEHIND
1070
     0
1002
}
1002
{
1000
OTHER
1070
     0
1002
}
1002
{
1000
REACTOR
1002
}
  0
LINE
  5
C5F
  8
247
  6
CONTINUOUS
 10
3.6799999999326309
 20
-8.1133393557674935
 30
0.0
 11
3.6799999999326309
 21
-8.8456470480458975
 31
0.0
  0
LINE
  5
C60
  8
247
  6
CONTINUOUS
 10
1.999999999999825
 20
-8.3639147999903702
 30
0.0
 11
1.999999999999825
 21
-7.6316071077119663
 31
0.0
  0
ARC
  5
C61
  8
247
  6
CONTINUOUS
 10
3.1099335702141242
 20
-7.9026451810134732
 30
0.0
 40
0.3158858408603088
 50
65.990941652528889
 51
172.2634434590694923
  0
ARC
  5
C62
  8
247
  6
CONTINUOUS
 10
3.1129602618658789
 20
-8.1699572883415392
 30
0.0
 40
0.5698593289889349
 50
5.701985164258037
 51
77.2773384368222622
1001
GENIUS_GENOBJ-N-FIL_13
1002
{
1000
OWNER
1000
GEN
1002
}
1001
GENIUS_GENODEF_13
1002
{
1000
HIER
1070
     0
1002
}
1002
{
1000
MANEDIT
1070
     0
1002
}
1002
{
1000
NOSEL
1070
     0
1002
}
1002
{
1000
BEHIND
1070
     0
1002
}
1002
{
1000
OTHER
1070
     0
1002
}
1002
{
1000
REACTOR
1002
}
  0
LINE
  5
C63
  8
247
  6
CONTINUOUS
 10
3.6799999999326309
 20
-7.347185509650707
 30
0.0
 11
1.999999999999825
 21
-6.8654532615951771
 31
0.0
  0
LINE
  5
C64
  8
247
  6
CONTINUOUS
 10
1.999999999999825
 20
-5.668530184726376
 30
0.0
 11
1.999999999999825
 21
-5.985342691442872
 31
0.0
  0
LINE
  5
C65
  8
247
  6
CONTINUOUS
 10
3.6799999999326309
 20
-6.4869917231551764
 30
0.0
 11
3.6799999999326309
 21
-6.1423763385535821
 31
0.0
  0
ARC
  5
C66
  8
247
  6
CONTINUOUS
 10
3.1666396760665152
 20
-5.505453261655977
 30
0.0
 40
1.261484046111637
 50
202.3594881415272937
 51
254.9932485428460041
  0
ARC
  5
C67
  8
247
  6
CONTINUOUS
 10
2.4526550868303341
 20
-5.878009092906586
 30
0.0
 40
0.4987765437607558
 50
94.9945893190753736
 51
155.1663289573035058
1001
GENIUS_GENOBJ-N-FIL_13
1002
{
1000
OWNER
1000
GEN
1002
}
1001
GENIUS_GENODEF_13
1002
{
1000
HIER
1070
     0
1002
}
1002
{
1000
MANEDIT
1070
     0
1002
}
1002
{
1000
NOSEL
1070
     0
1002
}
1002
{
1000
BEHIND
1070
     0
1002
}
1002
{
1000
OTHER
1070
     0
1002
}
1002
{
1000
REACTOR
1002
}
  0
ARC
  5
C68
  8
247
  6
CONTINUOUS
 10
2.929681697575377
 20
-6.3553471608262271
 30
0.0
 40
0.7799577719285588
 50
15.8460965557799707
 51
82.3251370041691644
  0
ARC
  5
C69
  8
247
  6
CONTINUOUS
 10
3.0971763215766801
 20
-6.0281693110177823
 30
0.0
 40
0.7417556510953607
 50
249.7136016704970132
 51
321.7887456564096169
1001
GENIUS_GENOBJ-N-FIL_13
1002
{
1000
OWNER
1000
GEN
1002
}
1001
GENIUS_GENODEF_13
1002
{
1000
HIER
1070
     0
1002
}
1002
{
1000
MANEDIT
1070
     0
1002
}
1002
{
1000
NOSEL
1070
     0
1002
}
1002
{
1000
BEHIND
1070
     0
1002
}
1002
{
1000
OTHER
1070
     0
1002
}
1002
{
1000
REACTOR
1002
}
  0
LINE
  5
C6A
  8
247
  6
CONTINUOUS
 10
3.0338461538046042
 20
-5.970068646252777
 30
0.0
 11
3.0338461538046042
 21
-5.582376338575977
 31
0.0
  0
ARC
  5
C6B
  8
247
  6
CONTINUOUS
 10
2.999999999999825
 20
-9.0000000000000124
 30
0.0
 40
1.0
 50
180.0
 51
0.0
  0
LINE
  5
C6C
  8
247
  6
CONTINUOUS
 10
1.999999999999825
 20
-9.0000000000000124
 30
0.0
 11
1.999999999999825
 21
-8.6430769231312023
 31
0.0
  0
ARC
  5
C6D
  8
247
  6
CONTINUOUS
 10
2.999999999999825
 20
-5.2923076925360171
 30
0.0
 40
1.0
 50
0.0
 51
180.0
  0
VIEWPORT
  5
22
 67
     1
  8
0
 10
261.5176991199999748
 20
148.5
 30
0.0
 40
523.0353982300000553
 41
297.0
 68
     1
 69
     1
1001
ACAD
1000
MVIEW
1002
{
1070
    16
1010
0.0
1020
0.0
1030
0.0
1010
0.0
1020
0.0
1030
1.0
1040
0.0
1040
297.0
1040
261.5176991199999748
1040
148.5
1040
50.0
1040
0.0
1040
0.0
1070
     0
1070
   100
1070
     1
1070
     1
1070
     0
1070
     0
1070
     0
1070
     0
1040
0.0
1040
0.0
1040
0.0
1040
1.0
1040
1.0
1040
10.0
1040
10.0
1070
     0
1002
{
1002
}
1002
}
1001
GENIUS_GENODEF_13
1002
{
1000
HIER
1070
     0
1002
}
1002
{
1000
MANEDIT
1070
     0
1002
}
1002
{
1000
NOSEL
1070
     0
1002
}
1002
{
1000
BEHIND
1070
     0
1002
}
1002
{
1000
OTHER
1070
     0
1002
}
1002
{
1000
REACTOR
1002
}
1001
GENIUS_GENOBJ-N-SDF_13
1002
{
1000
OWNER
1000
GEN
1002
}
1001
GENIUS_GENSCREG_15
1000
PF
1040
1.0
1000
DF
1040
1.0
1000
MIN
1011
0.0000000049999471
1021
0.0
1031
0.0
1021
0.0
1031
0.0
1000
MAX
1011
523.0353982350000024
1021
0.0
1031
0.0
1021
297.0
1031
0.0
1000
FLAGS
1070
     4
  0
ENDSEC
  0
EOF
