  0
SECTION
  2
HEADER
  9
$ACADVER
  1
AC1009
  9
$INSBASE
 10
0.0
 20
0.0
 30
0.0
  9
$EXTMIN
 10
-38.799999999999947
 20
-17.834429048986799
 30
0.0
  9
$EXTMAX
 10
50.0
 20
47.097417240130547
 30
0.0
  9
$LIMMIN
 10
0.0
 20
0.0
  9
$LIMMAX
 10
297.0
 20
210.0
  9
$ORTHOMODE
 70
     1
  9
$REGENMODE
 70
     1
  9
$FILLMODE
 70
     1
  9
$QTEXTMODE
 70
     0
  9
$MIRRTEXT
 70
     1
  9
$DRAGMODE
 70
     2
  9
$LTSCALE
 40
10.0
  9
$OSMODE
 70
    32
  9
$ATTMODE
 70
     1
  9
$TEXTSIZE
 40
3.0
  9
$TRACEWID
 40
1.0
  9
$TEXTSTYLE
  7
YOKO
  9
$CLAYER
  8
240
  9
$CELTYPE
  6
BYLAYER
  9
$CECOLOR
 62
   256
  9
$DIMSCALE
 40
1.0
  9
$DIMASZ
 40
2.2299999999999991
  9
$DIMEXO
 40
0.5
  9
$DIMDLI
 40
7.0
  9
$DIMRND
 40
0.0
  9
$DIMDLE
 40
0.0
  9
$DIMEXE
 40
1.0
  9
$DIMTP
 40
0.0
  9
$DIMTM
 40
0.01
  9
$DIMTXT
 40
2.799999999999998
  9
$DIMCEN
 40
0.0
  9
$DIMTSZ
 40
0.0
  9
$DIMTOL
 70
     0
  9
$DIMLIM
 70
     0
  9
$DIMTIH
 70
     0
  9
$DIMTOH
 70
     0
  9
$DIMSE1
 70
     0
  9
$DIMSE2
 70
     0
  9
$DIMTAD
 70
     3
  9
$DIMZIN
 70
     9
  9
$DIMBLK
  1
OPEN
  9
$DIMASO
 70
     1
  9
$DIMSHO
 70
     1
  9
$DIMPOST
  1

  9
$DIMAPOST
  1

  9
$DIMALT
 70
     0
  9
$DIMALTD
 70
     2
  9
$DIMALTF
 40
25.399999999999999
  9
$DIMLFAC
 40
1.0
  9
$DIMTOFL
 70
     1
  9
$DIMTVP
 40
0.0
  9
$DIMTIX
 70
     1
  9
$DIMSOXD
 70
     0
  9
$DIMSAH
 70
     0
  9
$DIMBLK1
  1

  9
$DIMBLK2
  1

  9
$DIMSTYLE
  2
BIGT
  9
$DIMCLRD
 70
   256
  9
$DIMCLRE
 70
   256
  9
$DIMCLRT
 70
    40
  9
$DIMTFAC
 40
1.0
  9
$DIMGAP
 40
1.0
  9
$LUNITS
 70
     2
  9
$LUPREC
 70
     3
  9
$SKETCHINC
 40
1.0
  9
$FILLETRAD
 40
0.0
  9
$AUNITS
 70
     0
  9
$AUPREC
 70
     3
  9
$MENU
  1
.
  9
$ELEVATION
 40
0.0
  9
$PELEVATION
 40
0.0
  9
$THICKNESS
 40
0.0
  9
$LIMCHECK
 70
     0
  9
$BLIPMODE
 70
     0
  9
$CHAMFERA
 40
0.25
  9
$CHAMFERB
 40
0.25
  9
$SKPOLY
 70
     0
  9
$TDCREATE
 40
2455933.6814285652
  9
$TDUPDATE
 40
2459908.4170131478
  9
$TDINDWG
 40
0.0513586227
  9
$TDUSRTIMER
 40
0.0513586111
  9
$USRTIMER
 70
     1
  9
$ANGBASE
 50
0.0
  9
$ANGDIR
 70
     0
  9
$PDMODE
 70
     1
  9
$PDSIZE
 40
0.0
  9
$PLINEWID
 40
0.0
  9
$COORDS
 70
     1
  9
$SPLFRAME
 70
     0
  9
$SPLINETYPE
 70
     6
  9
$SPLINESEGS
 70
     4
  9
$ATTDIA
 70
     1
  9
$ATTREQ
 70
     1
  9
$HANDLING
 70
     1
  9
$HANDSEED
  5
26E0
  9
$SURFTAB1
 70
     6
  9
$SURFTAB2
 70
     6
  9
$SURFTYPE
 70
     6
  9
$SURFU
 70
     6
  9
$SURFV
 70
     6
  9
$UCSNAME
  2

  9
$UCSORG
 10
0.0
 20
0.0
 30
0.0
  9
$UCSXDIR
 10
1.0
 20
0.0
 30
0.0
  9
$UCSYDIR
 10
0.0
 20
1.0
 30
0.0
  9
$PUCSNAME
  2

  9
$PUCSORG
 10
0.0
 20
0.0
 30
0.0
  9
$PUCSXDIR
 10
1.0
 20
0.0
 30
0.0
  9
$PUCSYDIR
 10
0.0
 20
1.0
 30
0.0
  9
$USERI1
 70
     1
  9
$USERI2
 70
     0
  9
$USERI3
 70
     0
  9
$USERI4
 70
     0
  9
$USERI5
 70
     0
  9
$USERR1
 40
0.0
  9
$USERR2
 40
0.0
  9
$USERR3
 40
0.0
  9
$USERR4
 40
0.0
  9
$USERR5
 40
0.0
  9
$WORLDVIEW
 70
     1
  9
$SHADEDGE
 70
     3
  9
$SHADEDIF
 70
    70
  9
$TILEMODE
 70
     1
  9
$MAXACTVP
 70
    16
  9
$PLIMCHECK
 70
     0
  9
$PEXTMIN
 10
1.0000000000000000E+020
 20
1.0000000000000000E+020
 30
1.0000000000000000E+020
  9
$PEXTMAX
 10
-1.0000000000000000E+020
 20
-1.0000000000000000E+020
 30
-1.0000000000000000E+020
  9
$PLIMMIN
 10
0.0
 20
0.0
  9
$PLIMMAX
 10
420.0
 20
297.0
  9
$UNITMODE
 70
     0
  9
$VISRETAIN
 70
     1
  9
$PLINEGEN
 70
     0
  9
$PSLTSCALE
 70
     1
  0
ENDSEC
  0
SECTION
  2
TABLES
  0
TABLE
  2
VPORT
 70
     1
  0
VPORT
  2
*ACTIVE
 70
     0
 10
0.0
 20
0.0
 11
1.0
 21
1.0
 12
12.25240953862188
 22
15.617995381071269
 13
0.0
 23
0.0
 14
7.0
 24
7.0
 15
7.0
 25
7.0
 16
0.0
 26
0.0
 36
1.0
 17
0.0
 27
0.0
 37
0.0
 40
75.498497572487736
 41
1.9454545454545451
 42
50.0
 43
0.0
 44
0.0
 50
0.0
 51
0.0
 71
     0
 72
  2000
 73
     1
 74
     0
 75
     0
 76
     0
 77
     0
 78
     0
  0
ENDTAB
  0
TABLE
  2
LTYPE
 70
    17
  0
LTYPE
  2
CONTINUOUS
 70
     0
  3
Solid line
 72
    65
 73
     0
 40
0.0
  0
LTYPE
  2
CENTER2
 70
     0
  3
___ _ ___ _ ___ _ ___ _ ___ _ ___ _ ___ _ ___ _
 72
    65
 73
     4
 40
1.125
 49
0.75
 49
-0.125
 49
0.125
 49
-0.125
  0
LTYPE
  2
HIDDEN2
 70
     0
  3
_ _ _ _ _ _ _ _ _ _ _ _ _ _ _ _ _ _ _ _ _ _ _ _
 72
    65
 73
     2
 40
0.1875
 49
0.125
 49
-0.0625
  0
LTYPE
  2
PHANTOM2
 70
     0
  3
___ _ _ ___ _ _ ___ _ _ ___ _ _ ___ _ _ ___ _ _
 72
    65
 73
     6
 40
1.25
 49
0.625
 49
-0.125
 49
0.125
 49
-0.125
 49
0.125
 49
-0.125
  0
LTYPE
  2
CENTER
 70
     0
  3
____ _ ____ _ ____ _ ____ _ ____ _ ____ _ ____ 
 72
    65
 73
     4
 40
2.0
 49
1.25
 49
-0.25
 49
0.25
 49
-0.25
  0
LTYPE
  2
AMCONSTR
 70
     0
  3
_______________________
 72
    65
 73
     2
 40
9999.0
 49
9999.0
 49
0.0
  0
LTYPE
  2
HIDDEN
 70
     0
  3
Hidden __ __ __ __ __ __ __ __ __ __ __ __ __ _
 72
    65
 73
     2
 40
9.5249999999999986
 49
6.349999999999997
 49
-3.174999999999998
  0
LTYPE
  2
AMZIGZAG2
 70
     0
  3
/\/-/\/-/\/-/\/-/\/-/\/
 72
    65
 73
     2
 40
0.4401
 49
0.0001
 49
-0.4400000000000002
  0
LTYPE
  2
ACANSTGB
 70
     0
  3
__ . . __ . .
 72
    65
 73
     6
 40
0.35433070866
 49
0.15748031496
 49
-0.03937007874
 49
0.03937007874
 49
-0.03937007874
 49
0.03937007874
 49
-0.03937007874
  0
LTYPE
  2
ACANSTGL
 70
     0
  3
_ _ _ _ _
 72
    65
 73
     2
 40
0.11811023622
 49
0.07874015748
 49
-0.03937007874
  0
LTYPE
  2
AM_ISO02W050
 70
     0
  3
__ __ __ __ __ __ __ __ __ __ __ __ __ __ __
 72
    65
 73
     2
 40
7.5
 49
6.0
 49
-1.5
  0
LTYPE
  2
AM_ISO08W050
 70
     0
  3
____ . ____ . ____ . ____ . ____ . ____ . ____
 72
    65
 73
     4
 40
18.0
 49
12.0
 49
-1.5
 49
3.0
 49
-1.5
  0
LTYPE
  2
AM_ISO09W050
 70
     0
  3
_____ . . _____ . . _____ . . ____ .. ____
 72
    65
 73
     6
 40
22.5
 49
12.0
 49
-1.5
 49
3.0
 49
-1.5
 49
3.0
 49
-1.5
  0
LTYPE
  2
AM_ISO08W050X2
 70
     0
  3
__ . __ . __ . __ . __ . __
 72
    65
 73
     4
 40
9.0
 49
6.0
 49
-0.75
 49
1.5
 49
-0.75
  0
LTYPE
  2
AM_ISO02W050X2
 70
     0
  3
 _ _ _ _ _ _ _ _ _ _ _ _
 72
    65
 73
     2
 40
3.75
 49
3.0
 49
-0.75
  0
LTYPE
  2
AMZIGZAG
 70
     0
  3
/\/-/\/-/\/-/\/-/\/-/\/
 72
    65
 73
     2
 40
11.0001
 49
0.0001
 49
-11.0
  0
ENDTAB
  0
TABLE
  2
LAYER
 70
    10
  0
LAYER
  2
0
 70
     0
 62
     7
  6
CONTINUOUS
  0
LAYER
  2
240
 70
     0
 62
     4
  6
CONTINUOUS
  0
LAYER
  2
DEFPOINTS
 70
     0
 62
     7
  6
CONTINUOUS
  0
LAYER
  2
245
 70
     0
 62
     2
  6
CENTER2
  0
LAYER
  2
241
 70
     0
 62
   211
  6
CONTINUOUS
  0
LAYER
  2
246
 70
     0
 62
     3
  6
PHANTOM2
  0
LAYER
  2
247
 70
     0
 62
    60
  6
CONTINUOUS
  0
LAYER
  2
250
 70
     0
 62
     3
  6
CONTINUOUS
  0
LAYER
  2
AM_5
 70
     0
 62
     3
  6
CONTINUOUS
  0
LAYER
  2
AM_CL
 70
     0
 62
     1
  6
AMCONSTR
  0
ENDTAB
  0
TABLE
  2
STYLE
 70
     7
  0
STYLE
  2
STANDARD
 70
     0
 40
0.0
 41
1.0
 50
0.0
 71
     0
 42
3.0
  3
romans.shx
  4
extfont.shx
  0
STYLE
  2
ANNOTATIVE
 70
     0
 40
0.0
 41
1.0
 50
0.0
 71
     0
 42
0.2
  3
txt
  4

  0
STYLE
  2
YOKO
 70
     0
 40
0.0
 41
1.0
 50
0.0
 71
     0
 42
3.0
  3
romans.shx
  4
extfont.shx
  0
STYLE
  2

 70
     1
 40
0.0
 41
1.0
 50
0.0
 71
     0
 42
3.0
  3
ltypeshp.shx
  4

  0
STYLE
  2
ACANSTS
 70
     0
 40
1.0
 41
1.0
 50
0.0
 71
     0
 42
3.0
  3
romans.shx
  4
extfont.shx
  0
STYLE
  2
ACANSGDT
 70
     0
 40
0.0
 41
1.0
 50
0.0
 71
     0
 42
3.0
  3
amgdt.shx
  4

  0
STYLE
  2

 70
     1
 40
0.0
 41
1.0
 50
0.0
 71
     0
 42
3.0
  3
genltshp.shx
  4

  0
ENDTAB
  0
TABLE
  2
VIEW
 70
     0
  0
ENDTAB
  0
TABLE
  2
UCS
 70
     0
  0
ENDTAB
  0
TABLE
  2
APPID
 70
    40
  0
APPID
  2
ACAD
 70
     0
  0
APPID
  2
ACADANNOTATIVE
 70
     0
  0
APPID
  2
GLOBAL
 70
     0
  0
APPID
  2
DETAIL
 70
     0
  0
APPID
  2
GRPNAME
 70
     0
  0
APPID
  2
GPARA
 70
     0
  0
APPID
  2
MCAD_NO_VIS
 70
     0
  0
APPID
  2
ACAD_TEMP_GRAPHIC
 70
     0
  0
APPID
  2
ACATTRIBSERVICES
 70
     0
  0
APPID
  2
GENIUS_GENSCREG_15
 70
     0
  0
APPID
  2
GENIUS_GENODEF_13
 70
     0
  0
APPID
  2
GENIUS_GENOBJ-N-SDF_13
 70
     0
  0
APPID
  2
GENIUS_GENREC_14
 70
     0
  0
APPID
  2
GENIUS_GENOBJ-N-REC_13
 70
     0
  0
APPID
  2
GENIUS_GENDIMSH_14
 70
     0
  0
APPID
  2
GENIUS_GENOBJ-N-DIM_13
 70
     0
  0
APPID
  2
GENIUS_GENDIM_13
 70
     0
  0
APPID
  2
GENIUS_GENDTOL_13
 70
     0
  0
APPID
  2
GENIUS_GENOLIS_13
 70
     0
  0
APPID
  2
GENIUS_GENOENT_13
 70
     0
  0
APPID
  2
GENIUS_GENOBJ-F-FEM_13
 70
     0
  0
APPID
  2
GENIUS_GENOREF_13
 70
     0
  0
APPID
  2
GENIUS_GEFFEM_13
 70
     0
  0
APPID
  2
GENIUS_GEFFEMP_13
 70
     0
  0
APPID
  2
AD_DRAW
 70
     0
  0
APPID
  2
DESIGNERASSEMBLIES
 70
     0
  0
APPID
  2
ACADM_DIM_EDIT
 70
     0
  0
APPID
  2
AMDT_DM_ADJ
 70
     0
  0
APPID
  2
ITEMNAME
 70
     0
  0
APPID
  2
HATCH_TYPE
 70
     0
  0
APPID
  2
HATCH_DISPLAY
 70
     0
  0
APPID
  2
HATCH_DISTANCE
 70
     0
  0
APPID
  2
ACAD_DSTYLE_DIMBREAK
 70
     0
  0
APPID
  2
ACAD_DSTYLE_DIMJAG
 70
     0
  0
APPID
  2
ACAD_NAV_VCDISPLAY
 70
     0
  0
APPID
  2
GENIUS_GENOBJ-N-FIL_13
 70
     0
  0
APPID
  2
ACAD_EXEMPT_FROM_CAD_STANDARDS
 70
     0
  0
APPID
  2
ACAECLAYERSTANDARD
 70
     0
  0
APPID
  2
ACAD_DSTYLE_DIMINSPECT
 70
     0
  0
APPID
  2
ACAD_MLEADERVER
 70
     0
  0
ENDTAB
  0
TABLE
  2
DIMSTYLE
 70
    11
  0
DIMSTYLE
  2
STANDARD
 70
     0
  3

  4

  5

  6

  7

 40
1.0
 41
0.18
 42
0.0625
 43
0.38
 44
0.18
 45
0.0
 46
0.0
 47
0.0
 48
0.0
140
0.18
141
0.09
142
0.0
143
25.399999999999999
144
1.0
145
0.0
146
1.0
147
0.09
 71
     0
 72
     0
 73
     1
 74
     1
 75
     0
 76
     0
 77
     0
 78
     0
170
     0
171
     2
172
     0
173
     0
174
     0
175
     0
176
     0
177
     0
178
     0
  0
DIMSTYLE
  2
ANNOTATIVE
 70
     0
  3

  4

  5

  6

  7

 40
1.0
 41
0.18
 42
0.0625
 43
0.38
 44
0.18
 45
0.0
 46
0.0
 47
0.0
 48
0.0
140
0.18
141
0.09
142
0.0
143
25.399999999999999
144
1.0
145
0.0
146
1.0
147
0.09
 71
     0
 72
     0
 73
     1
 74
     1
 75
     0
 76
     0
 77
     0
 78
     0
170
     0
171
     2
172
     0
173
     0
174
     0
175
     0
176
     0
177
     0
178
     0
  0
DIMSTYLE
  2
BIGT
 70
     0
  3

  4

  5

  6

  7

 40
1.0
 41
2.2299999999999991
 42
0.5
 43
7.0
 44
1.0
 45
0.0
 46
0.0
 47
0.0
 48
0.01
140
2.799999999999998
141
0.0
142
0.0
143
25.399999999999999
144
1.0
145
0.0
146
1.0
147
1.0
 71
     0
 72
     0
 73
     0
 74
     0
 75
     0
 76
     0
 77
     3
 78
     9
170
     0
171
     2
172
     1
173
     0
174
     1
175
     0
176
   256
177
   256
178
    40
  0
DIMSTYLE
  2
AM_ANSI
 70
     0
  3

  4
mm
  5

  6

  7

 40
1.0
 41
0.1
 42
0.05
 43
0.5
 44
0.1
 45
0.0
 46
0.0
 47
0.1
 48
0.1
140
0.12
141
0.0
142
0.0
143
25.399999999999999
144
1.0
145
0.0
146
0.71
147
0.06
 71
     0
 72
     0
 73
     1
 74
     1
 75
     0
 76
     0
 77
     0
 78
     7
170
     0
171
     2
172
     0
173
     0
174
     0
175
     0
176
   256
177
   256
178
     2
  0
DIMSTYLE
  2
AM_ANSI$3
 70
     0
  3

  4
mm
  5

  6

  7

 40
1.0
 41
0.1
 42
0.05
 43
0.5
 44
0.1
 45
0.0
 46
0.0
 47
0.1
 48
0.1
140
0.12
141
0.0
142
0.0
143
25.399999999999999
144
1.0
145
0.0
146
0.71
147
0.06
 71
     0
 72
     0
 73
     1
 74
     1
 75
     0
 76
     0
 77
     0
 78
     7
170
     0
171
     2
172
     0
173
     0
174
     0
175
     0
176
   256
177
   256
178
     2
  0
DIMSTYLE
  2
AM_ANSI$4
 70
     0
  3

  4
mm
  5

  6

  7

 40
1.0
 41
0.1
 42
0.05
 43
0.5
 44
0.1
 45
0.0
 46
0.0
 47
0.1
 48
0.1
140
0.12
141
0.0
142
0.0
143
25.399999999999999
144
1.0
145
0.0
146
0.71
147
0.06
 71
     0
 72
     0
 73
     1
 74
     1
 75
     0
 76
     0
 77
     0
 78
     7
170
     0
171
     2
172
     0
173
     0
174
     0
175
     0
176
   256
177
   256
178
     2
  0
DIMSTYLE
  2
AM_ANSI$7
 70
     0
  3

  4
mm
  5

  6

  7

 40
1.0
 41
0.1
 42
0.05
 43
0.5
 44
0.1
 45
0.0
 46
0.0
 47
0.1
 48
0.1
140
0.24
141
0.0
142
0.0
143
25.399999999999999
144
1.0
145
0.0
146
0.71
147
0.06
 71
     0
 72
     0
 73
     1
 74
     1
 75
     0
 76
     0
 77
     0
 78
     7
170
     0
171
     2
172
     0
173
     0
174
     0
175
     0
176
   256
177
   256
178
     2
  0
DIMSTYLE
  2
AM_ANSI$SF
 70
     0
  3

  4
mm
  5

  6

  7

 40
1.0
 41
0.1
 42
0.05
 43
0.5
 44
0.1
 45
0.0
 46
0.0
 47
0.1
 48
0.1
140
0.12
141
0.0
142
0.0
143
25.399999999999999
144
1.0
145
0.0
146
0.71
147
0.06
 71
     0
 72
     0
 73
     1
 74
     1
 75
     1
 76
     1
 77
     0
 78
     7
170
     0
171
     2
172
     0
173
     0
174
     0
175
     0
176
   256
177
   256
178
     2
  0
DIMSTYLE
  2
AM_ANSI$SH
 70
     0
  3

  4
mm
  5

  6

  7

 40
1.0
 41
0.1
 42
0.05
 43
0.5
 44
0.1
 45
0.0
 46
0.0
 47
0.1
 48
0.1
140
0.12
141
0.0
142
0.0
143
25.399999999999999
144
1.0
145
0.0
146
0.71
147
0.06
 71
     0
 72
     0
 73
     1
 74
     1
 75
     1
 76
     1
 77
     0
 78
     7
170
     0
171
     2
172
     0
173
     1
174
     0
175
     0
176
   256
177
   256
178
     2
  0
DIMSTYLE
  2
BIGT$0
 70
     0
  3

  4

  5

  6

  7

 40
1.0
 41
2.2299999999999991
 42
0.5
 43
7.0
 44
1.0
 45
0.0
 46
0.0
 47
0.0
 48
0.01
140
2.799999999999998
141
0.0
142
0.0
143
25.399999999999999
144
1.0
145
0.0
146
1.0
147
1.0
 71
     0
 72
     0
 73
     0
 74
     0
 75
     0
 76
     0
 77
     3
 78
     9
170
     0
171
     2
172
     1
173
     0
174
     1
175
     0
176
   256
177
   256
178
    40
  0
ENDTAB
  0
ENDSEC
  0
SECTION
  2
BLOCKS
  0
BLOCK
  8
0
  2
$MODEL_SPACE
 70
     0
 10
0.0
 20
0.0
 30
0.0
  3
$MODEL_SPACE
  1

  0
ENDBLK
  5
2495
  8
0
  0
BLOCK
 67
     1
  8
0
  2
$PAPER_SPACE
 70
     0
 10
0.0
 20
0.0
 30
0.0
  3
$PAPER_SPACE
  1

  0
ENDBLK
  5
2491
 67
     1
  8
0
  0
BLOCK
  8
0
  2
_OPEN
 70
     0
 10
0.0
 20
0.0
 30
0.0
  3
_OPEN
  1

  0
LINE
  5
1AAA
  8
0
  6
BYBLOCK
 62
     0
 10
-1.0
 20
0.1666666666666666
 30
0.0
 11
0.0
 21
0.0
 31
0.0
  0
LINE
  5
1AAB
  8
0
  6
BYBLOCK
 62
     0
 10
-1.0
 20
-0.1666666666666666
 30
0.0
 11
0.0
 21
0.0
 31
0.0
  0
LINE
  5
1AAC
  8
0
  6
BYBLOCK
 62
     0
 10
0.0
 20
0.0
 30
0.0
 11
-1.0
 21
0.0
 31
0.0
  0
ENDBLK
  5
1AAD
  8
0
  0
BLOCK
  8
0
  2
GENAXEH
 70
     0
 10
0.0
 20
0.0
 30
0.0
  3
GENAXEH
  1

  0
LINE
  5
1AD5
  8
0
 10
-1.0
 20
0.0
 30
0.0
 11
1.0
 21
0.0
 31
0.0
  0
ENDBLK
  5
1AD6
  8
0
  0
BLOCK
  8
0
  2
_ACMFILLEDHALF
 70
     0
 10
0.0
 20
0.0
 30
0.0
  3
_ACMFILLEDHALF
  1

  0
TRACE
  5
2532
  8
240
 62
     0
 10
-0.8
 20
0.0
 30
0.0
 11
-1.0
 21
0.166666666
 31
0.0
 12
0.0
 22
0.0
 32
0.0
 13
0.0
 23
0.0
 33
0.0
  0
LINE
  5
2533
  8
240
 62
     0
 10
-1.0
 20
0.0
 30
0.0
 11
-0.8
 21
0.0
 31
0.0
  0
ENDBLK
  5
2531
  8
0
  0
BLOCK
  8
0
  2
*D8
 70
     1
 10
0.0
 20
0.0
 30
0.0
  3
*D8
  1

  0
LINE
  5
265D
  8
AM_5
 10
-0.0000000000000013
 20
0.5
 30
0.0
 11
0.0000000000000008
 21
35.728437659165792
 31
0.0
  0
LINE
  5
265E
  8
AM_5
 10
19.962916213631001
 20
11.19314481914043
 30
0.0
 11
19.962916213631001
 21
35.728437659165792
 31
0.0
  0
LINE
  5
265F
  8
AM_5
 10
2.2299999999999991
 20
34.728437659165792
 30
0.0
 11
17.732916213631
 21
34.728437659165792
 31
0.0
  0
INSERT
  5
2660
  8
AM_5
  2
_OPEN
 10
0.0000000000000008
 20
34.728437659165792
 30
0.0
 41
2.2299999999999991
 42
2.2299999999999991
 43
2.2299999999999991
 50
180.0
  0
INSERT
  5
2661
  8
AM_5
  2
_OPEN
 10
19.962916213631001
 20
34.728437659165792
 30
0.0
 41
2.2299999999999991
 42
2.2299999999999991
 43
2.2299999999999991
  0
INSERT
  5
2662
  8
240
  2
*U9
 10
0.0
 20
0.0
 30
0.0
  0
POINT
  5
2663
  8
DEFPOINTS
 62
     0
 10
-0.0000000000000014
 20
0.0
 30
0.0
  0
POINT
  5
2664
  8
DEFPOINTS
 62
     0
 10
19.962916213631001
 20
10.69314481914043
 30
0.0
  0
POINT
  5
2665
  8
DEFPOINTS
 62
     0
 10
19.962916213631001
 20
34.728437659165792
 30
0.0
  0
ENDBLK
  5
2640
  8
0
  0
BLOCK
  8
0
  2
*U9
 70
     1
 10
0.0
 20
0.0
 30
0.0
  3
*U9
  1

  0
TEXT
  5
26DD
  8
AM_5
 62
    40
 10
1.1814581068155079
 20
35.728437659165792
 30
0.0
 40
2.799999999999998
  1
19.9629
  0
ENDBLK
  5
26DF
  8
0
  0
ENDSEC
  0
SECTION
  2
ENTITIES
  0
TEXT
  5
16F5
  8
241
  6
CONTINUOUS
 10
-38.976500861048862
 20
42.09741724013054
 30
0.0
 40
5.0
  1
CKB1-C2232-45B-20
  7
YOKO
 11
-38.976500861048862
 21
42.09741724013054
 31
0.0
 73
     1
  0
LINE
  5
18AA
  8
250
  6
CONTINUOUS
 10
12.04184834291709
 20
16.0
 30
0.0
 11
-35.999999999999929
 21
16.000000000000021
 31
0.0
  0
LINE
  5
18AB
  8
250
  6
CONTINUOUS
 10
-34.99999999999995
 20
13.770000000000019
 30
0.0
 11
-34.99999999999995
 21
-4.5333333333335162
 31
0.0
  0
LINE
  5
18AE
  8
250
  6
CONTINUOUS
 10
7.041849166097581
 20
11.0
 30
0.0
 11
-28.99999999999995
 21
11.000000000000011
 31
0.0
  0
LINE
  5
18AF
  8
250
  6
CONTINUOUS
 10
-27.99999999999995
 20
8.7700000000000085
 30
0.0
 11
-27.99999999999995
 21
-4.5333333333334851
 31
0.0
  0
LINE
  5
18B2
  8
250
  6
CONTINUOUS
 10
-0.5
 20
-9.4999997229266153
 30
0.0
 11
-22.000000000000011
 21
-9.4999997229266082
 31
0.0
  0
LINE
  5
18B3
  8
250
  6
CONTINUOUS
 10
-0.5
 20
9.499999947950954
 30
0.0
 11
-22.0
 21
9.4999999479509594
 31
0.0
  0
LINE
  5
18B4
  8
250
  6
CONTINUOUS
 10
-21.0
 20
-7.2699997229266069
 30
0.0
 11
-21.0
 21
7.2699999479509589
 31
0.0
  0
LINE
  5
18B8
  8
250
  6
CONTINUOUS
 10
13.952508689916121
 20
16.703553390593239
 30
0.0
 11
10.03367555951418
 21
20.622386520995171
 31
0.0
  0
ARC
  5
18B9
  8
250
  6
CONTINUOUS
 10
19.96395923197268
 20
10.692102848536679
 30
0.0
 40
13.043541847802899
 50
99.807590055137254
 51
125.1924099448626
  0
LINE
  5
18BD
  8
250
  6
CONTINUOUS
 10
0.0
 20
9.999999947950954
 30
0.0
 11
0.0000000000000012
 21
29.0
 31
0.0
  0
LINE
  5
18BE
  8
250
  6
CONTINUOUS
 10
19.962916213631001
 20
11.19314481914043
 30
0.0
 11
19.962916213631001
 21
29.0
 31
0.0
  0
LINE
  5
18BF
  8
250
  6
CONTINUOUS
 10
2.2299999999999991
 20
28.0
 30
0.0
 11
17.732916213631
 21
28.0
 31
0.0
  0
LINE
  5
18C3
  8
250
  6
CONTINUOUS
 10
15.15606201568386
 20
16.0
 30
0.0
 11
43.0
 21
15.99999999999998
 31
0.0
  0
LINE
  5
18C4
  8
250
  6
CONTINUOUS
 10
42.0
 20
13.769999999999991
 30
0.0
 11
42.0
 21
-4.5333333333333403
 31
0.0
  0
LINE
  5
18C7
  8
250
  6
CONTINUOUS
 10
20.15606108960581
 20
11.0
 30
0.0
 11
36.0
 21
10.99999999999998
 31
0.0
  0
LINE
  5
18C8
  8
250
  6
CONTINUOUS
 10
35.0
 20
8.7699999999999942
 30
0.0
 11
35.0
 21
-4.533333333333335
 31
0.0
  0
LINE
  5
18CB
  8
250
  6
CONTINUOUS
 10
14.80606208050933
 20
-16.349999999999991
 30
0.0
 11
50.0
 21
-16.350000000000001
 31
0.0
  0
LINE
  5
18CC
  8
250
  6
CONTINUOUS
 10
14.80606208050933
 20
16.349999999999991
 30
0.0
 11
50.0
 21
16.34999999999998
 31
0.0
  0
LINE
  5
18CD
  8
250
  6
CONTINUOUS
 10
49.0
 20
-14.119999999999999
 30
0.0
 11
49.0
 21
14.11999999999998
 31
0.0
  0
TEXT
  5
18D1
  8
250
  6
CONTINUOUS
 10
-35.99999999999995
 20
-3.8000000000001881
 30
0.0
 40
2.799999999999998
  1
\U+220532
 50
90.0
  0
LINE
  5
18D2
  8
250
  6
CONTINUOUS
 10
-35.371666666666613
 20
13.770000000000019
 30
0.0
 11
-34.999999999999929
 21
16.000000000000021
 31
0.0
  0
LINE
  5
18D3
  8
250
  6
CONTINUOUS
 10
-34.628333333333252
 20
13.770000000000019
 30
0.0
 11
-34.999999999999929
 21
16.000000000000021
 31
0.0
  0
LINE
  5
18D4
  8
250
  6
CONTINUOUS
 10
-34.999999999999929
 20
16.000000000000021
 30
0.0
 11
-34.999999999999929
 21
13.770000000000019
 31
0.0
  0
TEXT
  5
18D5
  8
250
  6
CONTINUOUS
 10
-28.999999999999961
 20
-3.8000000000001561
 30
0.0
 40
2.799999999999998
  1
\U+220522
 50
90.0
  0
LINE
  5
18D6
  8
250
  6
CONTINUOUS
 10
-28.371666666666631
 20
8.7700000000000085
 30
0.0
 11
-27.99999999999995
 21
11.000000000000011
 31
0.0
  0
LINE
  5
18D7
  8
250
  6
CONTINUOUS
 10
-27.628333333333291
 20
8.7700000000000085
 30
0.0
 11
-27.99999999999995
 21
11.000000000000011
 31
0.0
  0
LINE
  5
18D8
  8
250
  6
CONTINUOUS
 10
-27.99999999999995
 20
11.000000000000011
 30
0.0
 11
-27.99999999999995
 21
8.7700000000000085
 31
0.0
  0
TEXT
  5
18D9
  8
250
  6
CONTINUOUS
 10
-22.0
 20
-3.8285713160592549
 30
0.0
 40
3.0
  1
\U+2205
 50
90.0
  0
TEXT
  5
18DA
  8
250
  6
CONTINUOUS
 10
-22.100000000000001
 20
-1.1142856017735401
 30
0.0
 40
2.799999999999998
  1
19
 50
90.0
  0
LINE
  5
18DB
  8
250
  6
CONTINUOUS
 10
-21.371666666666648
 20
7.2699999479509589
 30
0.0
 11
-21.0
 21
9.4999999479509594
 31
0.0
  0
LINE
  5
18DC
  8
250
  6
CONTINUOUS
 10
-20.62833333333333
 20
7.2699999479509589
 30
0.0
 11
-21.0
 21
9.4999999479509594
 31
0.0
  0
LINE
  5
18DD
  8
250
  6
CONTINUOUS
 10
-21.0
 20
9.4999999479509594
 30
0.0
 11
-21.0
 21
7.2699999479509589
 31
0.0
  0
LINE
  5
18DE
  8
250
  6
CONTINUOUS
 10
-20.628333333333341
 20
-7.2699997229266069
 30
0.0
 11
-21.0
 21
-9.4999997229266082
 31
0.0
  0
LINE
  5
18DF
  8
250
  6
CONTINUOUS
 10
-21.37166666666667
 20
-7.2699997229266069
 30
0.0
 11
-21.0
 21
-9.4999997229266082
 31
0.0
  0
LINE
  5
18E0
  8
250
  6
CONTINUOUS
 10
-21.0
 20
-9.4999997229266082
 30
0.0
 11
-21.0
 21
-7.2699997229266069
 31
0.0
  0
TEXT
  5
18E1
  8
250
  6
CONTINUOUS
 10
11.27766781442439
 20
22.62699232511736
 30
0.0
 40
2.799999999999998
  1
45\U+00B0
 50
18.107756505035649
  0
LINE
  5
18E2
  8
250
  6
CONTINUOUS
 10
12.68603265305061
 20
21.067250804294979
 30
0.0
 11
10.74078234070072
 21
19.915279739808621
 31
0.0
  0
LINE
  5
18E3
  8
250
  6
CONTINUOUS
 10
12.20727175038747
 20
21.63587409130108
 30
0.0
 11
10.74078234070072
 21
19.915279739808621
 31
0.0
  0
LINE
  5
18E4
  8
250
  6
CONTINUOUS
 10
10.74078234070072
 20
19.915279739808621
 30
0.0
 11
12.44665220171904
 21
21.351562447798031
 31
0.0
  0
LINE
  5
18E5
  8
250
  6
CONTINUOUS
 10
17.71035069223338
 20
23.91532402382343
 30
0.0
 11
19.963959231972719
 21
23.735644696339591
 31
0.0
  0
LINE
  5
18E6
  8
250
  6
CONTINUOUS
 10
17.773892993575888
 20
23.174711560800741
 30
0.0
 11
19.963959231972719
 21
23.735644696339591
 31
0.0
  0
LINE
  5
18E7
  8
250
  6
CONTINUOUS
 10
19.963959231972719
 20
23.735644696339591
 30
0.0
 11
17.742121842904641
 21
23.54501779231208
 31
0.0
  0
TEXT
  5
18E8
  8
250
  6
CONTINUOUS
 10
7.3147914401488352
 20
29.0
 30
0.0
 40
2.799999999999998
  1
20
  0
LINE
  5
18E9
  8
250
  6
CONTINUOUS
 10
17.732916213631
 20
28.371666666666659
 30
0.0
 11
19.962916213631001
 21
28.0
 31
0.0
  0
LINE
  5
18EA
  8
250
  6
CONTINUOUS
 10
17.732916213631
 20
27.62833333333333
 30
0.0
 11
19.962916213631001
 21
28.0
 31
0.0
  0
LINE
  5
18EB
  8
250
  6
CONTINUOUS
 10
19.962916213631001
 20
28.0
 30
0.0
 11
17.732916213631
 21
28.0
 31
0.0
  0
LINE
  5
18EC
  8
250
  6
CONTINUOUS
 10
2.2299999999999991
 20
27.62833333333333
 30
0.0
 11
0.0000000000000011
 21
28.0
 31
0.0
  0
LINE
  5
18ED
  8
250
  6
CONTINUOUS
 10
2.2299999999999991
 20
28.371666666666659
 30
0.0
 11
0.0000000000000011
 21
28.0
 31
0.0
  0
LINE
  5
18EE
  8
250
  6
CONTINUOUS
 10
0.0000000000000011
 20
28.0
 30
0.0
 11
2.2299999999999991
 21
28.0
 31
0.0
  0
TEXT
  5
18EF
  8
250
  6
CONTINUOUS
 10
40.838282923057307
 20
-3.7999999999999989
 30
0.0
 40
2.799999999999998
  1
\U+220532
 50
90.0
  0
LINE
  5
18F0
  8
250
  6
CONTINUOUS
 10
41.628333333333337
 20
13.769999999999991
 30
0.0
 11
42.000000000000007
 21
15.99999999999998
 31
0.0
  0
LINE
  5
18F1
  8
250
  6
CONTINUOUS
 10
42.371666666666663
 20
13.769999999999991
 30
0.0
 11
42.000000000000007
 21
15.99999999999998
 31
0.0
  0
LINE
  5
18F2
  8
250
  6
CONTINUOUS
 10
42.000000000000007
 20
15.99999999999998
 30
0.0
 11
42.000000000000007
 21
13.769999999999991
 31
0.0
  0
TEXT
  5
18F3
  8
250
  6
CONTINUOUS
 10
33.838282923057307
 20
-3.7999999999999949
 30
0.0
 40
2.799999999999998
  1
\U+220522
 50
90.0
  0
LINE
  5
18F4
  8
250
  6
CONTINUOUS
 10
34.62833333333333
 20
8.7699999999999942
 30
0.0
 11
35.0
 21
10.99999999999998
 31
0.0
  0
LINE
  5
18F5
  8
250
  6
CONTINUOUS
 10
35.37166666666667
 20
8.7699999999999942
 30
0.0
 11
35.0
 21
10.99999999999998
 31
0.0
  0
LINE
  5
18F6
  8
250
  6
CONTINUOUS
 10
35.0
 20
10.99999999999998
 30
0.0
 11
35.0
 21
8.7699999999999942
 31
0.0
  0
TEXT
  5
18F7
  8
250
  6
CONTINUOUS
 10
48.0
 20
-5.8952380952380974
 30
0.0
 40
3.0
  1
\U+2205
 50
90.0
  0
TEXT
  5
18F8
  8
250
  6
CONTINUOUS
 10
47.899999999999999
 20
-3.180952380952383
 30
0.0
 40
2.799999999999998
  1
32.7
 50
90.0
  0
LINE
  5
18F9
  8
250
  6
CONTINUOUS
 10
48.628333333333337
 20
14.11999999999998
 30
0.0
 11
49.000000000000007
 21
16.34999999999998
 31
0.0
  0
LINE
  5
18FA
  8
250
  6
CONTINUOUS
 10
49.371666666666677
 20
14.11999999999998
 30
0.0
 11
49.000000000000007
 21
16.34999999999998
 31
0.0
  0
LINE
  5
18FB
  8
250
  6
CONTINUOUS
 10
49.000000000000007
 20
16.34999999999998
 30
0.0
 11
49.000000000000007
 21
14.11999999999998
 31
0.0
  0
LINE
  5
18FC
  8
250
  6
CONTINUOUS
 10
49.371666666666663
 20
-14.119999999999999
 30
0.0
 11
48.999999999999993
 21
-16.350000000000001
 31
0.0
  0
LINE
  5
18FD
  8
250
  6
CONTINUOUS
 10
48.628333333333323
 20
-14.119999999999999
 30
0.0
 11
48.999999999999993
 21
-16.350000000000001
 31
0.0
  0
LINE
  5
18FE
  8
250
  6
CONTINUOUS
 10
48.999999999999993
 20
-16.350000000000001
 30
0.0
 11
48.999999999999993
 21
-14.119999999999999
 31
0.0
  0
LINE
  5
1F96
  8
241
  6
CONTINUOUS
 10
12.39780522882937
 20
12.05433209246695
 30
0.0
 11
7.6264943927526332
 21
8.6805050219475977
 31
0.0
  0
LINE
  5
1F97
  8
241
  6
CONTINUOUS
 10
19.075417891144731
 20
9.0327053261650008
 30
0.0
 11
19.500000402331342
 21
7.9439946733523374
 31
0.0
  0
LINE
  5
1F98
  8
240
  6
CONTINUOUS
 10
19.500000402331342
 20
7.9439946733523374
 30
0.0
 11
19.863536581397039
 21
7.0118184757847049
 31
0.0
  0
LINE
  5
1F99
  8
241
  6
CONTINUOUS
 10
19.96395923197268
 20
6.4340260947779191
 30
0.0
 11
14.30710591375826
 21
10.43402613596848
 31
0.0
  0
LINE
  5
1F9A
  8
241
  6
CONTINUOUS
 10
12.89289258420466
 20
10.43402613596848
 30
0.0
 11
7.2360392659902431
 21
6.4340260947779191
 31
0.0
  0
LINE
  5
1F9B
  8
241
  6
CONTINUOUS
 10
6.599999964237198
 20
4.9963715323125628
 30
0.0
 11
6.599999964237198
 21
9.499999947950954
 31
0.0
  0
LINE
  5
1F9C
  8
240
  6
CONTINUOUS
 10
19.96395923197268
 20
-8.5553466021837608
 30
0.0
 11
19.500000402331342
 21
-8.8834160246313161
 31
0.0
  0
LINE
  5
1F9D
  8
241
  6
CONTINUOUS
 10
19.500000402331342
 20
-8.8834150908264569
 30
0.0
 11
14.30710591375826
 21
-12.555346602215341
 31
0.0
  0
LINE
  5
1F9E
  8
241
  6
CONTINUOUS
 10
14.30710591375826
 20
1.434025971261377
 30
0.0
 11
19.500000402331331
 21
5.105957596000084
 31
0.0
  0
LINE
  5
1F9F
  8
240
  6
CONTINUOUS
 10
19.500000402331331
 20
5.105957596000084
 30
0.0
 11
19.96395923197268
 21
5.4340260947700161
 31
0.0
  0
LINE
  5
2042
  8
240
  6
CONTINUOUS
 10
19.96395923197268
 20
-7.5553467668120211
 30
0.0
 11
19.96395923197268
 21
-8.5553466021837608
 31
0.0
  0
LINE
  5
2043
  8
241
  6
CONTINUOUS
 10
19.086664542555791
 20
-6.5085257340116964
 30
0.0
 11
19.863536581397039
 21
-7.9764635891536919
 31
0.0
  0
LINE
  5
2044
  8
241
  6
CONTINUOUS
 10
19.863536581397039
 20
-7.9764635891536919
 30
0.0
 11
19.96395923197268
 21
-8.5553466021837608
 31
0.0
  0
LINE
  5
2045
  8
240
  6
CONTINUOUS
 10
19.500000402331342
 20
-10.54580396300662
 30
0.0
 11
19.500000402331342
 21
-8.8834150908264569
 31
0.0
  0
LINE
  5
20C9
  8
240
  6
CONTINUOUS
 10
19.500000402331342
 20
-5.2568907737836801
 30
0.0
 11
19.500000402331331
 21
5.1059575960000894
 31
0.0
  0
LINE
  5
20CA
  8
240
  6
CONTINUOUS
 10
19.96395923197268
 20
-7.5553467668120211
 30
0.0
 11
19.57350410521029
 21
-5.3088677161652242
 31
0.0
  0
LINE
  5
20CB
  8
240
  6
CONTINUOUS
 10
19.500000402331342
 20
-5.2568907737836801
 30
0.0
 11
19.57350410521029
 21
-5.3088677161652242
 31
0.0
  0
LINE
  5
20CC
  8
240
  6
CONTINUOUS
 10
19.863536581397039
 20
7.0118184757847049
 30
0.0
 11
19.96395923197268
 21
6.4340260947779191
 31
0.0
  0
LINE
  5
20CD
  8
240
  6
CONTINUOUS
 10
19.96395923197268
 20
5.4340260947700161
 30
0.0
 11
19.96395923197268
 21
6.4340260947779191
 31
0.0
  0
LINE
  5
20CF
  8
240
  6
CONTINUOUS
 10
0.0
 20
-9.4999997229266153
 30
0.0
 11
0.0
 21
-5.4999999999999991
 31
0.0
  0
LINE
  5
20D0
  8
241
  6
CONTINUOUS
 10
14.20000009238718
 20
-9.9921234482970647
 30
0.0
 11
14.20000009238718
 21
-4.3919439290200151
 31
0.0
  0
LINE
  5
2113
  8
241
  6
CONTINUOUS
 10
12.99999840557574
 20
-9.9921234482970647
 30
0.0
 11
12.99999840557574
 21
-4.3919439290200151
 31
0.0
  0
LINE
  5
2114
  8
241
  6
CONTINUOUS
 10
6.599999964237198
 20
-9.4999997229266153
 30
0.0
 11
6.599999964237198
 21
3.6808612523119351
 31
0.0
  0
LINE
  5
2157
  8
241
  6
CONTINUOUS
 10
12.89289258420466
 20
-12.555346602215341
 30
0.0
 11
6.7549189395001701
 21
-8.2151431007461575
 31
0.0
  0
LINE
  5
2158
  8
241
  6
CONTINUOUS
 10
12.367097688063319
 20
-9.5405059774701115
 30
0.0
 11
12.893663719296439
 21
-11.90599800974206
 31
0.0
  0
LINE
  5
2159
  8
241
  6
CONTINUOUS
 10
14.20000009238718
 20
-9.9921234482970647
 30
0.0
 11
12.893663719296439
 21
-11.90599800974206
 31
0.0
  0
LINE
  5
215A
  8
241
  6
CONTINUOUS
 10
14.30710591375826
 20
-12.555346602215341
 30
0.0
 11
14.30397340857235
 21
-9.9181386401406222
 31
0.0
  0
LINE
  5
215B
  8
241
  6
CONTINUOUS
 10
12.893663719296439
 20
-11.90599800974206
 30
0.0
 11
12.89289258420466
 21
-12.555346602215341
 31
0.0
  0
LINE
  5
215C
  8
241
  6
CONTINUOUS
 10
14.30710591375826
 20
-12.555346602215341
 30
0.0
 11
12.89289258420466
 21
-12.555346602215341
 31
0.0
  0
LINE
  5
215D
  8
240
  6
CONTINUOUS
 10
14.20000009238718
 20
-15.281388300287229
 30
0.0
 11
12.99999840557574
 21
-15.281388300287229
 31
0.0
  0
LINE
  5
215E
  8
241
  6
CONTINUOUS
 10
12.99999840557574
 20
-9.9921234482970647
 30
0.0
 11
14.20000009238718
 21
-9.9921234482970647
 31
0.0
  0
LINE
  5
215F
  8
241
  6
CONTINUOUS
 10
14.20000009238718
 20
-4.3919439290200151
 30
0.0
 11
12.99999840557574
 21
-4.3919439290200151
 31
0.0
  0
LINE
  5
2160
  8
241
  6
CONTINUOUS
 10
13.43503035604952
 20
0.0707105881942027
 30
0.0
 11
13.7649718672037
 21
0.0707105881942027
 31
0.0
  0
LINE
  5
21A5
  8
241
  6
CONTINUOUS
 10
7.2360392659902431
 20
5.4340260947700161
 30
0.0
 11
12.89289258420466
 21
1.434025971261377
 31
0.0
  0
LINE
  5
21A6
  8
241
  6
CONTINUOUS
 10
12.89289258420466
 20
1.434025971261377
 30
0.0
 11
14.30710591375826
 21
1.434025971261377
 31
0.0
  0
LINE
  5
21A7
  8
241
  6
CONTINUOUS
 10
7.2360392659902431
 20
6.4340260947779191
 30
0.0
 11
7.6264943927526332
 21
8.6805050219475977
 31
0.0
  0
LINE
  5
21A8
  8
241
  6
CONTINUOUS
 10
7.2360392659902431
 20
6.4340260947779191
 30
0.0
 11
7.2360392659902431
 21
5.4340260947700161
 31
0.0
  0
LINE
  5
21A9
  8
241
  6
CONTINUOUS
 10
19.075417891144731
 20
9.0327053261650008
 30
0.0
 11
14.304107055068
 21
12.406532232048249
 31
0.0
  0
LINE
  5
21AA
  8
240
  6
CONTINUOUS
 10
19.500000402331342
 20
7.9439946733523419
 30
0.0
 11
19.500000402331342
 21
10.60000009613216
 31
0.0
  0
LINE
  5
21ED
  8
241
  6
CONTINUOUS
 10
14.20000009238718
 20
12.39579145344109
 30
0.0
 11
14.20000009238718
 21
15.281388360675431
 31
0.0
  0
LINE
  5
21EE
  8
241
  6
CONTINUOUS
 10
12.99999840557574
 20
12.16842887309044
 30
0.0
 11
12.99999840557574
 21
15.281388360675431
 31
0.0
  0
LINE
  5
21EF
  8
241
  6
CONTINUOUS
 10
12.39780522882937
 20
12.05433209246695
 30
0.0
 11
14.25668783485888
 21
12.406532232048249
 31
0.0
  0
LINE
  5
21F0
  8
241
  6
CONTINUOUS
 10
12.39780522882937
 20
12.05433209246695
 30
0.0
 11
12.893663719296439
 21
10.94135310216822
 31
0.0
  0
LINE
  5
21F1
  8
241
  6
CONTINUOUS
 10
14.25668783485888
 20
12.406532232048249
 30
0.0
 11
14.304107055068
 21
12.406532232048249
 31
0.0
  0
LINE
  5
21F3
  8
241
  6
CONTINUOUS
 10
12.893663719296439
 20
10.94135310216822
 30
0.0
 11
12.89289258420466
 21
10.43402613596848
 31
0.0
  0
LINE
  5
21F4
  8
241
  6
CONTINUOUS
 10
14.30710591375826
 20
10.43402613596848
 30
0.0
 11
14.304107055068
 21
12.406532232048249
 31
0.0
  0
LINE
  5
21F5
  8
241
  6
CONTINUOUS
 10
14.30710591375826
 20
10.43402613596848
 30
0.0
 11
12.89289258420466
 21
10.43402613596848
 31
0.0
  0
LINE
  5
21F6
  8
240
  6
CONTINUOUS
 10
14.20000009238718
 20
15.281388360675431
 30
0.0
 11
12.99999840557574
 21
15.281388360675431
 31
0.0
  0
LINE
  5
21F7
  8
245
  6
CENTER2
 10
-15.192564580976081
 20
0.0
 30
0.0
 11
21.453942927931831
 21
0.0
 31
0.0
  0
LINE
  5
21F8
  8
246
  6
PHANTOM2
 10
19.962916213631001
 20
10.69314481914043
 30
0.0
 11
14.30606208050933
 21
16.349999999999991
 31
0.0
  0
LINE
  5
21F9
  8
246
  6
PHANTOM2
 10
14.30606208050933
 20
16.349999999999991
 30
0.0
 11
12.89184828529444
 21
16.349999999999991
 31
0.0
  0
LINE
  5
21FA
  8
246
  6
PHANTOM2
 10
12.89184828529444
 20
16.349999999999991
 30
0.0
 11
7.2349940357574489
 21
10.69314481914043
 31
0.0
  0
LINE
  5
21FB
  8
246
  6
PHANTOM2
 10
7.2349940357574489
 20
10.69314481914043
 30
0.0
 11
7.2349940357574489
 21
10.073616863780719
 31
0.0
  0
LINE
  5
21FC
  8
246
  6
PHANTOM2
 10
19.962916213631001
 20
9.2789314895868245
 30
0.0
 11
19.962916213631001
 21
10.69314481914043
 31
0.0
  0
LINE
  5
21FD
  8
246
  6
PHANTOM2
 10
19.962916213631001
 20
9.2789314895868245
 30
0.0
 11
19.500000402331342
 21
8.8160162082782261
 31
0.0
  0
LINE
  5
21FE
  8
246
  6
PHANTOM2
 10
19.962916213631001
 20
-9.2789314895868245
 30
0.0
 11
19.962916213631001
 21
-10.69314481914043
 31
0.0
  0
LINE
  5
21FF
  8
246
  6
PHANTOM2
 10
19.962916213631001
 20
-10.69314481914043
 30
0.0
 11
14.30606208050933
 21
-16.349999999999991
 31
0.0
  0
LINE
  5
2200
  8
246
  6
PHANTOM2
 10
14.30606208050933
 20
-16.349999999999991
 30
0.0
 11
12.89184828529444
 21
-16.349999999999991
 31
0.0
  0
LINE
  5
2201
  8
246
  6
PHANTOM2
 10
12.89184828529444
 20
-16.349999999999991
 30
0.0
 11
7.2349940357574489
 21
-10.69314481914043
 31
0.0
  0
LINE
  5
2202
  8
246
  6
PHANTOM2
 10
7.2349940357574489
 20
-10.69314481914043
 30
0.0
 11
7.2349940357574489
 21
-10.134994291086141
 31
0.0
  0
LINE
  5
2203
  8
246
  6
PHANTOM2
 10
19.962916213631001
 20
-9.2789314895868245
 30
0.0
 11
19.539482489730901
 21
-8.8554982504748487
 31
0.0
  0
LINE
  5
2204
  8
240
  6
CONTINUOUS
 10
12.99999840557574
 20
15.281388360675431
 30
0.0
 11
6.599999964237198
 21
9.499999947950954
 31
0.0
  0
LINE
  5
2205
  8
240
  6
CONTINUOUS
 10
14.200000092387191
 20
15.281388360675431
 30
0.0
 11
19.500000402331342
 21
10.60000009613216
 31
0.0
  0
ARC
  5
2288
  8
241
  6
CONTINUOUS
 10
15.380867544717519
 20
-3.4683583594981511
 30
0.0
 40
5.7635836361182244
 50
48.843118183386594
 51
57.070273634695781
  0
ARC
  5
2289
  8
241
  6
CONTINUOUS
 10
5.3603594087093294
 20
8.9441976591164103
 30
0.0
 40
15.99974749411235
 50
303.53774868533958
 51
329.69676728763278
  0
ARC
  5
228A
  8
241
  6
CONTINUOUS
 10
21.935022300862311
 20
9.0770609186964393
 30
0.0
 40
16.163191009115479
 50
203.33790200407259
 51
236.44063181556021
  0
ARC
  5
228B
  8
241
  6
CONTINUOUS
 10
9.2721146513671187
 20
4.3677126195488443
 30
0.0
 40
2.7589783800984402
 50
137.55976477899401
 51
217.87233005714191
  0
LINE
  5
228C
  8
241
  6
CONTINUOUS
 10
19.500000402331342
 20
-5.8183941387036091
 30
0.0
 11
19.086664542555791
 21
-6.5085257340116964
 31
0.0
  0
ARC
  5
228E
  8
241
  6
CONTINUOUS
 10
13.680536154876361
 20
9.6925302601666647
 30
0.0
 40
9.6249512206904964
 50
226.81981471489379
 51
300.14443646110732
  0
LINE
  5
2353
  8
240
  6
CONTINUOUS
 10
19.500000402331342
 20
-10.54580396300662
 30
0.0
 11
14.20000009238718
 21
-15.281388300287229
 31
0.0
  0
LINE
  5
2354
  8
240
  6
CONTINUOUS
 10
12.99999840557574
 20
-15.281388300287229
 30
0.0
 11
6.599999964237198
 21
-9.4999997229266153
 31
0.0
  0
LINE
  5
2411
  8
240
  6
CONTINUOUS
 10
-0.0000000000000302
 20
9.4999997229266278
 30
0.0
 11
-0.0000000000000175
 21
5.500000000000008
 31
0.0
  0
LINE
  5
2412
  8
241
  6
CONTINUOUS
 10
-0.0000000000000018
 20
5.4999999999999991
 30
0.0
 11
-0.0000000000000009
 21
-5.4999999999999982
 31
0.0
  0
LINE
  5
2413
  8
241
  6
CONTINUOUS
 10
19.500000402331342
 20
-5.2568907737836801
 30
0.0
 11
19.500000402331342
 21
-5.8183941387036091
 31
0.0
  0
LINE
  5
2582
  8
250
  6
CONTINUOUS
 10
-11.70322678
 20
-13.95021839
 30
0.0
 11
-23.96989344
 21
-13.95021839
 31
0.0
1001
ITEMNAME
1000
LNSP2
  0
LINE
  5
2583
  8
247
  6
CONTINUOUS
 10
3.9999999999999489
 20
-6.5000000000006271
 30
0.0
 11
3.9999999999999978
 21
-2.792307692536645
 31
0.0
  0
LINE
  5
2584
  8
247
  6
CONTINUOUS
 10
1.999999999999998
 20
-5.8639147999909804
 30
0.0
 11
3.6799999999328041
 21
-6.3456470480465121
 31
0.0
  0
LINE
  5
2585
  8
247
  6
CONTINUOUS
 10
2.7969230768911948
 20
-5.3601211228158521
 30
0.0
 11
2.7969230768911948
 21
-6.0924288150942543
 31
0.0
  0
ARC
  5
2586
  8
247
  6
CONTINUOUS
 10
2.3077752538352772
 20
-5.1698107215580684
 30
0.0
 40
0.3101372647461394
 50
72.997889675292015
 51
172.92416621851231
  0
ARC
  5
2587
  8
247
  6
CONTINUOUS
 10
2.2441785048224099
 20
-5.4059820454439107
 30
0.0
 40
0.5546438372287014
 50
4.7429368522013924
 51
73.849226273266353
1001
GENIUS_GENOBJ-N-FIL_13
1002
{
1000
OWNER
1000
GEN
1002
}
1001
GENIUS_GENODEF_13
1002
{
1000
HIER
1070
     0
1002
}
1002
{
1000
MANEDIT
1070
     0
1002
}
1002
{
1000
NOSEL
1070
     0
1002
}
1002
{
1000
BEHIND
1070
     0
1002
}
1002
{
1000
OTHER
1070
     0
1002
}
1002
{
1000
REACTOR
1002
}
  0
LINE
  5
2588
  8
247
  6
CONTINUOUS
 10
3.6799999999328041
 20
-5.6133393557681091
 30
0.0
 11
3.6799999999328041
 21
-6.3456470480465121
 31
0.0
  0
LINE
  5
2589
  8
247
  6
CONTINUOUS
 10
1.999999999999998
 20
-5.8639147999909831
 30
0.0
 11
1.999999999999998
 21
-5.1316071077125844
 31
0.0
  0
ARC
  5
258A
  8
247
  6
CONTINUOUS
 10
3.1099335702142969
 20
-5.4026451810140861
 30
0.0
 40
0.3158858408603088
 50
65.990941652528889
 51
172.26344345906949
  0
ARC
  5
258B
  8
247
  6
CONTINUOUS
 10
3.1129602618660539
 20
-5.6699572883421521
 30
0.0
 40
0.5698593289889349
 50
5.701985164258085
 51
77.277338436822262
1001
GENIUS_GENOBJ-N-FIL_13
1002
{
1000
OWNER
1000
GEN
1002
}
1001
GENIUS_GENODEF_13
1002
{
1000
HIER
1070
     0
1002
}
1002
{
1000
MANEDIT
1070
     0
1002
}
1002
{
1000
NOSEL
1070
     0
1002
}
1002
{
1000
BEHIND
1070
     0
1002
}
1002
{
1000
OTHER
1070
     0
1002
}
1002
{
1000
REACTOR
1002
}
  0
LINE
  5
258C
  8
247
  6
CONTINUOUS
 10
3.6799999999328041
 20
-4.8471855096513181
 30
0.0
 11
1.999999999999998
 21
-4.3654532615957962
 31
0.0
  0
LINE
  5
258D
  8
247
  6
CONTINUOUS
 10
1.999999999999998
 20
-3.1685301847269911
 30
0.0
 11
1.999999999999998
 21
-3.4853426914434902
 31
0.0
  0
LINE
  5
258E
  8
247
  6
CONTINUOUS
 10
3.6799999999328041
 20
-3.9869917231557901
 30
0.0
 11
3.6799999999328041
 21
-3.6423763385541981
 31
0.0
  0
ARC
  5
258F
  8
247
  6
CONTINUOUS
 10
3.1666396760666848
 20
-3.0054532616565921
 30
0.0
 40
1.261484046111637
 50
202.35948814152729
 51
254.993248542846
  0
ARC
  5
2590
  8
247
  6
CONTINUOUS
 10
2.4526550868305081
 20
-3.3780090929072002
 30
0.0
 40
0.4987765437607558
 50
94.994589319075374
 51
155.16632895730359
1001
GENIUS_GENOBJ-N-FIL_13
1002
{
1000
OWNER
1000
GEN
1002
}
1001
GENIUS_GENODEF_13
1002
{
1000
HIER
1070
     0
1002
}
1002
{
1000
MANEDIT
1070
     0
1002
}
1002
{
1000
NOSEL
1070
     0
1002
}
1002
{
1000
BEHIND
1070
     0
1002
}
1002
{
1000
OTHER
1070
     0
1002
}
1002
{
1000
REACTOR
1002
}
  0
ARC
  5
2591
  8
247
  6
CONTINUOUS
 10
2.9296816975755489
 20
-3.855347160826843
 30
0.0
 40
0.7799577719285588
 50
15.846096555779919
 51
82.325137004169136
  0
ARC
  5
2592
  8
247
  6
CONTINUOUS
 10
3.097176321576852
 20
-3.528169311018396
 30
0.0
 40
0.7417556510953607
 50
249.71360167049701
 51
321.78874565640962
1001
GENIUS_GENOBJ-N-FIL_13
1002
{
1000
OWNER
1000
GEN
1002
}
1001
GENIUS_GENODEF_13
1002
{
1000
HIER
1070
     0
1002
}
1002
{
1000
MANEDIT
1070
     0
1002
}
1002
{
1000
NOSEL
1070
     0
1002
}
1002
{
1000
BEHIND
1070
     0
1002
}
1002
{
1000
OTHER
1070
     0
1002
}
1002
{
1000
REACTOR
1002
}
  0
LINE
  5
2593
  8
247
  6
CONTINUOUS
 10
3.0338461538047778
 20
-3.470068646253393
 30
0.0
 11
3.0338461538047778
 21
-3.082376338576593
 31
0.0
  0
ARC
  5
2594
  8
247
  6
CONTINUOUS
 10
2.9999999999999978
 20
-6.5000000000006271
 30
0.0
 40
1.0
 50
180.0
 51
0.0
  0
LINE
  5
2595
  8
247
  6
CONTINUOUS
 10
1.999999999999998
 20
-6.5000000000006271
 30
0.0
 11
1.999999999999998
 21
-6.1430769231318232
 31
0.0
  0
ARC
  5
2596
  8
247
  6
CONTINUOUS
 10
2.9999999999999978
 20
-2.792307692536633
 30
0.0
 40
1.0
 50
0.0
 51
180.0
  0
LINE
  5
2597
  8
240
  6
CONTINUOUS
 10
-13.0
 20
5.5
 30
0.0
 11
-5.5059354400000009
 21
5.5
 31
0.0
  0
LINE
  5
2598
  8
240
  6
CONTINUOUS
 10
-5.5059354400000009
 20
-5.5
 30
0.0
 11
-13.0
 21
-5.5
 31
0.0
  0
LINE
  5
2599
  8
240
  6
CONTINUOUS
 10
-13.0
 20
5.5
 30
0.0
 11
-13.0
 21
-5.5
 31
0.0
  0
LINE
  5
259A
  8
240
  6
CONTINUOUS
 10
-0.0000000000000014
 20
-5.5
 30
0.0
 11
-1.49406456
 21
-5.5
 31
0.0
  0
LINE
  5
259B
  8
240
  6
CONTINUOUS
 10
-1.49406456
 20
-5.5
 30
0.0
 11
-2.180000000000001
 21
-6.6880750300000003
 31
0.0
  0
LINE
  5
259C
  8
240
  6
CONTINUOUS
 10
-5.5059354400000009
 20
-5.5
 30
0.0
 11
-4.8200000000000021
 21
-6.6880750300000003
 31
0.0
  0
LINE
  5
259D
  8
241
  6
CONTINUOUS
 10
-1.49406456
 20
-5.5
 30
0.0
 11
-5.5059354400000009
 21
-5.5
 31
0.0
  0
LINE
  5
259E
  8
240
  6
CONTINUOUS
 10
-4.8200000000000021
 20
-6.6880750300000003
 30
0.0
 11
-2.180000000000001
 21
-6.6880750300000003
 31
0.0
  0
LINE
  5
259F
  8
240
  6
CONTINUOUS
 10
-0.0000000000000014
 20
5.5
 30
0.0
 11
-1.49406456
 21
5.5
 31
0.0
  0
LINE
  5
25A0
  8
245
  6
CENTER2
 10
-5.0000000000000009
 20
3.0
 30
0.0
 11
-5.0000000000000009
 21
-3.0
 31
0.0
  0
CIRCLE
  5
25A1
  8
241
  6
CONTINUOUS
 10
-5.0000000000000009
 20
0.0
 30
0.0
 40
2.0
  0
CIRCLE
  5
25A2
  8
241
  6
CONTINUOUS
 10
-5.0000000000000009
 20
0.0
 30
0.0
 40
1.5
  0
LINE
  5
25A3
  8
240
  6
CONTINUOUS
 10
-4.8200000000000021
 20
6.6880750300000003
 30
0.0
 11
-2.180000000000001
 21
6.6880750300000003
 31
0.0
  0
LINE
  5
25A4
  8
241
  6
CONTINUOUS
 10
-1.49406456
 20
5.5
 30
0.0
 11
-5.5059354400000009
 21
5.5
 31
0.0
  0
LINE
  5
25A5
  8
240
  6
CONTINUOUS
 10
-5.5059354400000009
 20
5.5
 30
0.0
 11
-4.8200000000000021
 21
6.6880750300000003
 31
0.0
  0
LINE
  5
25A6
  8
240
  6
CONTINUOUS
 10
-1.49406456
 20
5.5
 30
0.0
 11
-2.180000000000001
 21
6.6880750300000003
 31
0.0
  0
TEXT
  5
25A7
  8
250
  6
CONTINUOUS
 10
-21.569893440000001
 20
-12.95021839
 30
0.0
 40
2.799999999999998
  1
CK1
  7
YOKO
1001
ITEMNAME
1000
LNSP3
1001
ACAD
1000
MTEXTBEGIN
1070
    73
1070
     1
1070
    44
1040
1.0
1070
    74
1070
     0
1000
MTEXTEND
1000
MTEXTBEGIN
1070
    73
1070
     1
1070
    44
1040
1.0
1070
    74
1070
     0
1000
MTEXTEND
  0
LINE
  5
25A8
  8
250
  6
CONTINUOUS
 10
-7.9394909113408101
 20
-7.4312366496651769
 30
0.0
 11
-11.70322678
 21
-13.95021839
 31
0.0
1001
ACAD
1000
DSTYLE
1002
{
1070
     6
1000
OPEN
1070
   343
1005
0
1002
}
  0
LINE
  5
25A9
  8
250
  6
CONTINUOUS
 10
-8.2613636927224618
 20
-7.2454033123917121
 30
0.0
 11
-6.824490909999998
 21
-5.5
 31
0.0
  0
LINE
  5
25AA
  8
250
  6
CONTINUOUS
 10
-7.6176181299591601
 20
-7.6170699869386462
 30
0.0
 11
-6.824490909999998
 21
-5.5
 31
0.0
  0
LINE
  5
25AB
  8
250
  6
CONTINUOUS
 10
-6.824490909999998
 20
-5.5
 30
0.0
 11
-7.9394909113408101
 21
-7.4312366496651769
 31
0.0
  0
LINE
  5
25AC
  8
241
  6
CONTINUOUS
 10
19.174014732078081
 20
0.8711036746194873
 30
0.0
 11
19.505149985859699
 21
0.8711036746194873
 31
0.0
  0
ARC
  5
25AD
  8
241
  6
CONTINUOUS
 10
10.44042443227189
 20
5.4980205419481694
 30
0.0
 40
9.0680554757270784
 50
332.91506069285168
 51
357.52200936039799
  0
LINE
  5
25AE
  8
241
  6
CONTINUOUS
 10
14.20000009238718
 20
-9.9921234482970647
 30
0.0
 11
19.086664542555791
 21
-6.5085257340116964
 31
0.0
  0
LINE
  5
25AF
  8
240
  6
CONTINUOUS
 10
-0.0000000000000302
 20
9.4999997229266278
 30
0.0
 11
6.599999964237198
 21
9.499999947950954
 31
0.0
  0
LINE
  5
25B0
  8
240
  6
CONTINUOUS
 10
6.599999964237198
 20
-9.4999997229266153
 30
0.0
 11
0.0
 21
-9.4999997229266153
 31
0.0
  0
LINE
  5
25B1
  8
241
  6
CONTINUOUS
 10
6.957889999999999
 20
-5.6806700000000001
 30
0.0
 11
12.99999840557574
 21
-9.9921234482970647
 31
0.0
  0
LINE
  5
25B9
  8
241
  6
CONTINUOUS
 10
6.957889999999999
 20
-5.6806700000000001
 30
0.0
 11
6.7549189395001701
 21
-8.2151431007461575
 31
0.0
  0
VIEWPORT
  5
22
 67
     1
  8
0
 10
261.51769911504419
 20
148.5
 30
0.0
 40
523.0353982300885
 41
297.0
 68
     1
 69
     1
1001
ACAD
1000
MVIEW
1002
{
1070
    16
1010
0.0
1020
0.0
1030
0.0
1010
0.0
1020
0.0
1030
1.0
1040
0.0
1040
297.0
1040
261.51769911504419
1040
148.5
1040
50.0
1040
0.0
1040
0.0
1070
     0
1070
   100
1070
     1
1070
     1
1070
     0
1070
     0
1070
     0
1070
     0
1040
0.0
1040
0.0
1040
0.0
1040
1.0
1040
1.0
1040
10.0
1040
10.0
1070
     0
1002
{
1002
}
1002
}
1001
GENIUS_GENODEF_13
1002
{
1000
HIER
1070
     0
1002
}
1002
{
1000
MANEDIT
1070
     0
1002
}
1002
{
1000
NOSEL
1070
     0
1002
}
1002
{
1000
BEHIND
1070
     0
1002
}
1002
{
1000
OTHER
1070
     0
1002
}
1002
{
1000
REACTOR
1002
}
1001
GENIUS_GENOBJ-N-SDF_13
1002
{
1000
OWNER
1000
GEN
1002
}
1001
GENIUS_GENSCREG_15
1000
PF
1040
1.0
1000
DF
1040
1.0
1000
MIN
1011
0.0
1021
0.0
1031
0.0
1021
0.0
1031
0.0
1000
MAX
1011
523.0353982300885
1021
0.0
1031
0.0
1021
297.0
1031
0.0
1000
FLAGS
1070
     4
  0
ENDSEC
  0
EOF
