  0
SECTION
  2
HEADER
  9
$ACADVER
  1
AC1009
  9
$INSBASE
 10
0.0
 20
0.0
 30
0.0
  9
$EXTMIN
 10
-43.727460598879809
 20
-50.083871244769433
 30
0.0
  9
$EXTMAX
 10
155.0
 20
75.000000000000043
 30
0.0
  9
$LIMMIN
 10
0.0
 20
0.0
  9
$LIMMAX
 10
297.0
 20
210.0
  9
$ORTHOMODE
 70
     0
  9
$REGENMODE
 70
     1
  9
$FILLMODE
 70
     1
  9
$QTEXTMODE
 70
     0
  9
$MIRRTEXT
 70
     1
  9
$DRAGMODE
 70
     2
  9
$LTSCALE
 40
10.0
  9
$OSMODE
 70
    39
  9
$ATTMODE
 70
     1
  9
$TEXTSIZE
 40
3.0
  9
$TRACEWID
 40
1.0
  9
$TEXTSTYLE
  7
YOKO
  9
$CLAYER
  8
240
  9
$CELTYPE
  6
BYLAYER
  9
$CECOLOR
 62
   256
  9
$DIMSCALE
 40
1.0
  9
$DIMASZ
 40
2.2299999999999991
  9
$DIMEXO
 40
0.5
  9
$DIMDLI
 40
2.5
  9
$DIMRND
 40
0.0
  9
$DIMDLE
 40
0.0
  9
$DIMEXE
 40
1.0
  9
$DIMTP
 40
0.0
  9
$DIMTM
 40
0.0
  9
$DIMTXT
 40
3.0
  9
$DIMCEN
 40
0.0
  9
$DIMTSZ
 40
0.0
  9
$DIMTOL
 70
     0
  9
$DIMLIM
 70
     0
  9
$DIMTIH
 70
     0
  9
$DIMTOH
 70
     0
  9
$DIMSE1
 70
     0
  9
$DIMSE2
 70
     0
  9
$DIMTAD
 70
     3
  9
$DIMZIN
 70
     8
  9
$DIMBLK
  1
OPEN
  9
$DIMASO
 70
     1
  9
$DIMSHO
 70
     1
  9
$DIMPOST
  1

  9
$DIMAPOST
  1

  9
$DIMALT
 70
     0
  9
$DIMALTD
 70
     2
  9
$DIMALTF
 40
25.399999999999999
  9
$DIMLFAC
 40
1.0
  9
$DIMTOFL
 70
     1
  9
$DIMTVP
 40
0.0
  9
$DIMTIX
 70
     0
  9
$DIMSOXD
 70
     0
  9
$DIMSAH
 70
     0
  9
$DIMBLK1
  1

  9
$DIMBLK2
  1

  9
$DIMSTYLE
  2
BIGT
  9
$DIMCLRD
 70
   256
  9
$DIMCLRE
 70
   256
  9
$DIMCLRT
 70
    40
  9
$DIMTFAC
 40
1.0
  9
$DIMGAP
 40
1.0
  9
$LUNITS
 70
     2
  9
$LUPREC
 70
     2
  9
$SKETCHINC
 40
1.0
  9
$FILLETRAD
 40
0.0
  9
$AUNITS
 70
     0
  9
$AUPREC
 70
     3
  9
$MENU
  1
.
  9
$ELEVATION
 40
0.0
  9
$PELEVATION
 40
0.0
  9
$THICKNESS
 40
0.0
  9
$LIMCHECK
 70
     0
  9
$BLIPMODE
 70
     0
  9
$CHAMFERA
 40
10.0
  9
$CHAMFERB
 40
10.0
  9
$SKPOLY
 70
     0
  9
$TDCREATE
 40
2452308.6893301508
  9
$TDUPDATE
 40
2460614.4704425349
  9
$TDINDWG
 40
0.016192419
  9
$TDUSRTIMER
 40
0.0161923495
  9
$USRTIMER
 70
     1
  9
$ANGBASE
 50
0.0
  9
$ANGDIR
 70
     0
  9
$PDMODE
 70
    35
  9
$PDSIZE
 40
-5.0
  9
$PLINEWID
 40
0.0
  9
$COORDS
 70
     1
  9
$SPLFRAME
 70
     0
  9
$SPLINETYPE
 70
     6
  9
$SPLINESEGS
 70
     8
  9
$ATTDIA
 70
     1
  9
$ATTREQ
 70
     1
  9
$HANDLING
 70
     1
  9
$HANDSEED
  5
1505
  9
$SURFTAB1
 70
     6
  9
$SURFTAB2
 70
     6
  9
$SURFTYPE
 70
     6
  9
$SURFU
 70
     6
  9
$SURFV
 70
     6
  9
$UCSNAME
  2

  9
$UCSORG
 10
0.0
 20
0.0
 30
0.0
  9
$UCSXDIR
 10
1.0
 20
0.0
 30
0.0
  9
$UCSYDIR
 10
0.0
 20
1.0
 30
0.0
  9
$PUCSNAME
  2

  9
$PUCSORG
 10
0.0
 20
0.0
 30
0.0
  9
$PUCSXDIR
 10
1.0
 20
0.0
 30
0.0
  9
$PUCSYDIR
 10
0.0
 20
1.0
 30
0.0
  9
$USERI1
 70
     1
  9
$USERI2
 70
     0
  9
$USERI3
 70
     0
  9
$USERI4
 70
     0
  9
$USERI5
 70
     0
  9
$USERR1
 40
0.0
  9
$USERR2
 40
0.0
  9
$USERR3
 40
0.0
  9
$USERR4
 40
0.0
  9
$USERR5
 40
0.0
  9
$WORLDVIEW
 70
     1
  9
$SHADEDGE
 70
     3
  9
$SHADEDIF
 70
    70
  9
$TILEMODE
 70
     1
  9
$MAXACTVP
 70
    16
  9
$PLIMCHECK
 70
     0
  9
$PEXTMIN
 10
1.0000000000000000E+020
 20
1.0000000000000000E+020
 30
1.0000000000000000E+020
  9
$PEXTMAX
 10
-1.0000000000000000E+020
 20
-1.0000000000000000E+020
 30
-1.0000000000000000E+020
  9
$PLIMMIN
 10
0.0
 20
0.0
  9
$PLIMMAX
 10
420.0
 20
297.0
  9
$UNITMODE
 70
     0
  9
$VISRETAIN
 70
     0
  9
$PLINEGEN
 70
     0
  9
$PSLTSCALE
 70
     1
  0
ENDSEC
  0
SECTION
  2
TABLES
  0
TABLE
  2
VPORT
 70
     1
  0
VPORT
  2
*ACTIVE
 70
     0
 10
0.0
 20
0.0
 11
1.0
 21
1.0
 12
59.939259748766943
 22
9.4220785902525677
 13
0.0
 23
0.0
 14
7.0
 24
7.0
 15
7.0
 25
7.0
 16
0.0
 26
0.0
 36
1.0
 17
0.0
 27
0.0
 37
0.0
 40
226.8172395295901
 41
1.867549668874172
 42
50.0
 43
0.0
 44
0.0
 50
0.0
 51
0.0
 71
     0
 72
  2000
 73
     1
 74
     0
 75
     1
 76
     1
 77
     0
 78
     0
  0
ENDTAB
  0
TABLE
  2
LTYPE
 70
    18
  0
LTYPE
  2
CONTINUOUS
 70
     0
  3
Solid line
 72
    65
 73
     0
 40
0.0
  0
LTYPE
  2
CENTER2
 70
     0
  3
___ _ ___ _ ___ _ ___ _ ___ _ ___ _ ___ _ ___ _
 72
    65
 73
     4
 40
1.125
 49
0.75
 49
-0.125
 49
0.125
 49
-0.125
  0
LTYPE
  2
AMCONSTR
 70
     0
  3
_______________________
 72
    65
 73
     2
 40
9999.0
 49
9999.0
 49
0.0
  0
LTYPE
  2
HIDDEN
 70
     0
  3
Hidden __ __ __ __ __ __ __ __ __ __ __ __ __ _
 72
    65
 73
     2
 40
0.375
 49
0.25
 49
-0.125
  0
LTYPE
  2
PHANTOM2
 70
     0
  3
Phantom (.5x) ___ _ _ ___ _ _ ___ _ _ ___ _ _
 72
    65
 73
     6
 40
1.25
 49
0.625
 49
-0.125
 49
0.125
 49
-0.125
 49
0.125
 49
-0.125
  0
LTYPE
  2
CENTER
 70
     0
  3
Center ____ _ ____ _ ____ _ ____ _ ____ _ ____
 72
    65
 73
     4
 40
2.0
 49
1.25
 49
-0.25
 49
0.25
 49
-0.25
  0
LTYPE
  2
HIDDEN2
 70
     0
  3
Hidden (.5x) _ _ _ _ _ _ _ _ _ _ _ _ _ _ _ _ _
 72
    65
 73
     2
 40
0.1875
 49
0.125
 49
-0.0625
  0
LTYPE
  2
AMZIGZAG2
 70
     0
  3
/\/-/\/-/\/-/\/-/\/-/\/
 72
    65
 73
     2
 40
0.4401
 49
0.0001
 49
-0.4400000000000003
  0
LTYPE
  2
ACANSTGB
 70
     0
  3
__ . . __ . .
 72
    65
 73
     6
 40
0.35433070866
 49
0.15748031496
 49
-0.03937007874
 49
0.03937007874
 49
-0.03937007874
 49
0.03937007874
 49
-0.03937007874
  0
LTYPE
  2
ACANSTGL
 70
     0
  3
_ _ _ _ _
 72
    65
 73
     2
 40
0.11811023622
 49
0.07874015748
 49
-0.03937007874
  0
ENDTAB
  0
TABLE
  2
LAYER
 70
     8
  0
LAYER
  2
0
 70
     0
 62
     7
  6
CONTINUOUS
  0
LAYER
  2
240
 70
     0
 62
     4
  6
CONTINUOUS
  0
LAYER
  2
241
 70
     0
 62
   211
  6
CONTINUOUS
  0
LAYER
  2
245
 70
     0
 62
     2
  6
CENTER2
  0
LAYER
  2
250
 70
     0
 62
     3
  6
CONTINUOUS
  0
LAYER
  2
DEFPOINTS
 70
     0
 62
     7
  6
CONTINUOUS
  0
LAYER
  2
247
 70
     0
 62
    60
  6
CONTINUOUS
  0
ENDTAB
  0
TABLE
  2
STYLE
 70
     6
  0
STYLE
  2
STANDARD
 70
     0
 40
0.0
 41
1.0
 50
0.0
 71
     0
 42
3.0
  3
romans.shx
  4
BIGFONT.SHX
  0
STYLE
  2
YOKO
 70
     0
 40
0.0
 41
1.0
 50
0.0
 71
     0
 42
3.0
  3
romans.shx
  4
extfont.shx
  0
STYLE
  2
ACANSGDT
 70
     0
 40
0.0
 41
1.0
 50
0.0
 71
     0
 42
3.0
  3
amgdt.shx
  4

  0
ENDTAB
  0
TABLE
  2
VIEW
 70
     0
  0
ENDTAB
  0
TABLE
  2
UCS
 70
     0
  0
ENDTAB
  0
TABLE
  2
APPID
 70
    23
  0
APPID
  2
ACAD
 70
     0
  0
APPID
  2
ACADANNOTATIVE
 70
     0
  0
APPID
  2
GLOBAL
 70
     0
  0
APPID
  2
DETAIL
 70
     0
  0
APPID
  2
GRPNAME
 70
     0
  0
APPID
  2
GPARA
 70
     0
  0
APPID
  2
ITEMNAME
 70
     0
  0
APPID
  2
HATCH_TYPE
 70
     0
  0
APPID
  2
HATCH_DISPLAY
 70
     0
  0
APPID
  2
HATCH_DISTANCE
 70
     0
  0
APPID
  2
MCAD_NO_VIS
 70
     0
  0
APPID
  2
ACAD_TEMP_GRAPHIC
 70
     0
  0
APPID
  2
ACATTRIBSERVICES
 70
     0
  0
APPID
  2
DESIGNERASSEMBLIES
 70
     0
  0
APPID
  2
ACAD_DSTYLE_DIMJAG
 70
     0
  0
APPID
  2
ACAD_DSTYLE_DIMBREAK
 70
     0
  0
APPID
  2
GENIUS_GENSCREG_15
 70
     0
  0
APPID
  2
GENIUS_GENOBJ-N-SDF_13
 70
     0
  0
APPID
  2
GENIUS_GENODEF_13
 70
     0
  0
APPID
  2
ACAD_NAV_VCDISPLAY
 70
     0
  0
APPID
  2
ACAD_MLEADERVER
 70
     0
  0
APPID
  2
GENIUS_GENOBJ-N-FIL_13
 70
     0
  0
APPID
  2
ACAD_EXEMPT_FROM_CAD_STANDARDS
 70
     0
  0
ENDTAB
  0
TABLE
  2
DIMSTYLE
 70
    10
  0
DIMSTYLE
  2
STANDARD
 70
     0
  3

  4

  5

  6

  7

 40
1.0
 41
2.0
 42
2.0
 43
3.75
 44
2.0
 45
0.0
 46
0.0
 47
0.0
 48
0.0
140
4.0
141
0.09
142
0.0
143
25.399999999999999
144
1.0
145
0.0
146
1.0
147
1.0
 71
     0
 72
     0
 73
     1
 74
     1
 75
     0
 76
     0
 77
     0
 78
     8
170
     0
171
     2
172
     0
173
     1
174
     0
175
     0
176
   256
177
   256
178
   256
  0
DIMSTYLE
  2
BIGT
 70
     0
  3

  4

  5

  6

  7

 40
1.0
 41
2.2299999999999991
 42
0.5
 43
2.5
 44
1.0
 45
0.0
 46
0.0
 47
0.0
 48
0.0
140
3.5
141
0.0
142
0.0
143
25.399999999999999
144
1.0
145
0.0
146
1.0
147
1.0
 71
     0
 72
     0
 73
     0
 74
     0
 75
     0
 76
     0
 77
     3
 78
     9
170
     0
171
     2
172
     1
173
     0
174
     0
175
     0
176
   256
177
   256
178
    40
  0
DIMSTYLE
  2
AM_ANSI
 70
     0
  3

  4
mm
  5

  6

  7

 40
1.0
 41
0.12
 42
0.05
 43
0.5
 44
0.1
 45
0.0
 46
0.0
 47
0.1
 48
0.1
140
0.12
141
0.0
142
0.0
143
25.399999999999999
144
1.0
145
0.0
146
0.71
147
0.06
 71
     0
 72
     0
 73
     1
 74
     1
 75
     0
 76
     0
 77
     0
 78
     7
170
     0
171
     2
172
     0
173
     0
174
     0
175
     0
176
   256
177
   256
178
     2
  0
DIMSTYLE
  2
AM_ANSI$3
 70
     0
  3

  4
mm
  5

  6

  7

 40
1.0
 41
0.12
 42
0.05
 43
0.5
 44
0.1
 45
0.0
 46
0.0
 47
0.1
 48
0.1
140
0.12
141
0.0
142
0.0
143
25.399999999999999
144
1.0
145
0.0
146
0.71
147
0.06
 71
     0
 72
     0
 73
     1
 74
     1
 75
     0
 76
     0
 77
     0
 78
     7
170
     0
171
     2
172
     0
173
     0
174
     0
175
     0
176
   256
177
   256
178
     2
  0
DIMSTYLE
  2
AM_ANSI$4
 70
     0
  3

  4
mm
  5

  6

  7

 40
1.0
 41
0.12
 42
0.05
 43
0.5
 44
0.1
 45
0.0
 46
0.0
 47
0.1
 48
0.1
140
0.12
141
0.0
142
0.0
143
25.399999999999999
144
1.0
145
0.0
146
0.71
147
0.06
 71
     0
 72
     0
 73
     1
 74
     1
 75
     0
 76
     0
 77
     0
 78
     7
170
     0
171
     2
172
     0
173
     0
174
     0
175
     0
176
   256
177
   256
178
     2
  0
DIMSTYLE
  2
AM_ANSI$7
 70
     0
  3

  4
mm
  5

  6

  7

 40
1.0
 41
0.12
 42
0.05
 43
0.5
 44
0.1
 45
0.0
 46
0.0
 47
0.1
 48
0.1
140
0.12
141
0.0
142
0.0
143
25.399999999999999
144
1.0
145
0.0
146
0.71
147
0.06
 71
     0
 72
     0
 73
     1
 74
     1
 75
     0
 76
     0
 77
     0
 78
     7
170
     0
171
     2
172
     0
173
     0
174
     0
175
     0
176
   256
177
   256
178
     2
  0
DIMSTYLE
  2
AM_ANSI$SF
 70
     0
  3

  4
mm
  5

  6

  7

 40
1.0
 41
0.12
 42
0.05
 43
0.5
 44
0.1
 45
0.0
 46
0.0
 47
0.1
 48
0.1
140
0.12
141
0.0
142
0.0
143
25.399999999999999
144
1.0
145
0.0
146
0.71
147
0.06
 71
     0
 72
     0
 73
     1
 74
     1
 75
     1
 76
     1
 77
     0
 78
     7
170
     0
171
     2
172
     0
173
     0
174
     0
175
     0
176
   256
177
   256
178
     2
  0
DIMSTYLE
  2
AM_ANSI$SH
 70
     0
  3

  4
mm
  5

  6

  7

 40
1.0
 41
0.12
 42
0.05
 43
0.5
 44
0.1
 45
0.0
 46
0.0
 47
0.1
 48
0.1
140
0.12
141
0.0
142
0.0
143
25.399999999999999
144
1.0
145
0.0
146
0.71
147
0.06
 71
     0
 72
     0
 73
     1
 74
     1
 75
     1
 76
     1
 77
     0
 78
     7
170
     0
171
     2
172
     0
173
     1
174
     0
175
     0
176
   256
177
   256
178
     2
  0
ENDTAB
  0
ENDSEC
  0
SECTION
  2
BLOCKS
  0
BLOCK
  8
0
  2
$MODEL_SPACE
 70
     0
 10
0.0
 20
0.0
 30
0.0
  3
$MODEL_SPACE
  1

  0
ENDBLK
  5
13F5
  8
0
  0
BLOCK
 67
     1
  8
0
  2
$PAPER_SPACE
 70
     0
 10
0.0
 20
0.0
 30
0.0
  3
$PAPER_SPACE
  1

  0
ENDBLK
  5
13F1
 67
     1
  8
0
  0
BLOCK
  8
0
  2
_OPEN
 70
     0
 10
0.0
 20
0.0
 30
0.0
  3
_OPEN
  1

  0
LINE
  5
595
  8
0
  6
BYBLOCK
 62
     0
 10
-1.0
 20
0.1666666666666666
 30
0.0
 11
0.0
 21
0.0
 31
0.0
  0
LINE
  5
596
  8
0
  6
BYBLOCK
 62
     0
 10
-1.0
 20
-0.1666666666666666
 30
0.0
 11
0.0
 21
0.0
 31
0.0
  0
LINE
  5
597
  8
0
  6
BYBLOCK
 62
     0
 10
0.0
 20
0.0
 30
0.0
 11
-1.0
 21
0.0
 31
0.0
  0
ENDBLK
  5
599
  8
0
  0
BLOCK
  8
0
  2
_ACMFILLEDHALF
 70
     0
 10
0.0
 20
0.0
 30
0.0
  3
_ACMFILLEDHALF
  1

  0
TRACE
  5
114D
  8
240
 62
     0
 10
-0.8
 20
0.0
 30
0.0
 11
-1.0
 21
0.166666666
 31
0.0
 12
0.0
 22
0.0
 32
0.0
 13
0.0
 23
0.0
 33
0.0
  0
LINE
  5
114E
  8
240
 62
     0
 10
-1.0
 20
0.0
 30
0.0
 11
-0.8
 21
0.0
 31
0.0
  0
ENDBLK
  5
114C
  8
0
  0
ENDSEC
  0
SECTION
  2
ENTITIES
  0
TEXT
  5
D46
  8
241
 10
-35.0
 20
70.0
 30
0.0
 40
5.0
  1
CK6-ATE24E
  7
YOKO
 11
-35.0
 21
70.0
 31
0.0
 73
     1
  0
LINE
  5
EAA
  8
240
 10
1.0
 20
-31.999999999999972
 30
0.0
 11
54.501924000000031
 21
-31.999999999999972
 31
0.0
  0
LINE
  5
EAB
  8
240
 10
1.0
 20
32.000000000000007
 30
0.0
 11
54.501924000000031
 21
32.000000000000007
 31
0.0
  0
LINE
  5
EAC
  8
245
 10
-43.727460598879809
 20
0.0
 30
0.0
 11
84.0
 21
0.000000000000035
 31
0.0
  0
LINE
  5
EB4
  8
241
 10
19.0
 20
32.000000000000007
 30
0.0
 11
19.0
 21
-31.999999999999972
 31
0.0
  0
LINE
  5
EBC
  8
241
 10
-0.0000000000000426
 20
18.000000000000011
 30
0.0
 11
0.0000000000000426
 21
-18.0
 31
0.0
  0
LINE
  5
EBD
  8
240
 10
-0.0000000000000853
 20
-17.999999999999989
 30
0.0
 11
0.0
 21
-30.999999999999972
 31
0.0
  0
LINE
  5
EBE
  8
240
 10
0.0
 20
-30.999999999999972
 30
0.0
 11
1.0
 21
-31.999999999999972
 31
0.0
  0
LINE
  5
F29
  8
240
 10
-0.0000000000000142
 20
18.0
 30
0.0
 11
0.0
 21
31.000000000000011
 31
0.0
  0
LINE
  5
F2A
  8
240
 10
1.0
 20
32.000000000000007
 30
0.0
 11
0.0
 21
31.000000000000011
 31
0.0
  0
LINE
  5
F2B
  8
241
 10
73.000000000000071
 20
-23.999999999999979
 30
0.0
 11
73.000000000000071
 21
24.000000000000011
 31
0.0
  0
LINE
  5
F2C
  8
241
 10
57.099999999999987
 20
28.999999999999979
 30
0.0
 11
57.099999999999973
 21
-28.999999999999972
 31
0.0
  0
LINE
  5
F2F
  8
241
 10
58.89999999999997
 20
29.000000000000011
 30
0.0
 11
58.89999999999997
 21
-28.999999999999972
 31
0.0
  0
LINE
  5
F30
  8
241
 10
61.0
 20
29.000000000000011
 30
0.0
 11
61.0
 21
-28.999999999999972
 31
0.0
  0
LINE
  5
F31
  8
241
 10
54.501924000000031
 20
-31.999999999999972
 30
0.0
 11
54.501924000000031
 21
32.000000000000007
 31
0.0
  0
LINE
  5
F33
  8
241
 10
65.0
 20
24.000000000000011
 30
0.0
 11
65.0
 21
-23.999999999999979
 31
0.0
  0
LINE
  5
F40
  8
240
 10
65.0
 20
-23.999999999999979
 30
0.0
 11
73.000000000000071
 21
-23.999999999999979
 31
0.0
  0
LINE
  5
F41
  8
240
 10
56.849999999999959
 20
-30.644337999999959
 30
0.0
 11
54.501924000000031
 21
-31.999999999999972
 31
0.0
  0
LINE
  5
F42
  8
240
 10
65.0
 20
-23.999999999999979
 30
0.0
 11
65.0
 21
-26.401923999999958
 31
0.0
  0
LINE
  5
F43
  8
240
 10
58.89999999999997
 20
-28.999999999999972
 30
0.0
 11
61.0
 21
-28.999999999999972
 31
0.0
  0
ARC
  5
F44
  8
240
 10
58.0
 20
-28.999999999999972
 30
0.0
 40
0.9
 50
180.0
 51
0.0
  0
LINE
  5
F45
  8
240
 10
57.099999999999973
 20
-28.999999999999972
 30
0.0
 11
57.099999999999973
 21
-30.21132499999997
 31
0.0
  0
ARC
  5
F46
  8
240
 10
56.599999999999959
 20
-30.21132499999997
 30
0.0
 40
0.5
 50
299.99999999999972
 51
0.0
  0
LINE
  5
F47
  8
240
 10
61.0
 20
-28.999999999999972
 30
0.0
 11
64.75
 21
-26.83493699999995
 31
0.0
  0
ARC
  5
F48
  8
240
 10
64.5
 20
-26.401923999999958
 30
0.0
 40
0.5
 50
299.99999999999972
 51
0.0
  0
LINE
  5
F4E
  8
240
 10
73.500000000000028
 20
-28.749999999999972
 30
0.0
 11
79.500000000000071
 21
-28.749999999999972
 31
0.0
  0
LINE
  5
F4F
  8
240
 10
73.000000000000071
 20
-28.249999999999972
 30
0.0
 11
73.000000000000071
 21
-23.999999999999979
 31
0.0
  0
LINE
  5
F50
  8
240
 10
73.500000000000028
 20
-28.749999999999972
 30
0.0
 11
73.000000000000071
 21
-28.249999999999972
 31
0.0
  0
LINE
  5
F54
  8
240
 10
80.000000000000057
 20
-28.249999999999972
 30
0.0
 11
79.500000000000071
 21
-28.749999999999972
 31
0.0
  0
LINE
  5
F75
  8
240
 10
65.0
 20
24.000000000000011
 30
0.0
 11
73.000000000000071
 21
24.000000000000011
 31
0.0
  0
LINE
  5
F76
  8
240
 10
56.849999999999959
 20
30.644337000000061
 30
0.0
 11
54.501924000000031
 21
32.000000000000007
 31
0.0
  0
LINE
  5
F77
  8
240
 10
65.0
 20
26.401924000000019
 30
0.0
 11
65.0
 21
24.000000000000011
 31
0.0
  0
LINE
  5
F78
  8
240
 10
58.89999999999997
 20
29.000000000000011
 30
0.0
 11
61.0
 21
29.000000000000011
 31
0.0
  0
ARC
  5
F79
  8
240
 10
58.0
 20
29.000000000000011
 30
0.0
 40
0.9
 50
0.0
 51
180.0
  0
LINE
  5
F7A
  8
240
 10
57.099999999999973
 20
30.211325000000041
 30
0.0
 11
57.099999999999987
 21
28.999999999999979
 31
0.0
  0
ARC
  5
F7B
  8
240
 10
56.599999999999959
 20
30.211325000000041
 30
0.0
 40
0.5
 50
0.0
 51
59.999999999999851
  0
LINE
  5
F7C
  8
240
 10
64.75
 20
26.834936000000042
 30
0.0
 11
61.0
 21
29.000000000000011
 31
0.0
  0
ARC
  5
F7D
  8
240
 10
64.5
 20
26.401924000000019
 30
0.0
 40
0.5
 50
0.0
 51
59.999999999999851
  0
LINE
  5
F7E
  8
240
 10
73.500000000000028
 20
28.750000000000011
 30
0.0
 11
79.500000000000071
 21
28.750000000000011
 31
0.0
  0
LINE
  5
F7F
  8
240
 10
73.000000000000071
 20
24.000000000000011
 30
0.0
 11
73.000000000000071
 21
28.250000000000011
 31
0.0
  0
LINE
  5
F80
  8
240
 10
73.500000000000028
 20
28.750000000000011
 30
0.0
 11
73.000000000000071
 21
28.250000000000011
 31
0.0
  0
LINE
  5
F81
  8
240
 10
80.000000000000057
 20
-28.249999999999972
 30
0.0
 11
80.000000000000057
 21
28.250000000000011
 31
0.0
  0
LINE
  5
F85
  8
240
 10
79.500000000000071
 20
28.750000000000011
 30
0.0
 11
80.000000000000057
 21
28.250000000000011
 31
0.0
  0
LINE
  5
FA5
  8
250
  6
CONTINUOUS
 10
80.000000000000057
 20
28.75
 30
0.0
 11
80.000000000000057
 21
50.0
 31
0.0
  0
LINE
  5
FAB
  8
250
  6
CONTINUOUS
 10
0.0
 20
31.5
 30
0.0
 11
0.0000000000000012
 21
50.0
 31
0.0
  0
LINE
  5
FAD
  8
250
  6
CONTINUOUS
 10
2.2299999999999991
 20
49.0
 30
0.0
 11
77.770000000000053
 21
49.0
 31
0.0
  0
LINE
  5
FBE
  8
250
  6
CONTINUOUS
 10
2.2299999999999991
 20
48.62833333333333
 30
0.0
 11
0.0000000000000011
 21
49.0
 31
0.0
  0
LINE
  5
FBF
  8
250
  6
CONTINUOUS
 10
2.2299999999999991
 20
49.371666666666663
 30
0.0
 11
0.0000000000000011
 21
49.0
 31
0.0
  0
LINE
  5
FC0
  8
250
  6
CONTINUOUS
 10
0.0000000000000011
 20
49.0
 30
0.0
 11
2.2299999999999991
 21
49.0
 31
0.0
  0
TEXT
  5
FC4
  8
250
  6
CONTINUOUS
 10
37.142857142857153
 20
50.0
 30
0.0
 40
3.0
  1
80
1001
ACAD
1000
MTEXTBEGIN
1070
    73
1070
     1
1070
    44
1040
1.0
1070
    74
1070
     0
1000
MTEXTEND
  0
LINE
  5
FC9
  8
250
  6
CONTINUOUS
 10
77.770000000000053
 20
49.37166666666667
 30
0.0
 11
80.000000000000057
 21
49.0
 31
0.0
  0
LINE
  5
FCA
  8
250
  6
CONTINUOUS
 10
77.770000000000053
 20
48.62833333333333
 30
0.0
 11
80.000000000000057
 21
49.0
 31
0.0
  0
LINE
  5
FCB
  8
250
  6
CONTINUOUS
 10
80.000000000000057
 20
49.0
 30
0.0
 11
77.770000000000053
 21
49.0
 31
0.0
  0
LINE
  5
1307
  8
250
  6
CONTINUOUS
 10
-30.062520689999999
 20
-28.29299147
 30
0.0
 11
-43.129187350000002
 21
-28.29299147
 31
0.0
1001
ITEMNAME
1000
LNSP2
  0
LINE
  5
1308
  8
240
  6
CONTINUOUS
 10
-40.0
 20
18.0
 30
0.0
 11
-0.0000000000000142
 21
18.0
 31
0.0
  0
LINE
  5
1309
  8
240
  6
CONTINUOUS
 10
-0.0000000000000853
 20
-17.999999999999989
 30
0.0
 11
-40.0
 21
-17.999999999999989
 31
0.0
  0
LINE
  5
130A
  8
240
  6
CONTINUOUS
 10
-40.0
 20
-17.999999999999989
 30
0.0
 11
-40.0
 21
18.0
 31
0.0
  0
LINE
  5
130B
  8
245
  6
CENTER2
 10
-16.0
 20
7.0000000000000071
 30
0.0
 11
-16.0
 21
-6.999999999999992
 31
0.0
  0
CIRCLE
  5
130C
  8
241
  6
CONTINUOUS
 10
-16.0
 20
0.0000000000000068
 30
0.0
 40
4.5
  0
CIRCLE
  5
130D
  8
241
  6
CONTINUOUS
 10
-16.0
 20
0.0000000000000068
 30
0.0
 40
6.0
  0
TEXT
  5
130E
  8
250
  6
CONTINUOUS
 10
-40.729187349999997
 20
-27.29299146999999
 30
0.0
 40
2.799999999999998
  1
CK6
  7
YOKO
1001
ITEMNAME
1000
LNSP3
1001
ACAD
1000
MTEXTBEGIN
1070
    73
1070
     1
1070
    44
1040
1.0
1070
    74
1070
     0
1000
MTEXTEND
1000
MTEXTBEGIN
1070
    73
1070
     1
1070
    44
1040
1.0
1070
    74
1070
     0
1000
MTEXTEND
1000
MTEXTBEGIN
1070
    73
1070
     1
1070
    44
1040
1.0
1070
    74
1070
     0
1000
MTEXTEND
  0
LINE
  5
130F
  8
250
  6
CONTINUOUS
 10
-25.234859290566959
 20
-19.931236650111948
 30
0.0
 11
-30.062520689999999
 21
-28.29299147
 31
0.0
1001
ACAD
1000
DSTYLE
1002
{
1070
     6
1000
OPEN
1070
   343
1005
0
1002
}
  0
LINE
  5
1310
  8
250
  6
CONTINUOUS
 10
-25.55673207202307
 20
-19.745403312967461
 30
0.0
 11
-24.119859290000001
 21
-17.999999999999989
 31
0.0
  0
LINE
  5
1311
  8
250
  6
CONTINUOUS
 10
-24.912986509110841
 20
-20.11706998725645
 30
0.0
 11
-24.119859290000001
 21
-17.999999999999989
 31
0.0
  0
LINE
  5
1312
  8
250
  6
CONTINUOUS
 10
-24.119859290000001
 20
-17.999999999999989
 30
0.0
 11
-25.234859290566959
 21
-19.931236650111948
 31
0.0
  0
LINE
  5
1313
  8
247
  6
CONTINUOUS
 10
7.9999999999999529
 20
-24.000000000069878
 30
0.0
 11
7.9999999999999583
 21
-17.307692308029878
 31
0.0
  0
ARC
  5
1314
  8
247
  6
CONTINUOUS
 10
6.2500000000699583
 20
-24.000000000069878
 30
0.0
 40
1.7499999999299991
 50
180.0
 51
0.0
  0
ARC
  5
1315
  8
247
  6
CONTINUOUS
 10
6.2500000000699583
 20
-17.307692308029878
 30
0.0
 40
1.7499999999299991
 50
0.0
 51
180.0
  0
LINE
  5
1316
  8
247
  6
CONTINUOUS
 10
4.5000000001399583
 20
-23.134615384719879
 30
0.0
 11
7.5000000000199529
 21
-23.994851541961889
 31
0.0
  0
LINE
  5
1317
  8
247
  6
CONTINUOUS
 10
5.9230769231599583
 20
-22.23498381833571
 30
0.0
 11
5.9230769231599583
 21
-23.54267612597571
 31
0.0
  0
ARC
  5
1318
  8
247
  6
CONTINUOUS
 10
5.0495986677029343
 20
-21.895143816089671
 30
0.0
 40
0.5538165441895349
 50
72.997889675291617
 51
172.92416621851231
  0
ARC
  5
1319
  8
247
  6
CONTINUOUS
 10
4.9360330444657343
 20
-22.316878323028671
 30
0.0
 40
0.9904354236226808
 50
4.7429368522013924
 51
73.849226273267575
1001
GENIUS_GENOBJ-N-FIL_13
1002
{
1000
OWNER
1000
GEN
1002
}
1001
GENIUS_GENODEF_13
1002
{
1000
HIER
1070
     0
1002
}
1002
{
1000
MANEDIT
1070
     0
1002
}
1002
{
1000
NOSEL
1070
     0
1002
}
1002
{
1000
BEHIND
1070
     0
1002
}
1002
{
1000
OTHER
1070
     0
1002
}
1002
{
1000
REACTOR
1002
}
  0
LINE
  5
131A
  8
247
  6
CONTINUOUS
 10
7.5000000000199529
 20
-22.687159234321889
 30
0.0
 11
7.5000000000199529
 21
-23.994851541961889
 31
0.0
  0
LINE
  5
131B
  8
247
  6
CONTINUOUS
 10
4.5000000001399583
 20
-23.134615384719879
 30
0.0
 11
4.5000000001399592
 21
-21.826923077079901
 31
0.0
  0
ARC
  5
131C
  8
247
  6
CONTINUOUS
 10
6.4820242326655091
 20
-22.310919636546849
 30
0.0
 40
0.5640818586791229
 50
65.99094165253058
 51
172.26344345906949
  0
ARC
  5
131D
  8
247
  6
CONTINUOUS
 10
6.487429039186547
 20
-22.78826268534695
 30
0.0
 40
1.0176059446230981
 50
5.7019851642581392
 51
77.277338436820884
1001
GENIUS_GENOBJ-N-FIL_13
1002
{
1000
OWNER
1000
GEN
1002
}
1001
GENIUS_GENODEF_13
1002
{
1000
HIER
1070
     0
1002
}
1002
{
1000
MANEDIT
1070
     0
1002
}
1002
{
1000
NOSEL
1070
     0
1002
}
1002
{
1000
BEHIND
1070
     0
1002
}
1002
{
1000
OTHER
1070
     0
1002
}
1002
{
1000
REACTOR
1002
}
  0
LINE
  5
131E
  8
247
  6
CONTINUOUS
 10
7.5000000000199529
 20
-21.033313080541891
 30
0.0
 11
4.5000000001399592
 21
-20.173076923299881
 31
0.0
  0
LINE
  5
131F
  8
247
  6
CONTINUOUS
 10
4.5000000001399592
 20
-17.750000000319869
 30
0.0
 11
4.5000000001399592
 21
-18.315736619456459
 31
0.0
  0
LINE
  5
1320
  8
247
  6
CONTINUOUS
 10
7.5000000000199529
 20
-19.211538461799879
 30
0.0
 11
7.5000000000199529
 21
-18.596153846439879
 31
0.0
  0
ARC
  5
1321
  8
247
  6
CONTINUOUS
 10
6.5832851359733411
 20
-17.45879120912273
 30
0.0
 40
2.2526500823422122
 50
202.3594881415267
 51
254.9932485428466
  0
ARC
  5
1322
  8
247
  6
CONTINUOUS
 10
5.308312655194471
 20
-18.124069479213102
 30
0.0
 40
0.8906723995727782
 50
94.994589319075104
 51
155.16632895730359
1001
GENIUS_GENOBJ-N-FIL_13
1002
{
1000
OWNER
1000
GEN
1002
}
1001
GENIUS_GENODEF_13
1002
{
1000
HIER
1070
     0
1002
}
1002
{
1000
MANEDIT
1070
     0
1002
}
1002
{
1000
NOSEL
1070
     0
1002
}
1002
{
1000
BEHIND
1070
     0
1002
}
1002
{
1000
OTHER
1070
     0
1002
}
1002
{
1000
REACTOR
1002
}
  0
ARC
  5
1323
  8
247
  6
CONTINUOUS
 10
6.1601458886677172
 20
-18.97645888621247
 30
0.0
 40
1.392781735586712
 50
15.846096555779249
 51
82.325137004170557
  0
ARC
  5
1324
  8
247
  6
CONTINUOUS
 10
6.459243431527244
 20
-18.392212725840231
 30
0.0
 40
1.324563662670287
 50
249.71360167049809
 51
321.78874565640763
1001
GENIUS_GENOBJ-N-FIL_13
1002
{
1000
OWNER
1000
GEN
1002
}
1001
GENIUS_GENODEF_13
1002
{
1000
HIER
1070
     0
1002
}
1002
{
1000
MANEDIT
1070
     0
1002
}
1002
{
1000
NOSEL
1070
     0
1002
}
1002
{
1000
BEHIND
1070
     0
1002
}
1002
{
1000
OTHER
1070
     0
1002
}
1002
{
1000
REACTOR
1002
}
  0
LINE
  5
1325
  8
247
  6
CONTINUOUS
 10
6.3461538462199591
 20
-18.288461538759879
 30
0.0
 11
6.3461538462199591
 21
-17.596153846479861
 31
0.0
  0
LINE
  5
1326
  8
247
  6
CONTINUOUS
 10
4.5000000001399592
 20
-24.000000000069878
 30
0.0
 11
4.5000000001399592
 21
-23.326923077019881
 31
0.0
  0
VIEWPORT
  5
22
 67
     1
  8
0
 10
261.51769911504419
 20
148.5
 30
0.0
 40
523.0353982300885
 41
297.0
 68
     1
 69
     1
1001
ACAD
1000
MVIEW
1002
{
1070
    16
1010
0.0
1020
0.0
1030
0.0
1010
0.0
1020
0.0
1030
1.0
1040
0.0
1040
297.0
1040
261.51769911504419
1040
148.5
1040
50.0
1040
0.0
1040
0.0
1070
     0
1070
   100
1070
     1
1070
     1
1070
     0
1070
     0
1070
     0
1070
     0
1040
0.0
1040
0.0
1040
0.0
1040
1.0
1040
1.0
1040
10.0
1040
10.0
1070
     0
1002
{
1002
}
1002
}
1001
GENIUS_GENOBJ-N-SDF_13
1002
{
1000
OWNER
1000
GEN
1002
}
1001
GENIUS_GENODEF_13
1002
{
1000
HIER
1070
     0
1002
}
1002
{
1000
MANEDIT
1070
     0
1002
}
1002
{
1000
NOSEL
1070
     0
1002
}
1002
{
1000
BEHIND
1070
     0
1002
}
1002
{
1000
OTHER
1070
     0
1002
}
1002
{
1000
REACTOR
1002
}
1001
GENIUS_GENSCREG_15
1000
PF
1040
1.0
1000
DF
1040
1.0
1000
MIN
1011
0.0
1021
0.0
1031
0.0
1021
0.0
1031
0.0
1000
MAX
1011
523.0353982300885
1021
0.0
1031
0.0
1021
297.0
1031
0.0
1000
FLAGS
1070
     4
  0
ENDSEC
  0
EOF
