  0
SECTION
  2
HEADER
  9
$ACADVER
  1
AC1009
  9
$INSBASE
 10
0.0
 20
0.0
 30
0.0
  9
$EXTMIN
 10
-43.749545442016412
 20
-32.419786936156008
 30
0.0
  9
$EXTMAX
 10
94.698320730520692
 20
68.000000000000043
 30
0.0
  9
$LIMMIN
 10
0.0
 20
0.0
  9
$LIMMAX
 10
297.0
 20
210.0
  9
$ORTHOMODE
 70
     1
  9
$REGENMODE
 70
     1
  9
$FILLMODE
 70
     1
  9
$QTEXTMODE
 70
     0
  9
$MIRRTEXT
 70
     1
  9
$DRAGMODE
 70
     2
  9
$LTSCALE
 40
10.0
  9
$OSMODE
 70
    39
  9
$ATTMODE
 70
     1
  9
$TEXTSIZE
 40
3.0
  9
$TRACEWID
 40
1.0
  9
$TEXTSTYLE
  7
YOKO
  9
$CLAYER
  8
240
  9
$CELTYPE
  6
BYLAYER
  9
$CECOLOR
 62
   256
  9
$DIMSCALE
 40
1.0
  9
$DIMASZ
 40
2.2299999999999991
  9
$DIMEXO
 40
0.5
  9
$DIMDLI
 40
2.5
  9
$DIMRND
 40
0.0
  9
$DIMDLE
 40
0.0
  9
$DIMEXE
 40
1.0
  9
$DIMTP
 40
0.0
  9
$DIMTM
 40
0.0
  9
$DIMTXT
 40
3.0
  9
$DIMCEN
 40
0.0
  9
$DIMTSZ
 40
0.0
  9
$DIMTOL
 70
     0
  9
$DIMLIM
 70
     0
  9
$DIMTIH
 70
     0
  9
$DIMTOH
 70
     0
  9
$DIMSE1
 70
     0
  9
$DIMSE2
 70
     0
  9
$DIMTAD
 70
     3
  9
$DIMZIN
 70
     8
  9
$DIMBLK
  1
OPEN
  9
$DIMASO
 70
     1
  9
$DIMSHO
 70
     1
  9
$DIMPOST
  1

  9
$DIMAPOST
  1

  9
$DIMALT
 70
     0
  9
$DIMALTD
 70
     2
  9
$DIMALTF
 40
25.399999999999999
  9
$DIMLFAC
 40
1.0
  9
$DIMTOFL
 70
     1
  9
$DIMTVP
 40
0.0
  9
$DIMTIX
 70
     0
  9
$DIMSOXD
 70
     0
  9
$DIMSAH
 70
     0
  9
$DIMBLK1
  1

  9
$DIMBLK2
  1

  9
$DIMSTYLE
  2
BIGT
  9
$DIMCLRD
 70
   256
  9
$DIMCLRE
 70
   256
  9
$DIMCLRT
 70
    40
  9
$DIMTFAC
 40
1.0
  9
$DIMGAP
 40
1.0
  9
$LUNITS
 70
     2
  9
$LUPREC
 70
     2
  9
$SKETCHINC
 40
1.0
  9
$FILLETRAD
 40
0.0
  9
$AUNITS
 70
     0
  9
$AUPREC
 70
     3
  9
$MENU
  1
.
  9
$ELEVATION
 40
0.0
  9
$PELEVATION
 40
0.0
  9
$THICKNESS
 40
0.0
  9
$LIMCHECK
 70
     0
  9
$BLIPMODE
 70
     0
  9
$CHAMFERA
 40
10.0
  9
$CHAMFERB
 40
10.0
  9
$SKPOLY
 70
     0
  9
$TDCREATE
 40
2452308.6410369561
  9
$TDUPDATE
 40
2460614.4726168518
  9
$TDINDWG
 40
0.044898831
  9
$TDUSRTIMER
 40
0.0448987269
  9
$USRTIMER
 70
     1
  9
$ANGBASE
 50
0.0
  9
$ANGDIR
 70
     0
  9
$PDMODE
 70
    35
  9
$PDSIZE
 40
-5.0
  9
$PLINEWID
 40
0.0
  9
$COORDS
 70
     1
  9
$SPLFRAME
 70
     0
  9
$SPLINETYPE
 70
     6
  9
$SPLINESEGS
 70
     8
  9
$ATTDIA
 70
     1
  9
$ATTREQ
 70
     1
  9
$HANDLING
 70
     1
  9
$HANDSEED
  5
1C6B
  9
$SURFTAB1
 70
     6
  9
$SURFTAB2
 70
     6
  9
$SURFTYPE
 70
     6
  9
$SURFU
 70
     6
  9
$SURFV
 70
     6
  9
$UCSNAME
  2

  9
$UCSORG
 10
0.0
 20
0.0
 30
0.0
  9
$UCSXDIR
 10
1.0
 20
0.0
 30
0.0
  9
$UCSYDIR
 10
0.0
 20
1.0
 30
0.0
  9
$PUCSNAME
  2

  9
$PUCSORG
 10
0.0
 20
0.0
 30
0.0
  9
$PUCSXDIR
 10
1.0
 20
0.0
 30
0.0
  9
$PUCSYDIR
 10
0.0
 20
1.0
 30
0.0
  9
$USERI1
 70
     1
  9
$USERI2
 70
     0
  9
$USERI3
 70
     0
  9
$USERI4
 70
     0
  9
$USERI5
 70
     0
  9
$USERR1
 40
0.0
  9
$USERR2
 40
0.0
  9
$USERR3
 40
0.0
  9
$USERR4
 40
0.0
  9
$USERR5
 40
0.0
  9
$WORLDVIEW
 70
     1
  9
$SHADEDGE
 70
     3
  9
$SHADEDIF
 70
    70
  9
$TILEMODE
 70
     1
  9
$MAXACTVP
 70
    16
  9
$PLIMCHECK
 70
     0
  9
$PEXTMIN
 10
1.0000000000000000E+020
 20
1.0000000000000000E+020
 30
1.0000000000000000E+020
  9
$PEXTMAX
 10
-1.0000000000000000E+020
 20
-1.0000000000000000E+020
 30
-1.0000000000000000E+020
  9
$PLIMMIN
 10
0.0
 20
0.0
  9
$PLIMMAX
 10
420.0
 20
297.0
  9
$UNITMODE
 70
     0
  9
$VISRETAIN
 70
     0
  9
$PLINEGEN
 70
     0
  9
$PSLTSCALE
 70
     1
  0
ENDSEC
  0
SECTION
  2
TABLES
  0
TABLE
  2
VPORT
 70
     1
  0
VPORT
  2
*ACTIVE
 70
     0
 10
0.0
 20
0.0
 11
1.0
 21
1.0
 12
10.91355231257992
 22
28.14732104755592
 13
0.0
 23
0.0
 14
7.0
 24
7.0
 15
7.0
 25
7.0
 16
0.0
 26
0.0
 36
1.0
 17
0.0
 27
0.0
 37
0.0
 40
199.2383850976272
 41
1.867549668874172
 42
50.0
 43
0.0
 44
0.0
 50
0.0
 51
0.0
 71
     0
 72
  2000
 73
     1
 74
     0
 75
     1
 76
     1
 77
     0
 78
     0
  0
ENDTAB
  0
TABLE
  2
LTYPE
 70
    16
  0
LTYPE
  2
CONTINUOUS
 70
     0
  3
Solid line
 72
    65
 73
     0
 40
0.0
  0
LTYPE
  2
CENTER2
 70
     0
  3
___ _ ___ _ ___ _ ___ _ ___ _ ___ _ ___ _ ___ _
 72
    65
 73
     4
 40
1.125
 49
0.75
 49
-0.125
 49
0.125
 49
-0.125
  0
LTYPE
  2
AMCONSTR
 70
     0
  3
_______________________
 72
    65
 73
     2
 40
9999.0
 49
9999.0
 49
0.0
  0
LTYPE
  2
HIDDEN
 70
     0
  3
Hidden __ __ __ __ __ __ __ __ __ __ __ __ __ _
 72
    65
 73
     2
 40
0.375
 49
0.25
 49
-0.125
  0
LTYPE
  2
PHANTOM2
 70
     0
  3
Phantom (.5x) ___ _ _ ___ _ _ ___ _ _ ___ _ _
 72
    65
 73
     6
 40
1.25
 49
0.625
 49
-0.125
 49
0.125
 49
-0.125
 49
0.125
 49
-0.125
  0
LTYPE
  2
CENTER
 70
     0
  3
Center ____ _ ____ _ ____ _ ____ _ ____ _ ____
 72
    65
 73
     4
 40
2.0
 49
1.25
 49
-0.25
 49
0.25
 49
-0.25
  0
LTYPE
  2
HIDDEN2
 70
     0
  3
Hidden (.5x) _ _ _ _ _ _ _ _ _ _ _ _ _ _ _ _ _
 72
    65
 73
     2
 40
0.1875
 49
0.125
 49
-0.0625
  0
LTYPE
  2
AMZIGZAG2
 70
     0
  3
/\/-/\/-/\/-/\/-/\/-/\/
 72
    65
 73
     2
 40
0.4401
 49
0.0001
 49
-0.4400000000000003
  0
LTYPE
  2
ACANSTGB
 70
     0
  3
__ . . __ . .
 72
    65
 73
     6
 40
0.35433070866
 49
0.15748031496
 49
-0.03937007874
 49
0.03937007874
 49
-0.03937007874
 49
0.03937007874
 49
-0.03937007874
  0
LTYPE
  2
ACANSTGL
 70
     0
  3
_ _ _ _ _
 72
    65
 73
     2
 40
0.11811023622
 49
0.07874015748
 49
-0.03937007874
  0
ENDTAB
  0
TABLE
  2
LAYER
 70
     7
  0
LAYER
  2
0
 70
     0
 62
     7
  6
CONTINUOUS
  0
LAYER
  2
240
 70
     0
 62
     4
  6
CONTINUOUS
  0
LAYER
  2
241
 70
     0
 62
   211
  6
CONTINUOUS
  0
LAYER
  2
245
 70
     0
 62
     2
  6
CENTER2
  0
LAYER
  2
247
 70
     0
 62
    60
  6
CONTINUOUS
  0
LAYER
  2
250
 70
     0
 62
     3
  6
CONTINUOUS
  0
LAYER
  2
DEFPOINTS
 70
     0
 62
     7
  6
CONTINUOUS
  0
ENDTAB
  0
TABLE
  2
STYLE
 70
     6
  0
STYLE
  2
STANDARD
 70
     0
 40
0.0
 41
1.0
 50
0.0
 71
     0
 42
3.0
  3
romans.shx
  4
BIGFONT.SHX
  0
STYLE
  2
YOKO
 70
     0
 40
0.0
 41
1.0
 50
0.0
 71
     0
 42
3.0
  3
romans.shx
  4
extfont.shx
  0
STYLE
  2
ACANSGDT
 70
     0
 40
0.0
 41
1.0
 50
0.0
 71
     0
 42
3.0
  3
amgdt.shx
  4

  0
ENDTAB
  0
TABLE
  2
VIEW
 70
     0
  0
ENDTAB
  0
TABLE
  2
UCS
 70
     0
  0
ENDTAB
  0
TABLE
  2
APPID
 70
    23
  0
APPID
  2
ACAD
 70
     0
  0
APPID
  2
ACADANNOTATIVE
 70
     0
  0
APPID
  2
GLOBAL
 70
     0
  0
APPID
  2
DETAIL
 70
     0
  0
APPID
  2
GRPNAME
 70
     0
  0
APPID
  2
GPARA
 70
     0
  0
APPID
  2
ITEMNAME
 70
     0
  0
APPID
  2
HATCH_TYPE
 70
     0
  0
APPID
  2
HATCH_DISPLAY
 70
     0
  0
APPID
  2
HATCH_DISTANCE
 70
     0
  0
APPID
  2
MCAD_NO_VIS
 70
     0
  0
APPID
  2
ACAD_TEMP_GRAPHIC
 70
     0
  0
APPID
  2
ACATTRIBSERVICES
 70
     0
  0
APPID
  2
DESIGNERASSEMBLIES
 70
     0
  0
APPID
  2
ACAD_DSTYLE_DIMJAG
 70
     0
  0
APPID
  2
ACAD_DSTYLE_DIMBREAK
 70
     0
  0
APPID
  2
GENIUS_GENSCREG_15
 70
     0
  0
APPID
  2
GENIUS_GENOBJ-N-SDF_13
 70
     0
  0
APPID
  2
GENIUS_GENODEF_13
 70
     0
  0
APPID
  2
ACAD_NAV_VCDISPLAY
 70
     0
  0
APPID
  2
ACAD_MLEADERVER
 70
     0
  0
APPID
  2
GENIUS_GENOBJ-N-FIL_13
 70
     0
  0
APPID
  2
ACAD_EXEMPT_FROM_CAD_STANDARDS
 70
     0
  0
ENDTAB
  0
TABLE
  2
DIMSTYLE
 70
     9
  0
DIMSTYLE
  2
STANDARD
 70
     0
  3

  4

  5

  6

  7

 40
1.0
 41
2.0
 42
2.0
 43
3.75
 44
2.0
 45
0.0
 46
0.0
 47
0.0
 48
0.0
140
4.0
141
0.09
142
0.0
143
25.399999999999999
144
1.0
145
0.0
146
1.0
147
1.0
 71
     0
 72
     0
 73
     1
 74
     1
 75
     0
 76
     0
 77
     0
 78
     8
170
     0
171
     2
172
     0
173
     1
174
     0
175
     0
176
   256
177
   256
178
   256
  0
DIMSTYLE
  2
BIGT
 70
     0
  3

  4

  5

  6

  7

 40
1.0
 41
2.2299999999999991
 42
0.5
 43
2.5
 44
1.0
 45
0.0
 46
0.0
 47
0.0
 48
0.0
140
3.5
141
0.0
142
0.0
143
25.399999999999999
144
1.0
145
0.0
146
1.0
147
1.0
 71
     0
 72
     0
 73
     0
 74
     0
 75
     0
 76
     0
 77
     3
 78
     9
170
     0
171
     2
172
     1
173
     0
174
     0
175
     0
176
   256
177
   256
178
    40
  0
DIMSTYLE
  2
AM_ANSI
 70
     0
  3

  4
mm
  5

  6

  7

 40
1.0
 41
0.12
 42
0.05
 43
0.5
 44
0.1
 45
0.0
 46
0.0
 47
0.1
 48
0.1
140
0.12
141
0.0
142
0.0
143
25.399999999999999
144
1.0
145
0.0
146
0.71
147
0.06
 71
     0
 72
     0
 73
     1
 74
     1
 75
     0
 76
     0
 77
     0
 78
     7
170
     0
171
     2
172
     0
173
     0
174
     0
175
     0
176
   256
177
   256
178
     2
  0
DIMSTYLE
  2
AM_ANSI$3
 70
     0
  3

  4
mm
  5

  6

  7

 40
1.0
 41
0.12
 42
0.05
 43
0.5
 44
0.1
 45
0.0
 46
0.0
 47
0.1
 48
0.1
140
0.12
141
0.0
142
0.0
143
25.399999999999999
144
1.0
145
0.0
146
0.71
147
0.06
 71
     0
 72
     0
 73
     1
 74
     1
 75
     0
 76
     0
 77
     0
 78
     7
170
     0
171
     2
172
     0
173
     0
174
     0
175
     0
176
   256
177
   256
178
     2
  0
DIMSTYLE
  2
AM_ANSI$4
 70
     0
  3

  4
mm
  5

  6

  7

 40
1.0
 41
0.12
 42
0.05
 43
0.5
 44
0.1
 45
0.0
 46
0.0
 47
0.1
 48
0.1
140
0.12
141
0.0
142
0.0
143
25.399999999999999
144
1.0
145
0.0
146
0.71
147
0.06
 71
     0
 72
     0
 73
     1
 74
     1
 75
     0
 76
     0
 77
     0
 78
     7
170
     0
171
     2
172
     0
173
     0
174
     0
175
     0
176
   256
177
   256
178
     2
  0
DIMSTYLE
  2
AM_ANSI$7
 70
     0
  3

  4
mm
  5

  6

  7

 40
1.0
 41
0.12
 42
0.05
 43
0.5
 44
0.1
 45
0.0
 46
0.0
 47
0.1
 48
0.1
140
0.12
141
0.0
142
0.0
143
25.399999999999999
144
1.0
145
0.0
146
0.71
147
0.06
 71
     0
 72
     0
 73
     1
 74
     1
 75
     0
 76
     0
 77
     0
 78
     7
170
     0
171
     2
172
     0
173
     0
174
     0
175
     0
176
   256
177
   256
178
     2
  0
DIMSTYLE
  2
AM_ANSI$SF
 70
     0
  3

  4
mm
  5

  6

  7

 40
1.0
 41
0.12
 42
0.05
 43
0.5
 44
0.1
 45
0.0
 46
0.0
 47
0.1
 48
0.1
140
0.12
141
0.0
142
0.0
143
25.399999999999999
144
1.0
145
0.0
146
0.71
147
0.06
 71
     0
 72
     0
 73
     1
 74
     1
 75
     1
 76
     1
 77
     0
 78
     7
170
     0
171
     2
172
     0
173
     0
174
     0
175
     0
176
   256
177
   256
178
     2
  0
DIMSTYLE
  2
AM_ANSI$SH
 70
     0
  3

  4
mm
  5

  6

  7

 40
1.0
 41
0.12
 42
0.05
 43
0.5
 44
0.1
 45
0.0
 46
0.0
 47
0.1
 48
0.1
140
0.12
141
0.0
142
0.0
143
25.399999999999999
144
1.0
145
0.0
146
0.71
147
0.06
 71
     0
 72
     0
 73
     1
 74
     1
 75
     1
 76
     1
 77
     0
 78
     7
170
     0
171
     2
172
     0
173
     1
174
     0
175
     0
176
   256
177
   256
178
     2
  0
ENDTAB
  0
ENDSEC
  0
SECTION
  2
BLOCKS
  0
BLOCK
  8
0
  2
$MODEL_SPACE
 70
     0
 10
0.0
 20
0.0
 30
0.0
  3
$MODEL_SPACE
  1

  0
ENDBLK
  5
1B66
  8
0
  0
BLOCK
 67
     1
  8
0
  2
$PAPER_SPACE
 70
     0
 10
0.0
 20
0.0
 30
0.0
  3
$PAPER_SPACE
  1

  0
ENDBLK
  5
1B62
 67
     1
  8
0
  0
BLOCK
  8
0
  2
_OPEN
 70
     0
 10
0.0
 20
0.0
 30
0.0
  3
_OPEN
  1

  0
LINE
  5
595
  8
0
  6
BYBLOCK
 62
     0
 10
-1.0
 20
0.1666666666666666
 30
0.0
 11
0.0
 21
0.0
 31
0.0
  0
LINE
  5
596
  8
0
  6
BYBLOCK
 62
     0
 10
-1.0
 20
-0.1666666666666666
 30
0.0
 11
0.0
 21
0.0
 31
0.0
  0
LINE
  5
597
  8
0
  6
BYBLOCK
 62
     0
 10
0.0
 20
0.0
 30
0.0
 11
-1.0
 21
0.0
 31
0.0
  0
ENDBLK
  5
599
  8
0
  0
BLOCK
  8
0
  2
_ACMFILLEDHALF
 70
     0
 10
0.0
 20
0.0
 30
0.0
  3
_ACMFILLEDHALF
  1

  0
TRACE
  5
18B2
  8
240
 62
     0
 10
-0.8
 20
0.0
 30
0.0
 11
-1.0
 21
0.166666666
 31
0.0
 12
0.0
 22
0.0
 32
0.0
 13
0.0
 23
0.0
 33
0.0
  0
LINE
  5
18B3
  8
240
 62
     0
 10
-1.0
 20
0.0
 30
0.0
 11
-0.8
 21
0.0
 31
0.0
  0
ENDBLK
  5
18B1
  8
0
  0
ENDSEC
  0
SECTION
  2
ENTITIES
  0
TEXT
  5
1429
  8
241
  6
CONTINUOUS
 10
-35.0
 20
63.0
 30
0.0
 40
5.0
  1
CK6-ATE12E
  7
YOKO
 11
-35.0
 21
63.0
 31
0.0
 73
     1
  0
LINE
  5
158D
  8
245
  6
CENTER2
 10
-43.749545442016412
 20
0.0
 30
0.0
 11
56.0
 21
0.0
 31
0.0
  0
LINE
  5
158E
  8
240
  6
CONTINUOUS
 10
40.0
 20
-16.500000000000011
 30
0.0
 11
45.499999999999993
 21
-16.500000000000011
 31
0.0
  0
LINE
  5
158F
  8
240
  6
CONTINUOUS
 10
40.0
 20
16.499999999999979
 30
0.0
 11
45.499999999999993
 21
16.499999999999979
 31
0.0
  0
LINE
  5
1596
  8
241
  6
CONTINUOUS
 10
-0.0000000000000142
 20
17.999999999999979
 30
0.0
 11
0.0000000000000284
 21
-18.0
 31
0.0
  0
LINE
  5
1597
  8
241
  6
CONTINUOUS
 10
9.0
 20
-23.500000000000011
 30
0.0
 11
9.0
 21
23.499999999999972
 31
0.0
  0
LINE
  5
1598
  8
241
  6
CONTINUOUS
 10
31.5
 20
-20.500000000000011
 30
0.0
 11
31.5
 21
20.499999999999979
 31
0.0
  0
LINE
  5
159A
  8
241
  6
CONTINUOUS
 10
40.0
 20
-16.500000000000011
 30
0.0
 11
40.0
 21
16.499999999999979
 31
0.0
  0
LINE
  5
15A2
  8
240
  6
CONTINUOUS
 10
9.5
 20
-23.500000000000011
 30
0.0
 11
28.901924000000001
 21
-23.500000000000011
 31
0.0
  0
LINE
  5
15A3
  8
240
  6
CONTINUOUS
 10
9.0
 20
-31.000000000000011
 30
0.0
 11
8.0
 21
-32.000000000000007
 31
0.0
  0
LINE
  5
15A4
  8
240
  6
CONTINUOUS
 10
0.0
 20
-31.000000000000011
 30
0.0
 11
-0.0000000000000711
 21
-18.0
 31
0.0
  0
LINE
  5
15A5
  8
240
  6
CONTINUOUS
 10
1.0
 20
-32.000000000000007
 30
0.0
 11
8.0
 21
-32.000000000000007
 31
0.0
  0
LINE
  5
15A6
  8
240
  6
CONTINUOUS
 10
1.0
 20
-32.000000000000007
 30
0.0
 11
0.0
 21
-31.000000000000011
 31
0.0
  0
LINE
  5
15A7
  8
240
  6
CONTINUOUS
 10
9.0
 20
-31.000000000000011
 30
0.0
 11
9.0
 21
-23.500000000000011
 31
0.0
  0
LINE
  5
15A8
  8
240
  6
CONTINUOUS
 10
9.0
 20
-23.500000000000011
 30
0.0
 11
9.5
 21
-23.500000000000011
 31
0.0
  0
LINE
  5
160E
  8
241
  6
CONTINUOUS
 10
33.300000000000011
 20
20.499999999999979
 30
0.0
 11
33.300000000000011
 21
-20.500000000000011
 31
0.0
  0
ARC
  5
160F
  8
240
  6
CONTINUOUS
 10
32.39999999999997
 20
-20.594999999999981
 30
0.0
 40
0.905
 50
173.9744249999992
 51
6.0255750000007078
  0
LINE
  5
1610
  8
240
  6
CONTINUOUS
 10
31.5
 20
-22.000000000000011
 30
0.0
 11
31.5
 21
-20.500000000000011
 31
0.0
  0
LINE
  5
1611
  8
240
  6
CONTINUOUS
 10
28.901924000000001
 20
-23.500000000000011
 30
0.0
 11
31.5
 21
-22.000000000000011
 31
0.0
  0
LINE
  5
1612
  8
240
  6
CONTINUOUS
 10
33.300000000000011
 20
-20.500000000000011
 30
0.0
 11
38.0
 21
-20.500000000000011
 31
0.0
  0
LINE
  5
1613
  8
240
  6
CONTINUOUS
 10
40.0
 20
-19.345298999999962
 30
0.0
 11
40.0
 21
-16.500000000000011
 31
0.0
  0
LINE
  5
1614
  8
240
  6
CONTINUOUS
 10
38.0
 20
-20.500000000000011
 30
0.0
 11
40.0
 21
-19.345298999999962
 31
0.0
  0
LINE
  5
161A
  8
240
  6
CONTINUOUS
 10
9.5
 20
23.499999999999972
 30
0.0
 11
28.901924000000001
 21
23.499999999999972
 31
0.0
  0
LINE
  5
161B
  8
240
  6
CONTINUOUS
 10
8.0
 20
31.999999999999972
 30
0.0
 11
9.0
 21
30.999999999999979
 31
0.0
  0
LINE
  5
161C
  8
240
  6
CONTINUOUS
 10
0.0
 20
30.999999999999979
 30
0.0
 11
0.0000000000000142
 21
18.0
 31
0.0
  0
LINE
  5
161D
  8
240
  6
CONTINUOUS
 10
1.0
 20
31.999999999999972
 30
0.0
 11
8.0
 21
31.999999999999972
 31
0.0
  0
LINE
  5
161E
  8
240
  6
CONTINUOUS
 10
0.0
 20
30.999999999999979
 30
0.0
 11
1.0
 21
31.999999999999972
 31
0.0
  0
LINE
  5
161F
  8
240
  6
CONTINUOUS
 10
9.0
 20
23.499999999999972
 30
0.0
 11
9.0
 21
30.999999999999979
 31
0.0
  0
LINE
  5
1620
  8
240
  6
CONTINUOUS
 10
9.0
 20
23.499999999999972
 30
0.0
 11
9.5
 21
23.499999999999972
 31
0.0
  0
ARC
  5
1621
  8
240
  6
CONTINUOUS
 10
32.39999999999997
 20
20.59500000000001
 30
0.0
 40
0.905
 50
353.9744249999992
 51
186.0255750000006
  0
LINE
  5
1622
  8
240
  6
CONTINUOUS
 10
31.5
 20
20.499999999999979
 30
0.0
 11
31.5
 21
21.999999999999972
 31
0.0
  0
LINE
  5
1623
  8
240
  6
CONTINUOUS
 10
31.5
 20
21.999999999999972
 30
0.0
 11
28.901924000000001
 21
23.499999999999972
 31
0.0
  0
LINE
  5
1624
  8
240
  6
CONTINUOUS
 10
33.300000000000011
 20
20.499999999999979
 30
0.0
 11
38.0
 21
20.499999999999979
 31
0.0
  0
LINE
  5
1625
  8
240
  6
CONTINUOUS
 10
40.0
 20
16.499999999999979
 30
0.0
 11
40.0
 21
19.34529999999998
 31
0.0
  0
LINE
  5
1626
  8
240
  6
CONTINUOUS
 10
40.0
 20
19.34529999999998
 30
0.0
 11
38.0
 21
20.499999999999979
 31
0.0
  0
LINE
  5
1633
  8
241
  6
CONTINUOUS
 10
45.499999999999993
 20
-16.500000000000011
 30
0.0
 11
45.499999999999993
 21
16.499999999999979
 31
0.0
  0
LINE
  5
163E
  8
240
  6
CONTINUOUS
 10
45.499999999999993
 20
-19.750000000000011
 30
0.0
 11
45.499999999999993
 21
-16.500000000000011
 31
0.0
  0
LINE
  5
1643
  8
240
  6
CONTINUOUS
 10
46.0
 20
-20.250000000000011
 30
0.0
 11
49.5
 21
-20.250000000000011
 31
0.0
  0
LINE
  5
1644
  8
240
  6
CONTINUOUS
 10
46.0
 20
-20.250000000000011
 30
0.0
 11
45.499999999999993
 21
-19.750000000000011
 31
0.0
  0
LINE
  5
1647
  8
240
  6
CONTINUOUS
 10
50.0
 20
-19.750000000000011
 30
0.0
 11
49.5
 21
-20.250000000000011
 31
0.0
  0
LINE
  5
1667
  8
240
  6
CONTINUOUS
 10
45.499999999999993
 20
16.499999999999979
 30
0.0
 11
45.499999999999993
 21
19.749999999999972
 31
0.0
  0
LINE
  5
1668
  8
240
  6
CONTINUOUS
 10
50.0
 20
19.749999999999972
 30
0.0
 11
50.0
 21
-19.75
 31
0.0
  0
LINE
  5
166D
  8
240
  6
CONTINUOUS
 10
46.0
 20
20.249999999999979
 30
0.0
 11
49.5
 21
20.249999999999979
 31
0.0
  0
LINE
  5
166E
  8
240
  6
CONTINUOUS
 10
45.499999999999993
 20
19.749999999999972
 30
0.0
 11
46.0
 21
20.249999999999979
 31
0.0
  0
LINE
  5
1671
  8
240
  6
CONTINUOUS
 10
49.5
 20
20.249999999999979
 30
0.0
 11
50.0
 21
19.749999999999972
 31
0.0
  0
LINE
  5
1717
  8
250
  6
CONTINUOUS
 10
0.0
 20
31.5
 30
0.0
 11
0.0000000000000007
 21
43.0
 31
0.0
  0
LINE
  5
1718
  8
250
  6
CONTINUOUS
 10
50.0
 20
20.249999999999989
 30
0.0
 11
50.0
 21
43.0
 31
0.0
  0
LINE
  5
1719
  8
250
  6
CONTINUOUS
 10
2.2299999999999991
 20
42.0
 30
0.0
 11
47.770000000000003
 21
42.0
 31
0.0
  0
LINE
  5
1738
  8
250
  6
CONTINUOUS
 10
2.2299999999999991
 20
41.62833333333333
 30
0.0
 11
0.0000000000000007
 21
42.0
 31
0.0
  0
LINE
  5
1739
  8
250
  6
CONTINUOUS
 10
2.2299999999999991
 20
42.371666666666663
 30
0.0
 11
0.0000000000000007
 21
42.0
 31
0.0
  0
LINE
  5
173A
  8
250
  6
CONTINUOUS
 10
0.0000000000000007
 20
42.0
 30
0.0
 11
2.2299999999999991
 21
42.0
 31
0.0
  0
TEXT
  5
173E
  8
250
  6
CONTINUOUS
 10
22.142857142857149
 20
43.0
 30
0.0
 40
3.0
  1
50
1001
ACAD
1000
MTEXTBEGIN
1070
    73
1070
     1
1070
    44
1040
1.0
1070
    74
1070
     0
1000
MTEXTEND
  0
LINE
  5
1742
  8
250
  6
CONTINUOUS
 10
47.770000000000003
 20
42.371666666666663
 30
0.0
 11
50.0
 21
42.0
 31
0.0
  0
LINE
  5
1743
  8
250
  6
CONTINUOUS
 10
47.770000000000003
 20
41.62833333333333
 30
0.0
 11
50.0
 21
42.0
 31
0.0
  0
LINE
  5
1744
  8
250
  6
CONTINUOUS
 10
50.0
 20
42.0
 30
0.0
 11
47.770000000000003
 21
42.0
 31
0.0
  0
LINE
  5
18F6
  8
250
  6
CONTINUOUS
 10
-30.062520689999989
 20
-28.29299147
 30
0.0
 11
-43.129187349999988
 21
-28.29299147
 31
0.0
1001
ITEMNAME
1000
LNSP2
  0
LINE
  5
18F7
  8
240
  6
CONTINUOUS
 10
-40.0
 20
18.0
 30
0.0
 11
0.0000000000000142
 21
18.0
 31
0.0
  0
LINE
  5
18F8
  8
240
  6
CONTINUOUS
 10
-0.0000000000000711
 20
-18.0
 30
0.0
 11
-40.0
 21
-18.0
 31
0.0
  0
LINE
  5
18F9
  8
240
  6
CONTINUOUS
 10
-40.0
 20
-18.0
 30
0.0
 11
-40.0
 21
18.0
 31
0.0
  0
LINE
  5
18FA
  8
245
  6
CENTER2
 10
-15.99999999999998
 20
7.0
 30
0.0
 11
-15.99999999999998
 21
-7.0
 31
0.0
  0
CIRCLE
  5
18FB
  8
241
  6
CONTINUOUS
 10
-15.99999999999998
 20
0.0
 30
0.0
 40
4.5
  0
CIRCLE
  5
18FC
  8
241
  6
CONTINUOUS
 10
-15.99999999999998
 20
0.0
 30
0.0
 40
6.0
  0
TEXT
  5
18FD
  8
250
  6
CONTINUOUS
 10
-40.729187349999989
 20
-27.29299147
 30
0.0
 40
2.799999999999998
  1
CK6
  7
YOKO
1001
ITEMNAME
1000
LNSP3
1001
ACAD
1000
MTEXTBEGIN
1070
    73
1070
     1
1070
    44
1040
1.0
1070
    74
1070
     0
1000
MTEXTEND
1000
MTEXTBEGIN
1070
    73
1070
     1
1070
    44
1040
1.0
1070
    74
1070
     0
1000
MTEXTEND
1000
MTEXTBEGIN
1070
    73
1070
     1
1070
    44
1040
1.0
1070
    74
1070
     0
1000
MTEXTEND
  0
LINE
  5
18FE
  8
250
  6
CONTINUOUS
 10
-25.234859290566948
 20
-19.931236650111959
 30
0.0
 11
-30.062520689999989
 21
-28.29299147
 31
0.0
1001
ACAD
1000
DSTYLE
1002
{
1070
     6
1000
OPEN
1070
   343
1005
0
1002
}
  0
LINE
  5
18FF
  8
250
  6
CONTINUOUS
 10
-25.55673207202306
 20
-19.745403312967468
 30
0.0
 11
-24.119859290000001
 21
-18.0
 31
0.0
  0
LINE
  5
1900
  8
250
  6
CONTINUOUS
 10
-24.912986509110841
 20
-20.11706998725646
 30
0.0
 11
-24.119859290000001
 21
-18.0
 31
0.0
  0
LINE
  5
1901
  8
250
  6
CONTINUOUS
 10
-24.119859290000001
 20
-18.0
 30
0.0
 11
-25.234859290566948
 21
-19.931236650111959
 31
0.0
  0
LINE
  5
1902
  8
247
  6
CONTINUOUS
 10
6.1204661509655871
 20
-24.000000000069889
 30
0.0
 11
6.1204661509655907
 21
-17.307692308029889
 31
0.0
  0
ARC
  5
1903
  8
247
  6
CONTINUOUS
 10
4.3704661510355907
 20
-24.000000000069889
 30
0.0
 40
1.7499999999299991
 50
180.0
 51
0.0
  0
ARC
  5
1904
  8
247
  6
CONTINUOUS
 10
4.3704661510355907
 20
-17.307692308029889
 30
0.0
 40
1.7499999999299991
 50
0.0
 51
180.0
  0
LINE
  5
1905
  8
247
  6
CONTINUOUS
 10
2.6204661511055911
 20
-23.134615384719879
 30
0.0
 11
5.6204661509855871
 21
-23.9948515419619
 31
0.0
  0
LINE
  5
1906
  8
247
  6
CONTINUOUS
 10
4.0435430741255907
 20
-22.234983818335721
 30
0.0
 11
4.0435430741255907
 21
-23.542676125975721
 31
0.0
  0
ARC
  5
1907
  8
247
  6
CONTINUOUS
 10
3.1700648186685672
 20
-21.895143816089671
 30
0.0
 40
0.5538165441895349
 50
72.997889675291617
 51
172.92416621851231
  0
ARC
  5
1908
  8
247
  6
CONTINUOUS
 10
3.0564991954313672
 20
-22.316878323028671
 30
0.0
 40
0.9904354236226808
 50
4.7429368522013924
 51
73.849226273267561
1001
GENIUS_GENOBJ-N-FIL_13
1002
{
1000
OWNER
1000
GEN
1002
}
1001
GENIUS_GENODEF_13
1002
{
1000
HIER
1070
     0
1002
}
1002
{
1000
MANEDIT
1070
     0
1002
}
1002
{
1000
NOSEL
1070
     0
1002
}
1002
{
1000
BEHIND
1070
     0
1002
}
1002
{
1000
OTHER
1070
     0
1002
}
1002
{
1000
REACTOR
1002
}
  0
LINE
  5
1909
  8
247
  6
CONTINUOUS
 10
5.6204661509855871
 20
-22.6871592343219
 30
0.0
 11
5.6204661509855871
 21
-23.9948515419619
 31
0.0
  0
LINE
  5
190A
  8
247
  6
CONTINUOUS
 10
2.6204661511055911
 20
-23.134615384719879
 30
0.0
 11
2.6204661511055911
 21
-21.826923077079901
 31
0.0
  0
ARC
  5
190B
  8
247
  6
CONTINUOUS
 10
4.6024903836311424
 20
-22.310919636546849
 30
0.0
 40
0.5640818586791229
 50
65.99094165253058
 51
172.26344345906949
  0
ARC
  5
190C
  8
247
  6
CONTINUOUS
 10
4.6078951901521812
 20
-22.788262685346961
 30
0.0
 40
1.0176059446230981
 50
5.7019851642581392
 51
77.277338436820884
1001
GENIUS_GENOBJ-N-FIL_13
1002
{
1000
OWNER
1000
GEN
1002
}
1001
GENIUS_GENODEF_13
1002
{
1000
HIER
1070
     0
1002
}
1002
{
1000
MANEDIT
1070
     0
1002
}
1002
{
1000
NOSEL
1070
     0
1002
}
1002
{
1000
BEHIND
1070
     0
1002
}
1002
{
1000
OTHER
1070
     0
1002
}
1002
{
1000
REACTOR
1002
}
  0
LINE
  5
190D
  8
247
  6
CONTINUOUS
 10
5.6204661509855871
 20
-21.033313080541902
 30
0.0
 11
2.6204661511055911
 21
-20.173076923299892
 31
0.0
  0
LINE
  5
190E
  8
247
  6
CONTINUOUS
 10
2.6204661511055911
 20
-17.750000000319879
 30
0.0
 11
2.6204661511055911
 21
-18.31573661945648
 31
0.0
  0
LINE
  5
190F
  8
247
  6
CONTINUOUS
 10
5.6204661509855871
 20
-19.211538461799879
 30
0.0
 11
5.6204661509855871
 21
-18.596153846439879
 31
0.0
  0
ARC
  5
1910
  8
247
  6
CONTINUOUS
 10
4.7037512869389744
 20
-17.45879120912274
 30
0.0
 40
2.2526500823422122
 50
202.3594881415267
 51
254.9932485428466
  0
ARC
  5
1911
  8
247
  6
CONTINUOUS
 10
3.4287788061601021
 20
-18.124069479213109
 30
0.0
 40
0.8906723995727782
 50
94.994589319075104
 51
155.16632895730359
1001
GENIUS_GENOBJ-N-FIL_13
1002
{
1000
OWNER
1000
GEN
1002
}
1001
GENIUS_GENODEF_13
1002
{
1000
HIER
1070
     0
1002
}
1002
{
1000
MANEDIT
1070
     0
1002
}
1002
{
1000
NOSEL
1070
     0
1002
}
1002
{
1000
BEHIND
1070
     0
1002
}
1002
{
1000
OTHER
1070
     0
1002
}
1002
{
1000
REACTOR
1002
}
  0
ARC
  5
1912
  8
247
  6
CONTINUOUS
 10
4.2806120396333478
 20
-18.97645888621248
 30
0.0
 40
1.392781735586712
 50
15.84609655577926
 51
82.325137004170557
  0
ARC
  5
1913
  8
247
  6
CONTINUOUS
 10
4.5797095824928764
 20
-18.392212725840238
 30
0.0
 40
1.324563662670287
 50
249.71360167049809
 51
321.78874565640763
1001
GENIUS_GENOBJ-N-FIL_13
1002
{
1000
OWNER
1000
GEN
1002
}
1001
GENIUS_GENODEF_13
1002
{
1000
HIER
1070
     0
1002
}
1002
{
1000
MANEDIT
1070
     0
1002
}
1002
{
1000
NOSEL
1070
     0
1002
}
1002
{
1000
BEHIND
1070
     0
1002
}
1002
{
1000
OTHER
1070
     0
1002
}
1002
{
1000
REACTOR
1002
}
  0
LINE
  5
1914
  8
247
  6
CONTINUOUS
 10
4.4666199971855924
 20
-18.288461538759879
 30
0.0
 11
4.4666199971855924
 21
-17.596153846479879
 31
0.0
  0
LINE
  5
1915
  8
247
  6
CONTINUOUS
 10
2.6204661511055911
 20
-24.000000000069889
 30
0.0
 11
2.6204661511055911
 21
-23.326923077019892
 31
0.0
  0
VIEWPORT
  5
22
 67
     1
  8
0
 10
261.51769911504419
 20
148.5
 30
0.0
 40
523.0353982300885
 41
297.0
 68
     1
 69
     1
1001
ACAD
1000
MVIEW
1002
{
1070
    16
1010
0.0
1020
0.0
1030
0.0
1010
0.0
1020
0.0
1030
1.0
1040
0.0
1040
297.0
1040
261.51769911504419
1040
148.5
1040
50.0
1040
0.0
1040
0.0
1070
     0
1070
   100
1070
     1
1070
     1
1070
     0
1070
     0
1070
     0
1070
     0
1040
0.0
1040
0.0
1040
0.0
1040
1.0
1040
1.0
1040
10.0
1040
10.0
1070
     0
1002
{
1002
}
1002
}
1001
GENIUS_GENOBJ-N-SDF_13
1002
{
1000
OWNER
1000
GEN
1002
}
1001
GENIUS_GENODEF_13
1002
{
1000
HIER
1070
     0
1002
}
1002
{
1000
MANEDIT
1070
     0
1002
}
1002
{
1000
NOSEL
1070
     0
1002
}
1002
{
1000
BEHIND
1070
     0
1002
}
1002
{
1000
OTHER
1070
     0
1002
}
1002
{
1000
REACTOR
1002
}
1001
GENIUS_GENSCREG_15
1000
PF
1040
1.0
1000
DF
1040
1.0
1000
MIN
1011
0.0
1021
0.0
1031
0.0
1021
0.0
1031
0.0
1000
MAX
1011
523.0353982300885
1021
0.0
1031
0.0
1021
297.0
1031
0.0
1000
FLAGS
1070
     4
  0
ENDSEC
  0
EOF
