  0
SECTION
  2
HEADER
  9
$ACADVER
  1
AC1009
  9
$INSBASE
 10
0.0
 20
0.0
 30
0.0
  9
$EXTMIN
 10
-10.800000000000001
 20
-15.000000000000069
 30
0.0
  9
$EXTMAX
 10
69.252608051282323
 20
46.000000000000057
 30
0.0
  9
$LIMMIN
 10
0.0
 20
0.0
  9
$LIMMAX
 10
297.0
 20
210.0
  9
$ORTHOMODE
 70
     0
  9
$REGENMODE
 70
     1
  9
$FILLMODE
 70
     1
  9
$QTEXTMODE
 70
     0
  9
$MIRRTEXT
 70
     1
  9
$DRAGMODE
 70
     2
  9
$LTSCALE
 40
10.0
  9
$OSMODE
 70
    39
  9
$ATTMODE
 70
     1
  9
$TEXTSIZE
 40
3.0
  9
$TRACEWID
 40
1.0
  9
$TEXTSTYLE
  7
YOKO
  9
$CLAYER
  8
240
  9
$CELTYPE
  6
BYLAYER
  9
$CECOLOR
 62
   256
  9
$DIMSCALE
 40
1.0
  9
$DIMASZ
 40
2.2299999999999991
  9
$DIMEXO
 40
0.5
  9
$DIMDLI
 40
7.0
  9
$DIMRND
 40
0.0
  9
$DIMDLE
 40
0.0
  9
$DIMEXE
 40
1.0
  9
$DIMTP
 40
0.0
  9
$DIMTM
 40
0.01
  9
$DIMTXT
 40
2.7999999999999989
  9
$DIMCEN
 40
0.0
  9
$DIMTSZ
 40
0.0
  9
$DIMTOL
 70
     0
  9
$DIMLIM
 70
     0
  9
$DIMTIH
 70
     0
  9
$DIMTOH
 70
     0
  9
$DIMSE1
 70
     0
  9
$DIMSE2
 70
     0
  9
$DIMTAD
 70
     3
  9
$DIMZIN
 70
     9
  9
$DIMBLK
  1
OPEN
  9
$DIMASO
 70
     1
  9
$DIMSHO
 70
     1
  9
$DIMPOST
  1

  9
$DIMAPOST
  1

  9
$DIMALT
 70
     0
  9
$DIMALTD
 70
     2
  9
$DIMALTF
 40
25.399999999999999
  9
$DIMLFAC
 40
1.0
  9
$DIMTOFL
 70
     1
  9
$DIMTVP
 40
0.0
  9
$DIMTIX
 70
     1
  9
$DIMSOXD
 70
     0
  9
$DIMSAH
 70
     0
  9
$DIMBLK1
  1

  9
$DIMBLK2
  1

  9
$DIMSTYLE
  2
BIGT
  9
$DIMCLRD
 70
   256
  9
$DIMCLRE
 70
   256
  9
$DIMCLRT
 70
    40
  9
$DIMTFAC
 40
1.0
  9
$DIMGAP
 40
1.0
  9
$LUNITS
 70
     2
  9
$LUPREC
 70
     6
  9
$SKETCHINC
 40
1.0
  9
$FILLETRAD
 40
0.0
  9
$AUNITS
 70
     0
  9
$AUPREC
 70
     6
  9
$MENU
  1
.
  9
$ELEVATION
 40
0.0
  9
$PELEVATION
 40
0.0
  9
$THICKNESS
 40
0.0
  9
$LIMCHECK
 70
     0
  9
$BLIPMODE
 70
     0
  9
$CHAMFERA
 40
0.2
  9
$CHAMFERB
 40
0.2
  9
$SKPOLY
 70
     0
  9
$TDCREATE
 40
2459699.3869320722
  9
$TDUPDATE
 40
2459699.4029059722
  9
$TDINDWG
 40
0.0157325926
  9
$TDUSRTIMER
 40
0.0157325347
  9
$USRTIMER
 70
     1
  9
$ANGBASE
 50
0.0
  9
$ANGDIR
 70
     0
  9
$PDMODE
 70
     1
  9
$PDSIZE
 40
0.0
  9
$PLINEWID
 40
0.0
  9
$COORDS
 70
     1
  9
$SPLFRAME
 70
     0
  9
$SPLINETYPE
 70
     6
  9
$SPLINESEGS
 70
     4
  9
$ATTDIA
 70
     1
  9
$ATTREQ
 70
     1
  9
$HANDLING
 70
     1
  9
$HANDSEED
  5
498E
  9
$SURFTAB1
 70
     6
  9
$SURFTAB2
 70
     6
  9
$SURFTYPE
 70
     6
  9
$SURFU
 70
     6
  9
$SURFV
 70
     6
  9
$UCSNAME
  2

  9
$UCSORG
 10
0.0
 20
0.0
 30
0.0
  9
$UCSXDIR
 10
1.0
 20
0.0
 30
0.0
  9
$UCSYDIR
 10
0.0
 20
1.0
 30
0.0
  9
$PUCSNAME
  2

  9
$PUCSORG
 10
0.0
 20
0.0
 30
0.0
  9
$PUCSXDIR
 10
1.0
 20
0.0
 30
0.0
  9
$PUCSYDIR
 10
0.0
 20
1.0
 30
0.0
  9
$USERI1
 70
     1
  9
$USERI2
 70
     0
  9
$USERI3
 70
     0
  9
$USERI4
 70
     0
  9
$USERI5
 70
     0
  9
$USERR1
 40
0.0
  9
$USERR2
 40
0.0
  9
$USERR3
 40
0.0
  9
$USERR4
 40
0.0
  9
$USERR5
 40
0.0
  9
$WORLDVIEW
 70
     1
  9
$SHADEDGE
 70
     3
  9
$SHADEDIF
 70
    70
  9
$TILEMODE
 70
     1
  9
$MAXACTVP
 70
    16
  9
$PLIMCHECK
 70
     0
  9
$PEXTMIN
 10
1.0000000000000000E+020
 20
1.0000000000000000E+020
 30
1.0000000000000000E+020
  9
$PEXTMAX
 10
-1.0000000000000000E+020
 20
-1.0000000000000000E+020
 30
-1.0000000000000000E+020
  9
$PLIMMIN
 10
0.0
 20
0.0
  9
$PLIMMAX
 10
420.0
 20
297.0
  9
$UNITMODE
 70
     0
  9
$VISRETAIN
 70
     1
  9
$PLINEGEN
 70
     0
  9
$PSLTSCALE
 70
     1
  0
ENDSEC
  0
SECTION
  2
TABLES
  0
TABLE
  2
VPORT
 70
     1
  0
VPORT
  2
*ACTIVE
 70
     0
 10
0.0
 20
0.0
 11
1.0
 21
1.0
 12
34.56226990505256
 22
26.9642504992878
 13
0.0
 23
0.0
 14
7.0
 24
7.0
 15
7.0
 25
7.0
 16
0.0
 26
0.0
 36
1.0
 17
0.0
 27
0.0
 37
0.0
 40
111.88453524535061
 41
1.5992366412213741
 42
50.0
 43
0.0
 44
0.0
 50
0.0
 51
0.0
 71
     0
 72
  2000
 73
     1
 74
     0
 75
     0
 76
     1
 77
     0
 78
     0
  0
ENDTAB
  0
TABLE
  2
LTYPE
 70
    13
  0
LTYPE
  2
CONTINUOUS
 70
     0
  3
Solid line
 72
    65
 73
     0
 40
0.0
  0
LTYPE
  2
CENTER2
 70
     0
  3
___ _ ___ _ ___ _ ___ _ ___ _ ___ _ ___ _ ___ _
 72
    65
 73
     4
 40
1.125
 49
0.75
 49
-0.125
 49
0.125
 49
-0.125
  0
LTYPE
  2
HIDDEN2
 70
     0
  3
_ _ _ _ _ _ _ _ _ _ _ _ _ _ _ _ _ _ _ _ _ _ _ _
 72
    65
 73
     2
 40
0.1875
 49
0.125
 49
-0.0625
  0
LTYPE
  2
PHANTOM2
 70
     0
  3
___ _ _ ___ _ _ ___ _ _ ___ _ _ ___ _ _ ___ _ _
 72
    65
 73
     6
 40
1.25
 49
0.625
 49
-0.125
 49
0.125
 49
-0.125
 49
0.125
 49
-0.125
  0
LTYPE
  2
AM_ISO02W050
 70
     0
  3
__ __ __ __ __ __ __ __ __ __ __ __ __ __ __
 72
    65
 73
     2
 40
7.5
 49
6.0
 49
-1.5
  0
LTYPE
  2
AMCONSTR
 70
     0
  3
_______________________
 72
    65
 73
     2
 40
9999.0
 49
9999.0
 49
0.0
  0
LTYPE
  2
ACISOWELD
 70
     0
  3
_ _ _ _ _
 72
    65
 73
     2
 40
2.0
 49
2.0
 49
-1.0
  0
LTYPE
  2
ACISOTGB
 70
     0
  3
__ . . __ . .
 72
    65
 73
     6
 40
9.0
 49
4.0
 49
-1.0
 49
1.0
 49
-1.0
 49
1.0
 49
-1.0
  0
LTYPE
  2
ACISOTGL
 70
     0
  3
_ _ _ _ _
 72
    65
 73
     2
 40
3.0
 49
2.0
 49
-1.0
  0
LTYPE
  2
ACJISTGB
 70
     0
  3
__ . . __ . .
 72
    65
 73
     6
 40
9.0
 49
4.0
 49
-1.0
 49
1.0
 49
-1.0
 49
1.0
 49
-1.0
  0
LTYPE
  2
ACJISTGL
 70
     0
  3
_ _ _ _ _
 72
    65
 73
     2
 40
3.0
 49
2.0
 49
-1.0
  0
ENDTAB
  0
TABLE
  2
LAYER
 70
     6
  0
LAYER
  2
0
 70
     0
 62
    -7
  6
CONTINUOUS
  0
LAYER
  2
DEFPOINTS
 70
     0
 62
     7
  6
CONTINUOUS
  0
LAYER
  2
245
 70
     0
 62
     2
  6
CENTER2
  0
LAYER
  2
240
 70
     0
 62
     4
  6
CONTINUOUS
  0
LAYER
  2
241
 70
     0
 62
   211
  6
CONTINUOUS
  0
LAYER
  2
250
 70
     0
 62
     3
  6
CONTINUOUS
  0
ENDTAB
  0
TABLE
  2
STYLE
 70
     6
  0
STYLE
  2
STANDARD
 70
     0
 40
0.0
 41
1.0
 50
0.0
 71
     0
 42
3.0
  3
romans.shx
  4
extfont.shx
  0
STYLE
  2
ACISOTS
 70
     0
 40
1.0
 41
1.0
 50
0.0
 71
     0
 42
3.0
  3
amgdt.shx
  4
extfont.shx
  0
STYLE
  2
ACISOGDT
 70
     0
 40
0.0
 41
1.0
 50
0.0
 71
     0
 42
3.0
  3
amgdt.shx
  4
extfont.shx
  0
STYLE
  2
ACJISTS
 70
     0
 40
1.0
 41
1.0
 50
0.0
 71
     0
 42
3.0
  3
amgdt.shx
  4
extfont.shx
  0
STYLE
  2
ACJISGDT
 70
     0
 40
0.0
 41
1.0
 50
0.0
 71
     0
 42
3.0
  3
amgdt.shx
  4
extfont.shx
  0
STYLE
  2
YOKO
 70
     0
 40
0.0
 41
1.0
 50
0.0
 71
     0
 42
3.0
  3
romans.shx
  4
extfont.shx
  0
ENDTAB
  0
TABLE
  2
VIEW
 70
     0
  0
ENDTAB
  0
TABLE
  2
UCS
 70
     0
  0
ENDTAB
  0
TABLE
  2
APPID
 70
    43
  0
APPID
  2
ACAD
 70
     0
  0
APPID
  2
GLOBAL
 70
     0
  0
APPID
  2
DETAIL
 70
     0
  0
APPID
  2
GRPNAME
 70
     0
  0
APPID
  2
GPARA
 70
     0
  0
APPID
  2
MCAD_NO_VIS
 70
     0
  0
APPID
  2
ACAD_TEMP_GRAPHIC
 70
     0
  0
APPID
  2
ACATTRIBSERVICES
 70
     0
  0
APPID
  2
GENIUS_GENSCREG_15
 70
     0
  0
APPID
  2
GENIUS_GENODEF_13
 70
     0
  0
APPID
  2
GENIUS_GENOBJ-N-SDF_13
 70
     0
  0
APPID
  2
GENIUS_GENREC_14
 70
     0
  0
APPID
  2
GENIUS_GENOBJ-N-REC_13
 70
     0
  0
APPID
  2
GENIUS_GENDIMSH_14
 70
     0
  0
APPID
  2
GENIUS_GENOBJ-N-DIM_13
 70
     0
  0
APPID
  2
GENIUS_GENDIM_13
 70
     0
  0
APPID
  2
GENIUS_GENDTOL_13
 70
     0
  0
APPID
  2
GENIUS_GENOLIS_13
 70
     0
  0
APPID
  2
GENIUS_GENOENT_13
 70
     0
  0
APPID
  2
GENIUS_GENOBJ-F-FEM_13
 70
     0
  0
APPID
  2
GENIUS_GENOREF_13
 70
     0
  0
APPID
  2
GENIUS_GEFFEM_13
 70
     0
  0
APPID
  2
GENIUS_GEFFEMP_13
 70
     0
  0
APPID
  2
AD_DRAW
 70
     0
  0
APPID
  2
DESIGNERASSEMBLIES
 70
     0
  0
APPID
  2
ACADM_DIM_EDIT
 70
     0
  0
APPID
  2
AMDT_DM_ADJ
 70
     0
  0
APPID
  2
ITEMNAME
 70
     0
  0
APPID
  2
GENIUS_GENOBJ-N-FIL_13
 70
     0
  0
APPID
  2
GENIUS_GENFIL_13
 70
     0
  0
APPID
  2
GENIUS_GENOBJ-N-CHA_13
 70
     0
  0
APPID
  2
ACAD_NAV_VCDISPLAY
 70
     0
  0
APPID
  2
ACAECLAYERSTANDARD
 70
     0
  0
APPID
  2
ACAD_PSEXT
 70
     0
  0
APPID
  2
ACAD_DSTYLE_DIMINSPECT
 70
     0
  0
APPID
  2
ACAD_DSTYLE_DIMRADIAL_EXTENSION
 70
     0
  0
APPID
  2
GENIUS_GENOBJ-N-RSBK_13
 70
     0
  0
APPID
  2
GENIUS_GENOBJ-N-LIB_13
 70
     0
  0
APPID
  2
GENIUS_GENSCALE_13
 70
     0
  0
APPID
  2
PLOTTRANSPARENCY
 70
     0
  0
APPID
  2
ACAD_EXEMPT_FROM_CAD_STANDARDS
 70
     0
  0
APPID
  2
ACAD_DSTYLE_DIMANGULAR_EXT
 70
     0
  0
APPID
  2
ACAD_MLEADERVER
 70
     0
  0
ENDTAB
  0
TABLE
  2
DIMSTYLE
 70
    23
  0
DIMSTYLE
  2
BIGT
 70
     0
  3

  4

  5
OPEN
  6

  7

 40
1.0
 41
2.2299999999999991
 42
0.5
 43
7.0
 44
1.0
 45
0.0
 46
0.0
 47
0.0
 48
0.01
140
2.7999999999999989
141
0.0
142
0.0
143
25.399999999999999
144
1.0
145
0.0
146
1.0
147
1.0
 71
     0
 72
     0
 73
     0
 74
     0
 75
     0
 76
     0
 77
     3
 78
     9
170
     0
171
     2
172
     1
173
     0
174
     1
175
     0
176
   256
177
   256
178
    40
  0
DIMSTYLE
  2
AM_ISO
 70
     0
  3

  4
"
  5

  6

  7

 40
1.0
 41
2.5
 42
1.0
 43
10.0
 44
1.0
 45
0.0
 46
0.0
 47
0.1
 48
0.1
140
3.5
141
0.0
142
0.0
143
0.0393701
144
1.0
145
0.0
146
0.71
147
1.5
 71
     0
 72
     0
 73
     0
 74
     0
 75
     0
 76
     0
 77
     1
 78
     8
170
     0
171
     2
172
     1
173
     0
174
     0
175
     0
176
   256
177
   256
178
     2
  0
DIMSTYLE
  2
AM_ISO$3
 70
     0
  3

  4
"
  5

  6

  7

 40
1.0
 41
2.5
 42
1.0
 43
10.0
 44
1.0
 45
0.0
 46
0.0
 47
0.1
 48
0.1
140
3.5
141
0.0
142
0.0
143
0.0393701
144
1.0
145
0.0
146
0.71
147
1.5
 71
     0
 72
     0
 73
     0
 74
     1
 75
     0
 76
     0
 77
     1
 78
     8
170
     0
171
     2
172
     0
173
     0
174
     0
175
     0
176
   256
177
   256
178
     2
  0
DIMSTYLE
  2
AM_ISO$4
 70
     0
  3

  4
"
  5

  6

  7

 40
1.0
 41
2.5
 42
1.0
 43
10.0
 44
1.0
 45
0.0
 46
0.0
 47
0.1
 48
0.1
140
3.5
141
0.0
142
0.0
143
0.0393701
144
1.0
145
0.0
146
0.71
147
1.5
 71
     0
 72
     0
 73
     0
 74
     1
 75
     0
 76
     0
 77
     1
 78
     8
170
     0
171
     2
172
     0
173
     0
174
     0
175
     0
176
   256
177
   256
178
     2
  0
DIMSTYLE
  2
AM_ISO$6
 70
     0
  3

  4
"
  5

  6

  7

 40
1.0
 41
2.5
 42
1.0
 43
10.0
 44
1.0
 45
0.0
 46
0.0
 47
0.1
 48
0.1
140
3.5
141
0.0
142
0.0
143
0.0393701
144
1.0
145
0.0
146
0.71
147
1.5
 71
     0
 72
     0
 73
     0
 74
     0
 75
     0
 76
     0
 77
     0
 78
     8
170
     0
171
     2
172
     1
173
     0
174
     0
175
     0
176
   256
177
   256
178
     2
  0
DIMSTYLE
  2
AM_ISO$7
 70
     0
  3

  4
"
  5

  6

  7

 40
1.0
 41
2.5
 42
1.0
 43
10.0
 44
1.0
 45
0.0
 46
0.0
 47
0.1
 48
0.1
140
5.0
141
0.0
142
0.0
143
0.0393701
144
1.0
145
0.0
146
0.71
147
1.5
 71
     0
 72
     0
 73
     0
 74
     0
 75
     0
 76
     0
 77
     1
 78
     8
170
     0
171
     2
172
     1
173
     0
174
     0
175
     0
176
   256
177
   256
178
     2
  0
DIMSTYLE
  2
AM_ISO$SF
 70
     0
  3

  4
"
  5

  6

  7

 40
1.0
 41
2.5
 42
1.0
 43
10.0
 44
1.0
 45
0.0
 46
0.0
 47
0.1
 48
0.1
140
3.5
141
0.0
142
0.0
143
0.0393701
144
1.0
145
0.0
146
0.71
147
1.5
 71
     0
 72
     0
 73
     0
 74
     0
 75
     1
 76
     1
 77
     1
 78
     8
170
     0
171
     2
172
     1
173
     0
174
     0
175
     0
176
   256
177
   256
178
     2
  0
DIMSTYLE
  2
AM_ISO$SH
 70
     0
  3

  4
"
  5

  6
GENAXEH
  7

 40
1.0
 41
2.5
 42
1.0
 43
10.0
 44
1.0
 45
0.0
 46
0.0
 47
0.1
 48
0.1
140
3.5
141
0.0
142
0.0
143
0.0393701
144
2.0
145
0.0
146
0.71
147
1.5
 71
     0
 72
     0
 73
     0
 74
     0
 75
     1
 76
     1
 77
     1
 78
     8
170
     0
171
     2
172
     1
173
     1
174
     0
175
     0
176
   256
177
   256
178
     2
  0
DIMSTYLE
  2
BIGT$2
 70
     0
  3

  4

  5
OPEN
  6

  7

 40
1.0
 41
2.2299999999999991
 42
0.5
 43
7.0
 44
1.0
 45
0.0
 46
0.0
 47
0.0
 48
0.01
140
2.7999999999999989
141
0.0
142
0.0
143
25.399999999999999
144
1.0
145
0.0
146
1.0
147
1.0
 71
     0
 72
     0
 73
     0
 74
     0
 75
     0
 76
     0
 77
     3
 78
     9
170
     0
171
     2
172
     1
173
     0
174
     0
175
     0
176
   256
177
   256
178
    40
  0
DIMSTYLE
  2
BIGT$3
 70
     0
  3

  4

  5
OPEN
  6

  7

 40
1.0
 41
2.2299999999999991
 42
0.5
 43
2.5
 44
1.0
 45
0.0
 46
0.0
 47
0.0
 48
0.01
140
2.7999999999999989
141
0.0
142
0.0
143
25.399999999999999
144
1.0
145
0.0
146
1.0
147
1.0
 71
     0
 72
     0
 73
     0
 74
     0
 75
     0
 76
     0
 77
     3
 78
     9
170
     0
171
     2
172
     1
173
     0
174
     0
175
     0
176
   256
177
   256
178
    40
  0
DIMSTYLE
  2
BIGT$7
 70
     0
  3

  4

  5
OPEN
  6

  7

 40
0.0
 41
2.2299999999999991
 42
0.5
 43
7.0
 44
1.0
 45
0.0
 46
0.0
 47
0.0
 48
0.01
140
2.7999999999999989
141
0.0
142
0.0
143
25.399999999999999
144
1.0
145
0.0
146
1.0
147
1.0
 71
     0
 72
     0
 73
     0
 74
     0
 75
     0
 76
     0
 77
     3
 78
     9
170
     0
171
     2
172
     0
173
     0
174
     0
175
     0
176
   256
177
   256
178
    40
  0
DIMSTYLE
  2
BIGT$6
 70
     0
  3

  4

  5
OPEN
  6

  7

 40
1.0
 41
2.2299999999999991
 42
0.5
 43
2.5
 44
1.0
 45
0.0
 46
0.0
 47
0.0
 48
0.01
140
2.7999999999999989
141
0.0
142
0.0
143
25.399999999999999
144
1.0
145
0.0
146
1.0
147
1.0
 71
     0
 72
     0
 73
     0
 74
     0
 75
     0
 76
     0
 77
     3
 78
     9
170
     0
171
     2
172
     1
173
     0
174
     0
175
     0
176
   256
177
   256
178
    40
  0
DIMSTYLE
  2
BIGT$0
 70
     0
  3

  4

  5
OPEN
  6

  7

 40
1.0
 41
2.2299999999999991
 42
0.5
 43
7.0
 44
1.0
 45
0.0
 46
0.0
 47
0.0
 48
0.01
140
2.7999999999999989
141
0.0
142
0.0
143
25.399999999999999
144
1.0
145
0.0
146
1.0
147
1.0
 71
     0
 72
     0
 73
     0
 74
     0
 75
     0
 76
     0
 77
     3
 78
     9
170
     0
171
     2
172
     1
173
     0
174
     1
175
     0
176
   256
177
   256
178
    40
  0
DIMSTYLE
  2
BIGT$4
 70
     0
  3

  4

  5
OPEN
  6

  7

 40
1.0
 41
2.2299999999999991
 42
0.5
 43
2.5
 44
1.0
 45
0.0
 46
0.0
 47
0.0
 48
0.01
140
2.7999999999999989
141
0.0
142
0.0
143
25.399999999999999
144
1.0
145
0.0
146
1.0
147
1.0
 71
     0
 72
     0
 73
     0
 74
     0
 75
     0
 76
     0
 77
     3
 78
     9
170
     0
171
     2
172
     1
173
     0
174
     0
175
     0
176
   256
177
   256
178
    40
  0
DIMSTYLE
  2
BIGT$SH
 70
     0
  3

  4

  5
OPEN
  6

  7

 40
1.0
 41
2.2299999999999991
 42
0.5
 43
7.0
 44
1.0
 45
0.0
 46
0.0
 47
0.0
 48
0.0
140
2.7999999999999989
141
0.0
142
0.0
143
25.399999999999999
144
1.0
145
0.0
146
1.0
147
1.0
 71
     0
 72
     0
 73
     0
 74
     0
 75
     0
 76
     0
 77
     3
 78
     9
170
     0
171
     2
172
     1
173
     0
174
     0
175
     0
176
   256
177
   256
178
    40
  0
DIMSTYLE
  2
BIGT$SF
 70
     0
  3

  4

  5
OPEN
  6

  7

 40
1.0
 41
2.2299999999999991
 42
0.5
 43
7.0
 44
1.0
 45
0.0
 46
0.0
 47
0.0
 48
0.0
140
2.7999999999999989
141
0.0
142
0.0
143
25.399999999999999
144
1.0
145
0.0
146
1.0
147
1.0
 71
     0
 72
     0
 73
     0
 74
     0
 75
     0
 76
     0
 77
     3
 78
     9
170
     0
171
     2
172
     1
173
     0
174
     0
175
     0
176
   256
177
   256
178
    40
  0
DIMSTYLE
  2
TECHNICAL_OSAKA
 70
     0
  3

  4
"
  5
OPEN30
  6

  7

 40
1.0
 41
2.5
 42
1.0
 43
10.0
 44
1.0
 45
0.0
 46
0.0
 47
0.1
 48
0.1
140
2.7999999999999989
141
0.0
142
0.0
143
0.0393701
144
1.0
145
0.0
146
0.71
147
1.5
 71
     0
 72
     0
 73
     0
 74
     0
 75
     0
 76
     0
 77
     3
 78
     8
170
     0
171
     2
172
     1
173
     0
174
     0
175
     0
176
   256
177
   256
178
    40
  0
DIMSTYLE
  2
TECHNICAL_OSAKA$3
 70
     0
  3

  4
"
  5
OPEN30
  6

  7

 40
1.0
 41
2.5
 42
1.0
 43
10.0
 44
1.0
 45
0.0
 46
0.0
 47
0.1
 48
0.1
140
2.7999999999999989
141
0.0
142
0.0
143
0.0393701
144
1.0
145
0.0
146
0.71
147
1.5
 71
     0
 72
     0
 73
     0
 74
     1
 75
     0
 76
     0
 77
     3
 78
     8
170
     0
171
     2
172
     0
173
     0
174
     0
175
     0
176
   256
177
   256
178
    40
  0
DIMSTYLE
  2
TECHNICAL_OSAKA$4
 70
     0
  3

  4
"
  5
OPEN30
  6

  7

 40
1.0
 41
2.5
 42
1.0
 43
10.0
 44
1.0
 45
0.0
 46
0.0
 47
0.1
 48
0.1
140
2.7999999999999989
141
0.0
142
0.0
143
0.0393701
144
1.0
145
0.0
146
0.71
147
1.5
 71
     0
 72
     0
 73
     0
 74
     1
 75
     0
 76
     0
 77
     3
 78
     8
170
     0
171
     2
172
     0
173
     0
174
     0
175
     0
176
   256
177
   256
178
    40
  0
DIMSTYLE
  2
TECHNICAL_OSAKA$6
 70
     0
  3

  4
"
  5
OPEN30
  6

  7

 40
1.0
 41
2.5
 42
1.0
 43
10.0
 44
1.0
 45
0.0
 46
0.0
 47
0.1
 48
0.1
140
2.7999999999999989
141
0.0
142
0.0
143
0.0393701
144
1.0
145
0.0
146
0.71
147
1.5
 71
     0
 72
     0
 73
     0
 74
     0
 75
     0
 76
     0
 77
     0
 78
     8
170
     0
171
     2
172
     1
173
     0
174
     0
175
     0
176
   256
177
   256
178
    40
  0
DIMSTYLE
  2
TECHNICAL_OSAKA$7
 70
     0
  3

  4
"
  5
OPEN30
  6

  7

 40
1.0
 41
2.5
 42
1.0
 43
10.0
 44
1.0
 45
0.0
 46
0.0
 47
0.1
 48
0.1
140
2.7999999999999989
141
0.0
142
0.0
143
0.0393701
144
1.0
145
0.0
146
0.71
147
1.5
 71
     0
 72
     0
 73
     0
 74
     0
 75
     0
 76
     0
 77
     3
 78
     8
170
     0
171
     2
172
     1
173
     0
174
     0
175
     0
176
   256
177
   256
178
    40
  0
DIMSTYLE
  2
TECHNICAL_OSAKA$SF
 70
     0
  3

  4
"
  5
OPEN30
  6
OPEN30
  7
OPEN30
 40
1.0
 41
2.5
 42
1.0
 43
10.0
 44
1.0
 45
0.0
 46
0.0
 47
0.1
 48
0.1
140
3.5
141
0.0
142
0.0
143
0.0393701
144
1.0
145
0.0
146
0.71
147
1.5
 71
     0
 72
     0
 73
     0
 74
     0
 75
     1
 76
     1
 77
     3
 78
     8
170
     0
171
     2
172
     1
173
     0
174
     0
175
     0
176
   256
177
   256
178
    40
  0
DIMSTYLE
  2
TECHNICAL_OSAKA$SH
 70
     0
  3

  4
"
  5
OPEN30
  6
GENAXEH
  7
OPEN30
 40
1.0
 41
2.5
 42
1.0
 43
10.0
 44
1.0
 45
0.0
 46
0.0
 47
0.1
 48
0.1
140
3.5
141
0.0
142
0.0
143
0.0393701
144
2.0
145
0.0
146
0.71
147
1.5
 71
     0
 72
     0
 73
     0
 74
     0
 75
     1
 76
     1
 77
     3
 78
     8
170
     0
171
     2
172
     1
173
     1
174
     0
175
     0
176
   256
177
   256
178
    40
  0
ENDTAB
  0
ENDSEC
  0
SECTION
  2
BLOCKS
  0
BLOCK
  8
0
  2
$MODEL_SPACE
 70
     0
 10
0.0
 20
0.0
 30
0.0
  3
$MODEL_SPACE
  1

  0
ENDBLK
  5
1C
  8
0
  0
BLOCK
 67
     1
  8
0
  2
$PAPER_SPACE
 70
     0
 10
0.0
 20
0.0
 30
0.0
  3
$PAPER_SPACE
  1

  0
ENDBLK
  5
19
 67
     1
  8
0
  0
BLOCK
  8
0
  2
_OPEN
 70
     0
 10
0.0
 20
0.0
 30
0.0
  3
_OPEN
  1

  0
LINE
  5
48A1
  8
0
  6
BYBLOCK
 62
     0
 10
-1.0
 20
0.1666666666666666
 30
0.0
 11
0.0
 21
0.0
 31
0.0
  0
LINE
  5
48A2
  8
0
  6
BYBLOCK
 62
     0
 10
-1.0
 20
-0.1666666666666666
 30
0.0
 11
0.0
 21
0.0
 31
0.0
  0
LINE
  5
48A3
  8
0
  6
BYBLOCK
 62
     0
 10
0.0
 20
0.0
 30
0.0
 11
-1.0
 21
0.0
 31
0.0
  0
ENDBLK
  5
48A4
  8
0
  0
BLOCK
  8
0
  2
GENAXEH
 70
     0
 10
0.0
 20
0.0
 30
0.0
  3
GENAXEH
  1

  0
LINE
  5
48DC
  8
0
 10
-1.0
 20
0.0
 30
0.0
 11
1.0
 21
0.0
 31
0.0
  0
ENDBLK
  5
48DD
  8
0
  0
BLOCK
  8
0
  2
_OPEN30
 70
     0
 10
0.0
 20
0.0
 30
0.0
  3
_OPEN30
  1

  0
LINE
  5
4918
  8
0
  6
BYBLOCK
 62
     0
 10
-1.0
 20
0.26794919
 30
0.0
 11
0.0
 21
0.0
 31
0.0
  0
LINE
  5
4919
  8
0
  6
BYBLOCK
 62
     0
 10
0.0
 20
0.0
 30
0.0
 11
-1.0
 21
-0.26794919
 31
0.0
  0
LINE
  5
491A
  8
0
  6
BYBLOCK
 62
     0
 10
0.0
 20
0.0
 30
0.0
 11
-1.0
 21
0.0
 31
0.0
  0
ENDBLK
  5
491B
  8
0
  0
ENDSEC
  0
SECTION
  2
ENTITIES
  0
LINE
  5
43B5
  8
241
  6
CONTINUOUS
 10
60.5550056741464
 20
1.000000000000028
 30
0.0
 11
67.855005674146184
 21
1.000000000000028
 31
0.0
  0
LINE
  5
43B9
  8
241
  6
CONTINUOUS
 10
61.655005674145819
 20
9.1562668126517508
 30
0.0
 11
63.055005674146081
 21
9.1562668126517508
 31
0.0
  0
LINE
  5
43C3
  8
240
  6
CONTINUOUS
 10
0.0
 20
0.2999999999999971
 30
0.0
 11
0.0
 21
16.500000000000139
 31
0.0
  0
LINE
  5
43C4
  8
240
  6
CONTINUOUS
 10
0.3000000000000114
 20
0.0
 30
0.0
 11
0.0
 21
0.2999999999999971
 31
0.0
1001
GENIUS_GENFIL_13
1070
     0
1040
0.3
1040
0.3
1040
0.2999999999999971
1040
45.0
1002
{
1002
}
1001
GENIUS_GENOREF_13
1005
4462
  0
LINE
  5
43C5
  8
240
  6
CONTINUOUS
 10
1.5
 20
18.000000000000139
 30
0.0
 11
0.0
 21
16.500000000000139
 31
0.0
1001
GENIUS_GENFIL_13
1070
     0
1040
1.5
1040
1.5
1040
1.5
1040
45.0
1002
{
1002
}
1001
GENIUS_GENOREF_13
1005
4461
  0
LINE
  5
43C7
  8
240
  6
CONTINUOUS
 10
11.343145750507739
 20
18.000000000000139
 30
0.0
 11
1.5
 21
18.000000000000139
 31
0.0
  0
ARC
  5
43C8
  8
240
  6
CONTINUOUS
 10
11.343145750507739
 20
22.000000000000139
 30
0.0
 40
4.0
 50
270.0
 51
315.0
1001
GENIUS_GENOBJ-N-FIL_13
1002
{
1000
OWNER
1000
GEN
1002
}
1001
GENIUS_GENODEF_13
1002
{
1000
HIER
1070
     0
1002
}
1002
{
1000
MANEDIT
1070
     0
1002
}
1002
{
1000
NOSEL
1070
     0
1002
}
1002
{
1000
BEHIND
1070
     0
1002
}
1002
{
1000
OTHER
1070
     0
1002
}
1002
{
1000
REACTOR
1002
}
  0
LINE
  5
43C9
  8
240
  6
CONTINUOUS
 10
34.400000000000077
 20
0.0000000000001279
 30
0.0
 11
14.300000000000059
 21
0.0000000000000995
 31
0.0
  0
LINE
  5
43CA
  8
240
  6
CONTINUOUS
 10
5.700000000000002
 20
0.0000000000000568
 30
0.0
 11
0.3000000000000114
 21
0.0
 31
0.0
  0
LINE
  5
43CB
  8
245
  6
CENTER2
 10
10.0
 20
-3.5127419999998599
 30
0.0
 11
10.0
 21
14.479172000000091
 31
0.0
  0
LINE
  5
43CD
  8
240
  6
CONTINUOUS
 10
67.355005674146071
 20
22.500000000000028
 30
0.0
 11
60.355005674146071
 21
22.500000000000028
 31
0.0
  0
LINE
  5
43CE
  8
240
  6
CONTINUOUS
 10
67.355005674146184
 20
0.0000000000001421
 30
0.0
 11
60.355005674146192
 21
0.0000000000001421
 31
0.0
  0
LINE
  5
43CF
  8
240
  6
CONTINUOUS
 10
59.855005674146177
 20
0.5000000000001421
 30
0.0
 11
59.855005674146071
 21
22.000000000000028
 31
0.0
  0
LINE
  5
43D0
  8
241
  6
CONTINUOUS
 10
60.355005674146099
 20
9.5303007124746557
 30
0.0
 11
60.355005674145978
 21
20.289423001259621
 31
0.0
  0
LINE
  5
43D1
  8
241
  6
CONTINUOUS
 10
60.555005674146429
 20
0.0000000000001421
 30
0.0
 11
60.555005674146237
 21
9.5584088794151558
 31
0.0
  0
LINE
  5
43D2
  8
241
  6
CONTINUOUS
 10
63.055005674146081
 20
9.1562668126517508
 30
0.0
 11
63.055005674145889
 21
22.500000000000028
 31
0.0
  0
LINE
  5
43D3
  8
240
  6
CONTINUOUS
 10
67.855005674146184
 20
0.5000000000001421
 30
0.0
 11
67.855005674146184
 21
21.999999999999918
 31
0.0
  0
LINE
  5
43D4
  8
240
  6
CONTINUOUS
 10
67.855005674146184
 20
21.999999999999918
 30
0.0
 11
67.355005674146071
 21
22.500000000000028
 31
0.0
1001
GENIUS_GENFIL_13
1070
     0
1040
0.5
1040
0.5
1040
0.2
1040
45.0
1002
{
1002
}
1001
GENIUS_GENODEF_13
1002
{
1000
HIER
1070
     0
1002
}
1002
{
1000
MANEDIT
1070
     0
1002
}
1002
{
1000
NOSEL
1070
     0
1002
}
1002
{
1000
BEHIND
1070
     0
1002
}
1002
{
1000
OTHER
1070
     0
1002
}
1002
{
1000
REACTOR
1002
}
1001
GENIUS_GENOBJ-N-CHA_13
1002
{
1000
OWNER
1000
GEN
1002
}
  0
LINE
  5
43D5
  8
240
  6
CONTINUOUS
 10
67.855005674146184
 20
0.5000000000001421
 30
0.0
 11
67.355005674146184
 21
0.0000000000001421
 31
0.0
1001
GENIUS_GENFIL_13
1070
     0
1040
0.5000000000000285
1040
0.5
1040
0.5000000000000285
1040
45.0
1002
{
1002
}
1001
GENIUS_GENOREF_13
1005
4460
  0
LINE
  5
43D6
  8
240
  6
CONTINUOUS
 10
59.855005674146177
 20
0.5000000000001421
 30
0.0
 11
60.355005674146192
 21
0.0000000000001421
 31
0.0
1001
GENIUS_GENFIL_13
1070
     0
1040
0.5
1040
0.5
1040
0.2
1040
45.0
1002
{
1002
}
1001
GENIUS_GENOBJ-N-CHA_13
1002
{
1000
OWNER
1000
GEN
1002
}
1001
GENIUS_GENODEF_13
1002
{
1000
HIER
1070
     0
1002
}
1002
{
1000
MANEDIT
1070
     0
1002
}
1002
{
1000
NOSEL
1070
     0
1002
}
1002
{
1000
BEHIND
1070
     0
1002
}
1002
{
1000
OTHER
1070
     0
1002
}
1002
{
1000
REACTOR
1002
}
  0
LINE
  5
43D7
  8
240
  6
CONTINUOUS
 10
60.355005674146071
 20
22.500000000000028
 30
0.0
 11
59.855005674146071
 21
22.000000000000028
 31
0.0
1001
GENIUS_GENFIL_13
1070
     0
1040
0.5
1040
0.5
1040
0.2
1040
45.0
1002
{
1002
}
1001
GENIUS_GENODEF_13
1002
{
1000
HIER
1070
     0
1002
}
1002
{
1000
MANEDIT
1070
     0
1002
}
1002
{
1000
NOSEL
1070
     0
1002
}
1002
{
1000
BEHIND
1070
     0
1002
}
1002
{
1000
OTHER
1070
     0
1002
}
1002
{
1000
REACTOR
1002
}
1001
GENIUS_GENOBJ-N-CHA_13
1002
{
1000
OWNER
1000
GEN
1002
}
  0
LINE
  5
43D8
  8
241
  6
CONTINUOUS
 10
60.355005674146099
 20
9.5303007124746557
 30
0.0
 11
63.055005674146031
 21
9.9097609661710901
 31
0.0
  0
LINE
  5
43EE
  8
241
  6
CONTINUOUS
 10
60.555005674146287
 20
8.9520553774046334
 30
0.0
 11
61.655005674145819
 21
9.1562668126517508
 31
0.0
  0
LINE
  5
4407
  8
240
  6
CONTINUOUS
 10
17.5
 20
22.500000000000028
 30
0.0
 11
14.171572875253929
 21
19.171572875253968
 31
0.0
  0
LINE
  5
4409
  8
241
  6
CONTINUOUS
 10
34.399999999999977
 20
0.0000000000000284
 30
0.0
 11
14.69999999999999
 21
19.69999999999996
 31
0.0
  0
LINE
  5
440A
  8
240
  6
CONTINUOUS
 10
22.399982738937979
 20
22.500000000000028
 30
0.0
 11
17.5
 21
22.500000000000028
 31
0.0
  0
LINE
  5
440B
  8
240
  6
CONTINUOUS
 10
35.399999999999977
 20
1.000000000000028
 30
0.0
 11
34.400000000000077
 21
0.0000000000001279
 31
0.0
1001
GENIUS_GENFIL_13
1070
     0
1040
0.9999999999999005
1040
0.9999999999999147
1040
0.9999999999999005
1040
45.0
1002
{
1002
}
1001
GENIUS_GENOREF_13
1005
4463
  0
LINE
  5
440C
  8
240
  6
CONTINUOUS
 10
35.399999999999977
 20
1.000000000000028
 30
0.0
 11
35.399999999999977
 21
9.1243135904951576
 31
0.0
  0
LINE
  5
440D
  8
240
  6
CONTINUOUS
 10
22.399982738937979
 20
22.500000000000028
 30
0.0
 11
24.69112589751639
 21
20.208859883537951
 31
0.0
  0
LINE
  5
441C
  8
241
  6
CONTINUOUS
 10
63.055005674146081
 20
9.5000000000003553
 30
0.0
 11
67.855005674146184
 21
7.6052958291224106
 31
0.0
  0
LINE
  5
4424
  8
245
  6
CENTER2
 10
24.1993888178669
 20
19.204404587927129
 30
0.0
 11
24.19938881786689
 21
14.704404587927129
 31
0.0
  0
LINE
  5
4425
  8
241
  6
CONTINUOUS
 10
25.491087480826181
 20
20.16978700071148
 30
0.0
 11
35.942650731077563
 21
9.5342130929294058
 31
0.0
  0
LINE
  5
4426
  8
241
  6
CONTINUOUS
 10
28.669002784095682
 20
7.9979336421428391
 30
0.0
 11
35.833694912186658
 21
9.1968890554849878
 31
0.0
  0
LINE
  5
4427
  8
241
  6
CONTINUOUS
 10
28.49334319029866
 20
8.0550089828642086
 30
0.0
 11
17.96787518332604
 21
18.765812120826052
 31
0.0
  0
ARC
  5
4428
  8
241
 10
28.635278025052671
 20
8.1959186845781886
 30
0.0
 40
0.2
 50
224.49997571879871
 51
279.49997774675342
1001
GENIUS_GENODEF_13
1002
{
1000
HIER
1070
     0
1002
}
1002
{
1000
MANEDIT
1070
     0
1002
}
1002
{
1000
NOSEL
1070
     0
1002
}
1002
{
1000
BEHIND
1070
     0
1002
}
1002
{
1000
OTHER
1070
     0
1002
}
1002
{
1000
REACTOR
1002
}
1001
GENIUS_GENOBJ-N-FIL_13
1002
{
1000
OWNER
1000
GEN
1002
}
  0
LINE
  5
4429
  8
241
  6
CONTINUOUS
 10
18.077289795355249
 20
19.10207911434679
 30
0.0
 11
25.139768238969982
 21
20.283937147034621
 31
0.0
  0
LINE
  5
442A
  8
245
  6
CENTER2
 10
21.94938881786732
 20
16.954403204705191
 30
0.0
 11
26.44938881786647
 21
16.954405971149061
 31
0.0
  0
ARC
  5
442B
  8
241
  6
CONTINUOUS
 10
25.205788011102939
 20
19.889423001259608
 30
0.0
 40
0.3999999999999999
 50
44.500039999999238
 51
99.500032000002435
  0
ARC
  5
442C
  8
241
  6
CONTINUOUS
 10
35.799999991890587
 20
9.3940306019491544
 30
0.0
 40
0.2
 50
279.30084100000067
 51
44.500030000003711
  0
CIRCLE
  5
442D
  8
241
  6
CONTINUOUS
 10
24.1993888178669
 20
16.954404587927129
 30
0.0
 40
0.9999999999999998
  0
LINE
  5
4430
  8
245
  6
CENTER2
 10
29.63277626661101
 20
13.675344664204941
 30
0.0
 11
29.63277626661101
 21
9.1753446642049425
 31
0.0
  0
LINE
  5
4431
  8
245
  6
CENTER2
 10
27.38277626661143
 20
11.425343280982981
 30
0.0
 11
31.882776266610581
 21
11.425346047426871
 31
0.0
  0
CIRCLE
  5
4432
  8
241
  6
CONTINUOUS
 10
29.63277626661101
 20
11.425344664204941
 30
0.0
 40
0.9999999999999998
  0
ARC
  5
443A
  8
241
  6
CONTINUOUS
 10
18.872426620218231
 20
18.385000000000119
 30
0.0
 40
1.5
 50
43.485812825983338
 51
299.89392376066888
  0
ARC
  5
443D
  8
241
  6
CONTINUOUS
 10
29.172426620218229
 20
8.3850000000001188
 30
0.0
 40
1.5
 50
162.99616327274569
 51
358.01489127424702
  0
ARC
  5
4442
  8
241
  6
CONTINUOUS
 10
18.110299319970171
 20
18.904821994615471
 30
0.0
 40
0.2
 50
99.500000999996132
 51
224.49999699999739
  0
LINE
  5
444A
  8
245
  6
CENTER2
 10
3.8999999999999768
 20
5.9000000000001469
 30
0.0
 11
16.100000000000019
 21
5.9000000000001469
 31
0.0
  0
ARC
  5
444B
  8
240
  6
CONTINUOUS
 10
10.0
 20
5.9000000000001469
 30
0.0
 40
5.0999999999999988
 50
0.0
 51
180.0
  0
LINE
  5
444C
  8
240
  6
CONTINUOUS
 10
14.0
 20
0.3000000000000682
 30
0.0
 11
14.30000000000001
 21
0.0000000000001137
 31
0.0
1001
GENIUS_GENFIL_13
1070
     0
1040
0.3
1040
0.3
1040
0.3000000000000114
1040
45.0
1002
{
1002
}
1001
GENIUS_GENOREF_13
1005
0
  0
LINE
  5
444D
  8
240
  6
CONTINUOUS
 10
6.0
 20
0.3000000000000682
 30
0.0
 11
5.700000000000002
 21
0.0000000000000568
 31
0.0
1001
GENIUS_GENFIL_13
1070
     0
1040
0.3
1040
0.3
1040
0.2
1040
45.0
1002
{
1002
}
1001
GENIUS_GENODEF_13
1002
{
1000
HIER
1070
     0
1002
}
1002
{
1000
MANEDIT
1070
     0
1002
}
1002
{
1000
NOSEL
1070
     0
1002
}
1002
{
1000
BEHIND
1070
     0
1002
}
1002
{
1000
OTHER
1070
     0
1002
}
1002
{
1000
REACTOR
1002
}
1001
GENIUS_GENOBJ-N-CHA_13
1002
{
1000
OWNER
1000
GEN
1002
}
  0
LINE
  5
444E
  8
245
  6
CENTER2
 10
10.0
 20
-3.5127419999998319
 30
0.0
 11
10.0
 21
14.479172000000119
 31
0.0
  0
LINE
  5
444F
  8
240
  6
CONTINUOUS
 10
14.0
 20
0.3000000000000682
 30
0.0
 11
14.0
 21
2.1361415960888048
 31
0.0
  0
LINE
  5
4450
  8
240
  6
CONTINUOUS
 10
6.0
 20
0.3000000000000682
 30
0.0
 11
6.0
 21
2.1361415960888048
 31
0.0
  0
LINE
  5
4451
  8
240
  6
CONTINUOUS
 10
15.100000000000049
 20
5.3000000000000682
 30
0.0
 11
15.100000000000019
 21
5.9000000000001469
 31
0.0
  0
LINE
  5
4452
  8
240
  6
CONTINUOUS
 10
4.8999999999999773
 20
5.3000000000000682
 30
0.0
 11
4.8999999999999773
 21
5.9000000000001469
 31
0.0
  0
ARC
  5
4453
  8
240
  6
CONTINUOUS
 10
10.0
 20
5.3000000000000682
 30
0.0
 40
5.0999999999999988
 50
180.0
 51
218.34274926046649
  0
ARC
  5
4454
  8
240
  6
CONTINUOUS
 10
10.0
 20
5.3000000000000682
 30
0.0
 40
5.0999999999999988
 50
321.65725073953342
 51
0.0
  0
POINT
  5
4460
  8
0
 10
-81.0
 20
-99.499999999999858
 30
0.0
1001
GENIUS_GENOBJ-N-CHA_13
1002
{
1000
OWNER
1000
GEN
1002
}
1001
GENIUS_GENOLIS_13
1002
{
1000
ENT
1005
43F4
1005
43D5
1002
}
1001
GENIUS_GENOENT_13
1002
{
1000
MYREF
1005
4460
1002
}
1002
{
1000
GRP
1005
0
1002
}
1001
GENIUS_GENODEF_13
1002
{
1000
HIER
1070
     1
1002
}
1002
{
1000
MANEDIT
1070
     1
1002
}
1002
{
1000
NOSEL
1070
     0
1002
}
1002
{
1000
BEHIND
1070
     0
1002
}
1002
{
1000
OTHER
1070
     0
1002
}
1002
{
1000
REACTOR
1002
}
  0
POINT
  5
4461
  8
0
 10
-81.0
 20
-99.499999999999858
 30
0.0
1001
GENIUS_GENOENT_13
1002
{
1000
MYREF
1005
4461
1002
}
1002
{
1000
GRP
1005
0
1002
}
1001
GENIUS_GENOBJ-N-CHA_13
1002
{
1000
OWNER
1000
GEN
1002
}
1001
GENIUS_GENOLIS_13
1002
{
1000
ENT
1005
43F1
1005
43C5
1002
}
1001
GENIUS_GENODEF_13
1002
{
1000
HIER
1070
     1
1002
}
1002
{
1000
MANEDIT
1070
     1
1002
}
1002
{
1000
NOSEL
1070
     0
1002
}
1002
{
1000
BEHIND
1070
     0
1002
}
1002
{
1000
OTHER
1070
     0
1002
}
1002
{
1000
REACTOR
1002
}
  0
POINT
  5
4462
  8
0
 10
-81.0
 20
-99.499999999999858
 30
0.0
1001
GENIUS_GENOBJ-N-CHA_13
1002
{
1000
OWNER
1000
GEN
1002
}
1001
GENIUS_GENOLIS_13
1002
{
1000
ENT
1005
43F0
1005
43C4
1002
}
1001
GENIUS_GENOENT_13
1002
{
1000
MYREF
1005
4462
1002
}
1002
{
1000
GRP
1005
0
1002
}
1001
GENIUS_GENODEF_13
1002
{
1000
HIER
1070
     1
1002
}
1002
{
1000
MANEDIT
1070
     1
1002
}
1002
{
1000
NOSEL
1070
     0
1002
}
1002
{
1000
BEHIND
1070
     0
1002
}
1002
{
1000
OTHER
1070
     0
1002
}
1002
{
1000
REACTOR
1002
}
  0
POINT
  5
4463
  8
0
 10
-81.0
 20
-99.499999999999858
 30
0.0
1001
GENIUS_GENOLIS_13
1002
{
1000
ENT
1005
441A
1005
440B
1002
}
1001
GENIUS_GENOBJ-N-CHA_13
1002
{
1000
OWNER
1000
GEN
1002
}
1001
GENIUS_GENOENT_13
1002
{
1000
MYREF
1005
4463
1002
}
1002
{
1000
GRP
1005
0
1002
}
1001
GENIUS_GENODEF_13
1002
{
1000
HIER
1070
     1
1002
}
1002
{
1000
MANEDIT
1070
     1
1002
}
1002
{
1000
NOSEL
1070
     0
1002
}
1002
{
1000
BEHIND
1070
     0
1002
}
1002
{
1000
OTHER
1070
     0
1002
}
1002
{
1000
REACTOR
1002
}
  0
LINE
  5
4610
  8
241
  6
CONTINUOUS
 10
60.355005674145978
 20
20.289423001259621
 30
0.0
 11
63.055005674145917
 21
19.909962747563188
 31
0.0
  0
LINE
  5
4611
  8
241
  6
CONTINUOUS
 10
60.555005674146038
 20
20.26131483431913
 30
0.0
 11
60.555005674146003
 21
22.500000000000028
 31
0.0
  0
TEXT
  5
4613
  8
241
  6
CONTINUOUS
 10
-7.0
 20
42.0
 30
0.0
 40
4.0
  1
CB2-45CW12B
  7
YOKO
  0
LINE
  5
476D
  8
245
  6
CENTER2
 10
56.405516425683111
 20
5.9000000000001478
 30
0.0
 11
69.252608051282323
 21
5.9000000000001478
 31
0.0
  0
LINE
  5
4780
  8
250
  6
CONTINUOUS
 10
-0.1999999999999886
 20
0.0000000000000001
 30
0.0
 11
-8.0000000000000036
 21
0.0000000000000024
 31
0.0
  0
LINE
  5
4781
  8
250
  6
CONTINUOUS
 10
17.0
 20
22.500000000000028
 30
0.0
 11
-7.9999999999999982
 21
22.500000000000028
 31
0.0
  0
LINE
  5
4782
  8
250
  6
CONTINUOUS
 10
-7.0000000000000027
 20
2.2300000000000022
 30
0.0
 11
-7.0
 21
20.270000000000032
 31
0.0
  0
LINE
  5
4786
  8
250
  6
CONTINUOUS
 10
22.046429113625429
 20
22.853553155873868
 30
0.0
 11
10.55875875737987
 21
34.341208259109401
 31
0.0
  0
LINE
  5
4787
  8
250
  6
CONTINUOUS
 10
17.0
 20
22.500000000000028
 30
0.0
 11
5.6539743065673917
 21
22.50000000000005
 31
0.0
  0
ARC
  5
4788
  8
250
  6
CONTINUOUS
 10
22.399982738937979
 20
22.500000000000021
 30
0.0
 40
15.74600843237058
 50
143.12124598210701
 51
171.87879205579151
  0
LINE
  5
478C
  8
250
  6
CONTINUOUS
 10
35.99999999189059
 20
8.8940306019491544
 30
0.0
 11
35.99999999189059
 21
-15.000000000000069
 31
0.0
  0
LINE
  5
478D
  8
250
  6
CONTINUOUS
 10
0.0
 20
-0.2000000000000028
 30
0.0
 11
-0.0000000000000009
 21
-15.000000000000069
 31
0.0
  0
LINE
  5
478E
  8
250
  6
CONTINUOUS
 10
33.7699999918906
 20
-14.000000000000069
 30
0.0
 11
2.2299999999999991
 21
-14.000000000000069
 31
0.0
  0
LINE
  5
4792
  8
250
  6
CONTINUOUS
 10
59.855005674146177
 20
0.0000000000001421
 30
0.0
 11
59.855005674146177
 21
-15.0
 31
0.0
  0
LINE
  5
4793
  8
250
  6
CONTINUOUS
 10
67.855005674146184
 20
0.0000000000001421
 30
0.0
 11
67.855005674146184
 21
-15.0
 31
0.0
  0
LINE
  5
4794
  8
250
  6
CONTINUOUS
 10
62.085005674146181
 20
-14.0
 30
0.0
 11
65.62500567414618
 21
-14.0
 31
0.0
  0
TEXT
  5
4798
  8
250
  6
CONTINUOUS
 10
-8.0000000000000036
 20
6.583333333333349
 30
0.0
 40
2.7999999999999989
  1
22.5
 50
90.0
  0
LINE
  5
4799
  8
250
  6
CONTINUOUS
 10
-7.3716666666666661
 20
20.270000000000032
 30
0.0
 11
-6.9999999999999991
 21
22.500000000000028
 31
0.0
  0
LINE
  5
479A
  8
250
  6
CONTINUOUS
 10
-6.6283333333333321
 20
20.270000000000032
 30
0.0
 11
-6.9999999999999991
 21
22.500000000000028
 31
0.0
  0
LINE
  5
479B
  8
250
  6
CONTINUOUS
 10
-6.9999999999999991
 20
22.500000000000028
 30
0.0
 11
-6.9999999999999991
 21
20.270000000000032
 31
0.0
  0
LINE
  5
479C
  8
250
  6
CONTINUOUS
 10
-6.6283333333333374
 20
2.2300000000000022
 30
0.0
 11
-7.0000000000000044
 21
0.0000000000000021
 31
0.0
  0
LINE
  5
479D
  8
250
  6
CONTINUOUS
 10
-7.3716666666666697
 20
2.2300000000000022
 30
0.0
 11
-7.0000000000000044
 21
0.0000000000000021
 31
0.0
  0
LINE
  5
479E
  8
250
  6
CONTINUOUS
 10
-7.0000000000000044
 20
0.0000000000000021
 30
0.0
 11
-7.0000000000000044
 21
2.2300000000000022
 31
0.0
  0
TEXT
  5
479F
  8
250
  6
CONTINUOUS
 10
5.7041001675719647
 20
25.951999939192302
 30
0.0
 40
2.7999999999999989
  1
45\U+00B0
 50
67.500019018949303
  0
LINE
  5
47A0
  8
250
  6
CONTINUOUS
 10
7.18261784222884
 20
24.69808373892231
 30
0.0
 11
6.6539743065673917
 21
22.50000000000005
 31
0.0
  0
LINE
  5
47A1
  8
250
  6
CONTINUOUS
 10
6.4411504925426231
 20
24.750720359195089
 30
0.0
 11
6.6539743065673917
 21
22.50000000000005
 31
0.0
  0
LINE
  5
47A2
  8
250
  6
CONTINUOUS
 10
6.6539743065673917
 20
22.50000000000005
 30
0.0
 11
6.8118841673857311
 21
24.7244020490587
 31
0.0
  0
LINE
  5
47A3
  8
250
  6
CONTINUOUS
 10
9.5238781740365042
 20
32.193090324432518
 30
0.0
 11
11.265866008004959
 21
33.6341019473617
 31
0.0
  0
LINE
  5
47A4
  8
250
  6
CONTINUOUS
 10
10.085394799525339
 20
31.706013817357839
 30
0.0
 11
11.265866008004959
 21
33.6341019473617
 31
0.0
  0
LINE
  5
47A5
  8
250
  6
CONTINUOUS
 10
11.265866008004959
 20
33.6341019473617
 30
0.0
 11
9.8046364867809253
 21
31.94955207089518
 31
0.0
  0
TEXT
  5
47A6
  8
250
  6
CONTINUOUS
 10
15.333333329278631
 20
-13.000000000000069
 30
0.0
 40
2.7999999999999989
  1
36
  0
LINE
  5
47A7
  8
250
  6
CONTINUOUS
 10
2.2299999999999991
 20
-14.371666666666741
 30
0.0
 11
-0.0000000000000009
 21
-14.000000000000069
 31
0.0
  0
LINE
  5
47A8
  8
250
  6
CONTINUOUS
 10
2.2299999999999991
 20
-13.6283333333334
 30
0.0
 11
-0.0000000000000009
 21
-14.000000000000069
 31
0.0
  0
LINE
  5
47A9
  8
250
  6
CONTINUOUS
 10
-0.0000000000000009
 20
-14.000000000000069
 30
0.0
 11
2.2299999999999991
 21
-14.000000000000069
 31
0.0
  0
LINE
  5
47AA
  8
250
  6
CONTINUOUS
 10
33.7699999918906
 20
-13.6283333333334
 30
0.0
 11
35.99999999189059
 21
-14.000000000000069
 31
0.0
  0
LINE
  5
47AB
  8
250
  6
CONTINUOUS
 10
33.7699999918906
 20
-14.371666666666741
 30
0.0
 11
35.99999999189059
 21
-14.000000000000069
 31
0.0
  0
LINE
  5
47AC
  8
250
  6
CONTINUOUS
 10
35.99999999189059
 20
-14.000000000000069
 30
0.0
 11
33.7699999918906
 21
-14.000000000000069
 31
0.0
  0
TEXT
  5
47AD
  8
250
  6
CONTINUOUS
 10
62.521672340812849
 20
-13.0
 30
0.0
 40
2.7999999999999989
  1
8
  0
LINE
  5
47AE
  8
250
  6
CONTINUOUS
 10
65.62500567414618
 20
-13.62833333333333
 30
0.0
 11
67.855005674146184
 21
-14.0
 31
0.0
  0
LINE
  5
47AF
  8
250
  6
CONTINUOUS
 10
65.62500567414618
 20
-14.371666666666661
 30
0.0
 11
67.855005674146184
 21
-14.0
 31
0.0
  0
LINE
  5
47B0
  8
250
  6
CONTINUOUS
 10
67.855005674146184
 20
-14.0
 30
0.0
 11
65.62500567414618
 21
-14.0
 31
0.0
  0
LINE
  5
47B1
  8
250
  6
CONTINUOUS
 10
62.085005674146181
 20
-14.371666666666661
 30
0.0
 11
59.855005674146177
 21
-14.0
 31
0.0
  0
LINE
  5
47B2
  8
250
  6
CONTINUOUS
 10
62.085005674146181
 20
-13.62833333333333
 30
0.0
 11
59.855005674146177
 21
-14.0
 31
0.0
  0
LINE
  5
47B3
  8
250
  6
CONTINUOUS
 10
59.855005674146177
 20
-14.0
 30
0.0
 11
62.085005674146181
 21
-14.0
 31
0.0
  0
VIEWPORT
  5
22
 67
     1
  8
0
 10
261.51769911504419
 20
148.5
 30
0.0
 40
523.0353982300885
 41
297.0
 68
     1
 69
     1
1001
ACAD
1000
MVIEW
1002
{
1070
    16
1010
0.0
1020
0.0
1030
0.0
1010
0.0
1020
0.0
1030
1.0
1040
0.0
1040
297.0
1040
261.51769911504419
1040
148.5
1040
50.0
1040
0.0
1040
0.0
1070
     0
1070
   100
1070
     1
1070
     1
1070
     0
1070
     0
1070
     0
1070
     0
1040
0.0
1040
0.0
1040
0.0
1040
1.0
1040
1.0
1040
10.0
1040
10.0
1070
     0
1002
{
1002
}
1002
}
1001
GENIUS_GENODEF_13
1002
{
1000
HIER
1070
     0
1002
}
1002
{
1000
MANEDIT
1070
     0
1002
}
1002
{
1000
NOSEL
1070
     0
1002
}
1002
{
1000
BEHIND
1070
     0
1002
}
1002
{
1000
OTHER
1070
     0
1002
}
1002
{
1000
REACTOR
1002
}
1001
GENIUS_GENOBJ-N-SDF_13
1002
{
1000
OWNER
1000
GEN
1002
}
1001
GENIUS_GENSCREG_15
1000
PF
1040
1.0
1000
DF
1040
1.0
1000
MIN
1011
0.0
1021
0.0
1031
0.0
1021
0.0
1031
0.0
1000
MAX
1011
523.0353982300885
1021
0.0
1031
0.0
1021
297.0
1031
0.0
1000
FLAGS
1070
     4
  0
ENDSEC
  0
EOF
