  0
SECTION
  2
HEADER
  9
$ACADVER
  1
AC1009
  9
$INSBASE
 10
0.0
 20
0.0
 30
0.0
  9
$EXTMIN
 10
-10.800000000000001
 20
-15.0
 30
0.0
  9
$EXTMAX
 10
78.194854048362686
 20
46.000000000000057
 30
0.0
  9
$LIMMIN
 10
0.0
 20
0.0
  9
$LIMMAX
 10
297.0
 20
210.0
  9
$ORTHOMODE
 70
     0
  9
$REGENMODE
 70
     1
  9
$FILLMODE
 70
     1
  9
$QTEXTMODE
 70
     0
  9
$MIRRTEXT
 70
     1
  9
$DRAGMODE
 70
     2
  9
$LTSCALE
 40
10.0
  9
$OSMODE
 70
    39
  9
$ATTMODE
 70
     1
  9
$TEXTSIZE
 40
4.0
  9
$TRACEWID
 40
1.0
  9
$TEXTSTYLE
  7
YOKO
  9
$CLAYER
  8
240
  9
$CELTYPE
  6
BYLAYER
  9
$CECOLOR
 62
   256
  9
$DIMSCALE
 40
1.0
  9
$DIMASZ
 40
2.2299999999999991
  9
$DIMEXO
 40
0.5
  9
$DIMDLI
 40
7.0
  9
$DIMRND
 40
0.0
  9
$DIMDLE
 40
0.0
  9
$DIMEXE
 40
1.0
  9
$DIMTP
 40
0.0
  9
$DIMTM
 40
0.01
  9
$DIMTXT
 40
2.7999999999999989
  9
$DIMCEN
 40
0.0
  9
$DIMTSZ
 40
0.0
  9
$DIMTOL
 70
     0
  9
$DIMLIM
 70
     0
  9
$DIMTIH
 70
     0
  9
$DIMTOH
 70
     0
  9
$DIMSE1
 70
     0
  9
$DIMSE2
 70
     0
  9
$DIMTAD
 70
     3
  9
$DIMZIN
 70
     9
  9
$DIMBLK
  1
OPEN
  9
$DIMASO
 70
     1
  9
$DIMSHO
 70
     1
  9
$DIMPOST
  1

  9
$DIMAPOST
  1

  9
$DIMALT
 70
     0
  9
$DIMALTD
 70
     2
  9
$DIMALTF
 40
25.399999999999999
  9
$DIMLFAC
 40
1.0
  9
$DIMTOFL
 70
     1
  9
$DIMTVP
 40
0.0
  9
$DIMTIX
 70
     1
  9
$DIMSOXD
 70
     0
  9
$DIMSAH
 70
     0
  9
$DIMBLK1
  1

  9
$DIMBLK2
  1

  9
$DIMSTYLE
  2
BIGT
  9
$DIMCLRD
 70
   256
  9
$DIMCLRE
 70
   256
  9
$DIMCLRT
 70
    40
  9
$DIMTFAC
 40
1.0
  9
$DIMGAP
 40
1.0
  9
$LUNITS
 70
     2
  9
$LUPREC
 70
     6
  9
$SKETCHINC
 40
1.0
  9
$FILLETRAD
 40
0.0
  9
$AUNITS
 70
     0
  9
$AUPREC
 70
     6
  9
$MENU
  1
.
  9
$ELEVATION
 40
0.0
  9
$PELEVATION
 40
0.0
  9
$THICKNESS
 40
0.0
  9
$LIMCHECK
 70
     0
  9
$BLIPMODE
 70
     0
  9
$CHAMFERA
 40
0.2
  9
$CHAMFERB
 40
0.2
  9
$SKPOLY
 70
     0
  9
$TDCREATE
 40
2459699.404138206
  9
$TDUPDATE
 40
2459699.4176808451
  9
$TDINDWG
 40
0.0134661458
  9
$TDUSRTIMER
 40
0.0134660648
  9
$USRTIMER
 70
     1
  9
$ANGBASE
 50
0.0
  9
$ANGDIR
 70
     0
  9
$PDMODE
 70
     1
  9
$PDSIZE
 40
0.0
  9
$PLINEWID
 40
0.0
  9
$COORDS
 70
     1
  9
$SPLFRAME
 70
     0
  9
$SPLINETYPE
 70
     6
  9
$SPLINESEGS
 70
     4
  9
$ATTDIA
 70
     1
  9
$ATTREQ
 70
     1
  9
$HANDLING
 70
     1
  9
$HANDSEED
  5
464E
  9
$SURFTAB1
 70
     6
  9
$SURFTAB2
 70
     6
  9
$SURFTYPE
 70
     6
  9
$SURFU
 70
     6
  9
$SURFV
 70
     6
  9
$UCSNAME
  2

  9
$UCSORG
 10
0.0
 20
0.0
 30
0.0
  9
$UCSXDIR
 10
1.0
 20
0.0
 30
0.0
  9
$UCSYDIR
 10
0.0
 20
1.0
 30
0.0
  9
$PUCSNAME
  2

  9
$PUCSORG
 10
0.0
 20
0.0
 30
0.0
  9
$PUCSXDIR
 10
1.0
 20
0.0
 30
0.0
  9
$PUCSYDIR
 10
0.0
 20
1.0
 30
0.0
  9
$USERI1
 70
     1
  9
$USERI2
 70
     0
  9
$USERI3
 70
     0
  9
$USERI4
 70
     0
  9
$USERI5
 70
     0
  9
$USERR1
 40
0.0
  9
$USERR2
 40
0.0
  9
$USERR3
 40
0.0
  9
$USERR4
 40
0.0
  9
$USERR5
 40
0.0
  9
$WORLDVIEW
 70
     1
  9
$SHADEDGE
 70
     3
  9
$SHADEDIF
 70
    70
  9
$TILEMODE
 70
     1
  9
$MAXACTVP
 70
    16
  9
$PLIMCHECK
 70
     0
  9
$PEXTMIN
 10
1.0000000000000000E+020
 20
1.0000000000000000E+020
 30
1.0000000000000000E+020
  9
$PEXTMAX
 10
-1.0000000000000000E+020
 20
-1.0000000000000000E+020
 30
-1.0000000000000000E+020
  9
$PLIMMIN
 10
0.0
 20
0.0
  9
$PLIMMAX
 10
420.0
 20
297.0
  9
$UNITMODE
 70
     0
  9
$VISRETAIN
 70
     1
  9
$PLINEGEN
 70
     0
  9
$PSLTSCALE
 70
     1
  0
ENDSEC
  0
SECTION
  2
TABLES
  0
TABLE
  2
VPORT
 70
     1
  0
VPORT
  2
*ACTIVE
 70
     0
 10
0.0
 20
0.0
 11
1.0
 21
1.0
 12
32.164625333005397
 22
14.28696200807175
 13
0.0
 23
0.0
 14
7.0
 24
7.0
 15
7.0
 25
7.0
 16
0.0
 26
0.0
 36
1.0
 17
0.0
 27
0.0
 37
0.0
 40
106.6716708933115
 41
1.5992366412213741
 42
50.0
 43
0.0
 44
0.0
 50
0.0
 51
0.0
 71
     0
 72
  2000
 73
     1
 74
     0
 75
     1
 76
     1
 77
     0
 78
     0
  0
ENDTAB
  0
TABLE
  2
LTYPE
 70
    19
  0
LTYPE
  2
CONTINUOUS
 70
     0
  3
Solid line
 72
    65
 73
     0
 40
0.0
  0
LTYPE
  2
CENTER2
 70
     0
  3
___ _ ___ _ ___ _ ___ _ ___ _ ___ _ ___ _ ___ _
 72
    65
 73
     4
 40
1.125
 49
0.75
 49
-0.125
 49
0.125
 49
-0.125
  0
LTYPE
  2
HIDDEN2
 70
     0
  3
_ _ _ _ _ _ _ _ _ _ _ _ _ _ _ _ _ _ _ _ _ _ _ _
 72
    65
 73
     2
 40
0.1875
 49
0.125
 49
-0.0625
  0
LTYPE
  2
PHANTOM2
 70
     0
  3
___ _ _ ___ _ _ ___ _ _ ___ _ _ ___ _ _ ___ _ _
 72
    65
 73
     6
 40
1.25
 49
0.625
 49
-0.125
 49
0.125
 49
-0.125
 49
0.125
 49
-0.125
  0
LTYPE
  2
AM_ISO02W050
 70
     0
  3
__ __ __ __ __ __ __ __ __ __ __ __ __ __ __
 72
    65
 73
     2
 40
7.5
 49
6.0
 49
-1.5
  0
LTYPE
  2
AMCONSTR
 70
     0
  3
_______________________
 72
    65
 73
     2
 40
9999.0
 49
9999.0
 49
0.0
  0
LTYPE
  2
ACISOWELD
 70
     0
  3
_ _ _ _ _
 72
    65
 73
     2
 40
2.0
 49
2.0
 49
-1.0
  0
LTYPE
  2
ACISOTGB
 70
     0
  3
__ . . __ . .
 72
    65
 73
     6
 40
9.0
 49
4.0
 49
-1.0
 49
1.0
 49
-1.0
 49
1.0
 49
-1.0
  0
LTYPE
  2
ACISOTGL
 70
     0
  3
_ _ _ _ _
 72
    65
 73
     2
 40
3.0
 49
2.0
 49
-1.0
  0
LTYPE
  2
ACJISTGB
 70
     0
  3
__ . . __ . .
 72
    65
 73
     6
 40
9.0
 49
4.0
 49
-1.0
 49
1.0
 49
-1.0
 49
1.0
 49
-1.0
  0
LTYPE
  2
ACJISTGL
 70
     0
  3
_ _ _ _ _
 72
    65
 73
     2
 40
3.0
 49
2.0
 49
-1.0
  0
ENDTAB
  0
TABLE
  2
LAYER
 70
    15
  0
LAYER
  2
0
 70
     0
 62
     7
  6
CONTINUOUS
  0
LAYER
  2
DEFPOINTS
 70
     0
 62
     7
  6
CONTINUOUS
  0
LAYER
  2
245
 70
     0
 62
     2
  6
CENTER2
  0
LAYER
  2
240
 70
     0
 62
     4
  6
CONTINUOUS
  0
LAYER
  2
241
 70
     0
 62
   211
  6
CONTINUOUS
  0
LAYER
  2
250
 70
     0
 62
     3
  6
CONTINUOUS
  0
ENDTAB
  0
TABLE
  2
STYLE
 70
     7
  0
STYLE
  2
STANDARD
 70
     0
 40
0.0
 41
1.0
 50
0.0
 71
     0
 42
3.0
  3
romans.shx
  4
extfont.shx
  0
STYLE
  2
ACISOTS
 70
     0
 40
1.0
 41
1.0
 50
0.0
 71
     0
 42
3.0
  3
amgdt.shx
  4
extfont.shx
  0
STYLE
  2
ACISOGDT
 70
     0
 40
0.0
 41
1.0
 50
0.0
 71
     0
 42
3.0
  3
amgdt.shx
  4
extfont.shx
  0
STYLE
  2
ACJISTS
 70
     0
 40
1.0
 41
1.0
 50
0.0
 71
     0
 42
3.0
  3
amgdt.shx
  4
extfont.shx
  0
STYLE
  2
ACJISGDT
 70
     0
 40
0.0
 41
1.0
 50
0.0
 71
     0
 42
3.0
  3
amgdt.shx
  4
extfont.shx
  0
STYLE
  2
YOKO
 70
     0
 40
0.0
 41
1.0
 50
0.0
 71
     0
 42
4.0
  3
romans.shx
  4
extfont.shx
  0
ENDTAB
  0
TABLE
  2
VIEW
 70
     0
  0
ENDTAB
  0
TABLE
  2
UCS
 70
     0
  0
ENDTAB
  0
TABLE
  2
APPID
 70
    49
  0
APPID
  2
ACAD
 70
     0
  0
APPID
  2
GLOBAL
 70
     0
  0
APPID
  2
DETAIL
 70
     0
  0
APPID
  2
GRPNAME
 70
     0
  0
APPID
  2
GPARA
 70
     0
  0
APPID
  2
MCAD_NO_VIS
 70
     0
  0
APPID
  2
ACAD_TEMP_GRAPHIC
 70
     0
  0
APPID
  2
ACATTRIBSERVICES
 70
     0
  0
APPID
  2
GENIUS_GENSCREG_15
 70
     0
  0
APPID
  2
GENIUS_GENODEF_13
 70
     0
  0
APPID
  2
GENIUS_GENOBJ-N-SDF_13
 70
     0
  0
APPID
  2
GENIUS_GENREC_14
 70
     0
  0
APPID
  2
GENIUS_GENOBJ-N-REC_13
 70
     0
  0
APPID
  2
GENIUS_GENDIMSH_14
 70
     0
  0
APPID
  2
GENIUS_GENOBJ-N-DIM_13
 70
     0
  0
APPID
  2
GENIUS_GENDIM_13
 70
     0
  0
APPID
  2
GENIUS_GENDTOL_13
 70
     0
  0
APPID
  2
GENIUS_GENOLIS_13
 70
     0
  0
APPID
  2
GENIUS_GENOENT_13
 70
     0
  0
APPID
  2
GENIUS_GENOBJ-F-FEM_13
 70
     0
  0
APPID
  2
GENIUS_GENOREF_13
 70
     0
  0
APPID
  2
GENIUS_GEFFEM_13
 70
     0
  0
APPID
  2
GENIUS_GEFFEMP_13
 70
     0
  0
APPID
  2
AD_DRAW
 70
     0
  0
APPID
  2
DESIGNERASSEMBLIES
 70
     0
  0
APPID
  2
ACADM_DIM_EDIT
 70
     0
  0
APPID
  2
AMDT_DM_ADJ
 70
     0
  0
APPID
  2
ITEMNAME
 70
     0
  0
APPID
  2
GENIUS_GENOBJ-N-FIL_13
 70
     0
  0
APPID
  2
GENIUS_GENFIL_13
 70
     0
  0
APPID
  2
GENIUS_GENOBJ-N-CHA_13
 70
     0
  0
APPID
  2
ACAD_NAV_VCDISPLAY
 70
     0
  0
APPID
  2
ACAD_PSEXT
 70
     0
  0
APPID
  2
ACAD_DSTYLE_DIMINSPECT
 70
     0
  0
APPID
  2
ACAD_DSTYLE_DIMRADIAL_EXTENSION
 70
     0
  0
APPID
  2
GENIUS_GENOBJ-N-RSBK_13
 70
     0
  0
APPID
  2
GENIUS_GENOBJ-N-LIB_13
 70
     0
  0
APPID
  2
GENIUS_GENSCALE_13
 70
     0
  0
APPID
  2
ACAD_DSTYLE_DIMJAG
 70
     0
  0
APPID
  2
ACAD_DSTYLE_DIMBREAK
 70
     0
  0
APPID
  2
PLOTTRANSPARENCY
 70
     0
  0
APPID
  2
ACAECLAYERSTANDARD
 70
     0
  0
APPID
  2
ACAD_EXEMPT_FROM_CAD_STANDARDS
 70
     0
  0
APPID
  2
ACAD_DSTYLE_DIMANGULAR_EXT
 70
     0
  0
APPID
  2
ACAD_MLEADERVER
 70
     0
  0
APPID
  2
ACAD_DSTYLE_DIMARC_LENGTH_
 70
     0
  0
APPID
  2
ACAD_DSTYLE_DIM_LINETYPE
 70
     0
  0
APPID
  2
ACAD_DSTYLE_DIM_EXT1_LINETYPE
 70
     0
  0
APPID
  2
ACAD_DSTYLE_DIM_EXT2_LINETYPE
 70
     0
  0
ENDTAB
  0
TABLE
  2
DIMSTYLE
 70
    33
  0
DIMSTYLE
  2
BIGT
 70
     0
  3

  4

  5
OPEN
  6

  7

 40
1.0
 41
2.2299999999999991
 42
0.5
 43
7.0
 44
1.0
 45
0.0
 46
0.0
 47
0.0
 48
0.01
140
2.7999999999999989
141
0.0
142
0.0
143
25.399999999999999
144
1.0
145
0.0
146
1.0
147
1.0
 71
     0
 72
     0
 73
     0
 74
     0
 75
     0
 76
     0
 77
     3
 78
     9
170
     0
171
     2
172
     1
173
     0
174
     1
175
     0
176
   256
177
   256
178
    40
  0
DIMSTYLE
  2
AM_ISO
 70
     0
  3

  4
"
  5

  6

  7

 40
1.0
 41
2.5
 42
1.0
 43
10.0
 44
1.0
 45
0.0
 46
0.0
 47
0.1
 48
0.1
140
3.5
141
0.0
142
0.0
143
0.0393701
144
1.0
145
0.0
146
0.71
147
1.5
 71
     0
 72
     0
 73
     0
 74
     0
 75
     0
 76
     0
 77
     1
 78
     8
170
     0
171
     2
172
     1
173
     0
174
     0
175
     0
176
   256
177
   256
178
     2
  0
DIMSTYLE
  2
AM_ISO$3
 70
     0
  3

  4
"
  5

  6

  7

 40
1.0
 41
2.5
 42
1.0
 43
10.0
 44
1.0
 45
0.0
 46
0.0
 47
0.1
 48
0.1
140
3.5
141
0.0
142
0.0
143
0.0393701
144
1.0
145
0.0
146
0.71
147
1.5
 71
     0
 72
     0
 73
     0
 74
     1
 75
     0
 76
     0
 77
     1
 78
     8
170
     0
171
     2
172
     0
173
     0
174
     0
175
     0
176
   256
177
   256
178
     2
  0
DIMSTYLE
  2
AM_ISO$4
 70
     0
  3

  4
"
  5

  6

  7

 40
1.0
 41
2.5
 42
1.0
 43
10.0
 44
1.0
 45
0.0
 46
0.0
 47
0.1
 48
0.1
140
3.5
141
0.0
142
0.0
143
0.0393701
144
1.0
145
0.0
146
0.71
147
1.5
 71
     0
 72
     0
 73
     0
 74
     1
 75
     0
 76
     0
 77
     1
 78
     8
170
     0
171
     2
172
     0
173
     0
174
     0
175
     0
176
   256
177
   256
178
     2
  0
DIMSTYLE
  2
AM_ISO$6
 70
     0
  3

  4
"
  5

  6

  7

 40
1.0
 41
2.5
 42
1.0
 43
10.0
 44
1.0
 45
0.0
 46
0.0
 47
0.1
 48
0.1
140
3.5
141
0.0
142
0.0
143
0.0393701
144
1.0
145
0.0
146
0.71
147
1.5
 71
     0
 72
     0
 73
     0
 74
     0
 75
     0
 76
     0
 77
     0
 78
     8
170
     0
171
     2
172
     1
173
     0
174
     0
175
     0
176
   256
177
   256
178
     2
  0
DIMSTYLE
  2
AM_ISO$7
 70
     0
  3

  4
"
  5

  6

  7

 40
1.0
 41
2.5
 42
1.0
 43
10.0
 44
1.0
 45
0.0
 46
0.0
 47
0.1
 48
0.1
140
5.0
141
0.0
142
0.0
143
0.0393701
144
1.0
145
0.0
146
0.71
147
1.5
 71
     0
 72
     0
 73
     0
 74
     0
 75
     0
 76
     0
 77
     1
 78
     8
170
     0
171
     2
172
     1
173
     0
174
     0
175
     0
176
   256
177
   256
178
     2
  0
DIMSTYLE
  2
AM_ISO$SF
 70
     0
  3

  4
"
  5

  6

  7

 40
1.0
 41
2.5
 42
1.0
 43
10.0
 44
1.0
 45
0.0
 46
0.0
 47
0.1
 48
0.1
140
3.5
141
0.0
142
0.0
143
0.0393701
144
1.0
145
0.0
146
0.71
147
1.5
 71
     0
 72
     0
 73
     0
 74
     0
 75
     1
 76
     1
 77
     1
 78
     8
170
     0
171
     2
172
     1
173
     0
174
     0
175
     0
176
   256
177
   256
178
     2
  0
DIMSTYLE
  2
AM_ISO$SH
 70
     0
  3

  4
"
  5

  6
GENAXEH
  7

 40
1.0
 41
2.5
 42
1.0
 43
10.0
 44
1.0
 45
0.0
 46
0.0
 47
0.1
 48
0.1
140
3.5
141
0.0
142
0.0
143
0.0393701
144
2.0
145
0.0
146
0.71
147
1.5
 71
     0
 72
     0
 73
     0
 74
     0
 75
     1
 76
     1
 77
     1
 78
     8
170
     0
171
     2
172
     1
173
     1
174
     0
175
     0
176
   256
177
   256
178
     2
  0
DIMSTYLE
  2
BIGT$2
 70
     0
  3

  4

  5
OPEN
  6

  7

 40
1.0
 41
2.2299999999999991
 42
0.5
 43
7.0
 44
1.0
 45
0.0
 46
0.0
 47
0.0
 48
0.01
140
2.7999999999999989
141
0.0
142
0.0
143
25.399999999999999
144
1.0
145
0.0
146
1.0
147
1.0
 71
     0
 72
     0
 73
     0
 74
     0
 75
     0
 76
     0
 77
     3
 78
     9
170
     0
171
     2
172
     1
173
     0
174
     0
175
     0
176
   256
177
   256
178
    40
  0
DIMSTYLE
  2
BIGT$3
 70
     0
  3

  4

  5
OPEN
  6

  7

 40
1.0
 41
2.2299999999999991
 42
0.5
 43
2.5
 44
1.0
 45
0.0
 46
0.0
 47
0.0
 48
0.01
140
2.7999999999999989
141
0.0
142
0.0
143
25.399999999999999
144
1.0
145
0.0
146
1.0
147
1.0
 71
     0
 72
     0
 73
     0
 74
     0
 75
     0
 76
     0
 77
     3
 78
     9
170
     0
171
     2
172
     1
173
     0
174
     0
175
     0
176
   256
177
   256
178
    40
  0
DIMSTYLE
  2
BIGT$7
 70
     0
  3

  4

  5
OPEN
  6

  7

 40
0.0
 41
2.2299999999999991
 42
0.5
 43
7.0
 44
1.0
 45
0.0
 46
0.0
 47
0.0
 48
0.01
140
2.7999999999999989
141
0.0
142
0.0
143
25.399999999999999
144
1.0
145
0.0
146
1.0
147
1.0
 71
     0
 72
     0
 73
     0
 74
     0
 75
     0
 76
     0
 77
     3
 78
     9
170
     0
171
     2
172
     0
173
     0
174
     0
175
     0
176
   256
177
   256
178
    40
  0
DIMSTYLE
  2
BIGT$6
 70
     0
  3

  4

  5
OPEN
  6

  7

 40
1.0
 41
2.2299999999999991
 42
0.5
 43
2.5
 44
1.0
 45
0.0
 46
0.0
 47
0.0
 48
0.01
140
2.7999999999999989
141
0.0
142
0.0
143
25.399999999999999
144
1.0
145
0.0
146
1.0
147
1.0
 71
     0
 72
     0
 73
     0
 74
     0
 75
     0
 76
     0
 77
     3
 78
     9
170
     0
171
     2
172
     1
173
     0
174
     0
175
     0
176
   256
177
   256
178
    40
  0
DIMSTYLE
  2
BIGT$0
 70
     0
  3

  4

  5
OPEN
  6

  7

 40
1.0
 41
2.2299999999999991
 42
0.5
 43
7.0
 44
1.0
 45
0.0
 46
0.0
 47
0.0
 48
0.01
140
2.7999999999999989
141
0.0
142
0.0
143
25.399999999999999
144
1.0
145
0.0
146
1.0
147
1.0
 71
     0
 72
     0
 73
     0
 74
     0
 75
     0
 76
     0
 77
     3
 78
     9
170
     0
171
     2
172
     1
173
     0
174
     1
175
     0
176
   256
177
   256
178
    40
  0
DIMSTYLE
  2
BIGT$4
 70
     0
  3

  4

  5
OPEN
  6

  7

 40
1.0
 41
2.2299999999999991
 42
0.5
 43
2.5
 44
1.0
 45
0.0
 46
0.0
 47
0.0
 48
0.01
140
2.7999999999999989
141
0.0
142
0.0
143
25.399999999999999
144
1.0
145
0.0
146
1.0
147
1.0
 71
     0
 72
     0
 73
     0
 74
     0
 75
     0
 76
     0
 77
     3
 78
     9
170
     0
171
     2
172
     1
173
     0
174
     0
175
     0
176
   256
177
   256
178
    40
  0
DIMSTYLE
  2
BIGT$SH
 70
     0
  3

  4

  5
OPEN
  6

  7

 40
1.0
 41
2.2299999999999991
 42
0.5
 43
7.0
 44
1.0
 45
0.0
 46
0.0
 47
0.0
 48
0.0
140
2.7999999999999989
141
0.0
142
0.0
143
25.399999999999999
144
1.0
145
0.0
146
1.0
147
1.0
 71
     0
 72
     0
 73
     0
 74
     0
 75
     0
 76
     0
 77
     3
 78
     9
170
     0
171
     2
172
     1
173
     0
174
     0
175
     0
176
   256
177
   256
178
    40
  0
DIMSTYLE
  2
BIGT$SF
 70
     0
  3

  4

  5
OPEN
  6

  7

 40
1.0
 41
2.2299999999999991
 42
0.5
 43
7.0
 44
1.0
 45
0.0
 46
0.0
 47
0.0
 48
0.0
140
2.7999999999999989
141
0.0
142
0.0
143
25.399999999999999
144
1.0
145
0.0
146
1.0
147
1.0
 71
     0
 72
     0
 73
     0
 74
     0
 75
     0
 76
     0
 77
     3
 78
     9
170
     0
171
     2
172
     1
173
     0
174
     0
175
     0
176
   256
177
   256
178
    40
  0
DIMSTYLE
  2
TECHNICAL_OSAKA
 70
     0
  3

  4
"
  5
OPEN30
  6

  7

 40
1.0
 41
2.5
 42
1.0
 43
10.0
 44
1.0
 45
0.0
 46
0.0
 47
0.1
 48
0.1
140
2.7999999999999989
141
0.0
142
0.0
143
0.0393701
144
1.0
145
0.0
146
0.71
147
1.5
 71
     0
 72
     0
 73
     0
 74
     0
 75
     0
 76
     0
 77
     3
 78
     8
170
     0
171
     2
172
     1
173
     0
174
     0
175
     0
176
   256
177
   256
178
    40
  0
DIMSTYLE
  2
TECHNICAL_OSAKA$3
 70
     0
  3

  4
"
  5
OPEN30
  6

  7

 40
1.0
 41
2.5
 42
1.0
 43
10.0
 44
1.0
 45
0.0
 46
0.0
 47
0.1
 48
0.1
140
2.7999999999999989
141
0.0
142
0.0
143
0.0393701
144
1.0
145
0.0
146
0.71
147
1.5
 71
     0
 72
     0
 73
     0
 74
     1
 75
     0
 76
     0
 77
     3
 78
     8
170
     0
171
     2
172
     0
173
     0
174
     0
175
     0
176
   256
177
   256
178
    40
  0
DIMSTYLE
  2
TECHNICAL_OSAKA$4
 70
     0
  3

  4
"
  5
OPEN30
  6

  7

 40
1.0
 41
2.5
 42
1.0
 43
10.0
 44
1.0
 45
0.0
 46
0.0
 47
0.1
 48
0.1
140
2.7999999999999989
141
0.0
142
0.0
143
0.0393701
144
1.0
145
0.0
146
0.71
147
1.5
 71
     0
 72
     0
 73
     0
 74
     1
 75
     0
 76
     0
 77
     3
 78
     8
170
     0
171
     2
172
     0
173
     0
174
     0
175
     0
176
   256
177
   256
178
    40
  0
DIMSTYLE
  2
TECHNICAL_OSAKA$6
 70
     0
  3

  4
"
  5
OPEN30
  6

  7

 40
1.0
 41
2.5
 42
1.0
 43
10.0
 44
1.0
 45
0.0
 46
0.0
 47
0.1
 48
0.1
140
2.7999999999999989
141
0.0
142
0.0
143
0.0393701
144
1.0
145
0.0
146
0.71
147
1.5
 71
     0
 72
     0
 73
     0
 74
     0
 75
     0
 76
     0
 77
     0
 78
     8
170
     0
171
     2
172
     1
173
     0
174
     0
175
     0
176
   256
177
   256
178
    40
  0
DIMSTYLE
  2
TECHNICAL_OSAKA$7
 70
     0
  3

  4
"
  5
OPEN30
  6

  7

 40
1.0
 41
2.5
 42
1.0
 43
10.0
 44
1.0
 45
0.0
 46
0.0
 47
0.1
 48
0.1
140
2.7999999999999989
141
0.0
142
0.0
143
0.0393701
144
1.0
145
0.0
146
0.71
147
1.5
 71
     0
 72
     0
 73
     0
 74
     0
 75
     0
 76
     0
 77
     3
 78
     8
170
     0
171
     2
172
     1
173
     0
174
     0
175
     0
176
   256
177
   256
178
    40
  0
DIMSTYLE
  2
TECHNICAL_OSAKA$SF
 70
     0
  3

  4
"
  5
OPEN30
  6
OPEN30
  7
OPEN30
 40
1.0
 41
2.5
 42
1.0
 43
10.0
 44
1.0
 45
0.0
 46
0.0
 47
0.1
 48
0.1
140
3.5
141
0.0
142
0.0
143
0.0393701
144
1.0
145
0.0
146
0.71
147
1.5
 71
     0
 72
     0
 73
     0
 74
     0
 75
     1
 76
     1
 77
     3
 78
     8
170
     0
171
     2
172
     1
173
     0
174
     0
175
     0
176
   256
177
   256
178
    40
  0
DIMSTYLE
  2
TECHNICAL_OSAKA$SH
 70
     0
  3

  4
"
  5
OPEN30
  6
GENAXEH
  7
OPEN30
 40
1.0
 41
2.5
 42
1.0
 43
10.0
 44
1.0
 45
0.0
 46
0.0
 47
0.1
 48
0.1
140
3.5
141
0.0
142
0.0
143
0.0393701
144
2.0
145
0.0
146
0.71
147
1.5
 71
     0
 72
     0
 73
     0
 74
     0
 75
     1
 76
     1
 77
     3
 78
     8
170
     0
171
     2
172
     1
173
     1
174
     0
175
     0
176
   256
177
   256
178
    40
  0
ENDTAB
  0
ENDSEC
  0
SECTION
  2
BLOCKS
  0
BLOCK
  8
0
  2
$MODEL_SPACE
 70
     0
 10
0.0
 20
0.0
 30
0.0
  3
$MODEL_SPACE
  1

  0
ENDBLK
  5
1C
  8
0
  0
BLOCK
 67
     1
  8
0
  2
$PAPER_SPACE
 70
     0
 10
0.0
 20
0.0
 30
0.0
  3
$PAPER_SPACE
  1

  0
ENDBLK
  5
19
 67
     1
  8
0
  0
BLOCK
  8
0
  2
_OPEN
 70
     0
 10
0.0
 20
0.0
 30
0.0
  3
_OPEN
  1

  0
LINE
  5
4525
  8
0
  6
BYBLOCK
 62
     0
 10
-1.0
 20
0.1666666666666666
 30
0.0
 11
0.0
 21
0.0
 31
0.0
  0
LINE
  5
4526
  8
0
  6
BYBLOCK
 62
     0
 10
-1.0
 20
-0.1666666666666666
 30
0.0
 11
0.0
 21
0.0
 31
0.0
  0
LINE
  5
4527
  8
0
  6
BYBLOCK
 62
     0
 10
0.0
 20
0.0
 30
0.0
 11
-1.0
 21
0.0
 31
0.0
  0
ENDBLK
  5
4528
  8
0
  0
BLOCK
  8
0
  2
GENAXEH
 70
     0
 10
0.0
 20
0.0
 30
0.0
  3
GENAXEH
  1

  0
LINE
  5
4560
  8
0
 10
-1.0
 20
0.0
 30
0.0
 11
1.0
 21
0.0
 31
0.0
  0
ENDBLK
  5
4561
  8
0
  0
BLOCK
  8
0
  2
_OPEN30
 70
     0
 10
0.0
 20
0.0
 30
0.0
  3
_OPEN30
  1

  0
LINE
  5
459C
  8
0
  6
BYBLOCK
 62
     0
 10
-1.0
 20
0.26794919
 30
0.0
 11
0.0
 21
0.0
 31
0.0
  0
LINE
  5
459D
  8
0
  6
BYBLOCK
 62
     0
 10
0.0
 20
0.0
 30
0.0
 11
-1.0
 21
-0.26794919
 31
0.0
  0
LINE
  5
459E
  8
0
  6
BYBLOCK
 62
     0
 10
0.0
 20
0.0
 30
0.0
 11
-1.0
 21
0.0
 31
0.0
  0
ENDBLK
  5
459F
  8
0
  0
BLOCK
  8
0
  2
*U30
 70
     1
 10
0.0
 20
0.0
 30
0.0
  3
*U30
  1

  0
TEXT
  5
461B
  8
240
 62
    40
 10
67.809252061613506
 20
88.289151048936304
 30
0.0
 40
2.7999999999999989
  1
C0.3
 50
44.999999999998678
  7
ACJISTS
  0
ENDBLK
  5
461D
  8
0
  0
BLOCK
  8
0
  2
*U31
 70
     1
 10
0.0
 20
0.0
 30
0.0
  3
*U31
  1

  0
TEXT
  5
461F
  8
240
 62
    40
 10
129.5468037431535
 20
95.333095244168774
 30
0.0
 40
2.7999999999999989
  1
C1
 50
315.00000000000011
  7
ACJISTS
  0
ENDBLK
  5
4621
  8
0
  0
BLOCK
  8
0
  2
*U32
 70
     1
 10
0.0
 20
0.0
 30
0.0
  3
*U32
  1

  0
TEXT
  5
4623
  8
240
 62
    40
 10
117.4565181086484
 20
248.3798705609876
 30
0.0
 40
2.7999999999999989
  1
C0.3
 50
45.000000000001307
  7
ACJISTS
  0
ENDBLK
  5
4625
  8
0
  0
BLOCK
  8
0
  2
*U33
 70
     1
 10
0.0
 20
0.0
 30
0.0
  3
*U33
  1

  0
TEXT
  5
4627
  8
240
 62
    40
 10
99.122873258476034
 20
97.59331454341465
 30
0.0
 40
2.7999999999999989
  1
R5.1
 50
311.04474792605902
  0
ENDBLK
  5
4629
  8
0
  0
BLOCK
  8
0
  2
*U34
 70
     1
 10
0.0
 20
0.0
 30
0.0
  3
*U34
  1

  0
TEXT
  5
462B
  8
240
 62
    40
 10
62.000000000000213
 20
87.482597231712617
 30
0.0
 40
2.7999999999999989
  1
5.3
 50
90.0
  0
ENDBLK
  5
462D
  8
0
  0
BLOCK
  8
0
  2
*U35
 70
     1
 10
0.0
 20
0.0
 30
0.0
  3
*U35
  1

  0
TEXT
  5
462F
  8
240
 62
    40
 10
61.628333333333558
 20
104.2966666666666
 30
0.0
 40
2.7999999999999989
  1
0.6
 50
90.0
  0
ENDBLK
  5
4631
  8
0
  0
BLOCK
  8
0
  2
*U36
 70
     1
 10
0.0
 20
0.0
 30
0.0
  3
*U36
  1

  0
TEXT
  5
4633
  8
240
 62
    40
 10
18.122873258476041
 20
-1.9066854565852001
 30
0.0
 40
2.7999999999999989
  1
R5.1
 50
311.04474792605902
  0
ENDBLK
  5
4635
  8
0
  0
BLOCK
  8
0
  2
*U37
 70
     1
 10
0.0
 20
0.0
 30
0.0
  3
*U37
  1

  0
TEXT
  5
4637
  8
240
 62
    40
 10
-18.999999999999769
 20
-12.01740276828723
 30
0.0
 40
2.7999999999999989
  1
5.3
 50
90.0
  0
ENDBLK
  5
4639
  8
0
  0
BLOCK
  8
0
  2
*U38
 70
     1
 10
0.0
 20
0.0
 30
0.0
  3
*U38
  1

  0
TEXT
  5
463B
  8
240
 62
    40
 10
-19.371666666666439
 20
4.7966666666668178
 30
0.0
 40
2.7999999999999989
  1
0.6
 50
90.0
  0
ENDBLK
  5
463D
  8
0
  0
BLOCK
  8
0
  2
*U39
 70
     1
 10
0.0
 20
0.0
 30
0.0
  3
*U39
  1

  0
TEXT
  5
463F
  8
240
 62
    40
 10
18.833333333333339
 20
-13.0
 30
0.0
 40
2.7999999999999989
  1
43
  0
ENDBLK
  5
4641
  8
0
  0
BLOCK
  8
0
  2
*U40
 70
     1
 10
0.0
 20
0.0
 30
0.0
  3
*U40
  1

  0
TEXT
  5
4643
  8
240
 62
    40
 10
69.521672340812842
 20
-13.0
 30
0.0
 40
2.7999999999999989
  1
8
  0
ENDBLK
  5
4645
  8
0
  0
BLOCK
  8
0
  2
*U41
 70
     1
 10
0.0
 20
0.0
 30
0.0
  3
*U41
  1

  0
TEXT
  5
4647
  8
240
 62
    40
 10
7.3612651676831824
 20
22.422431409485721
 30
0.0
 40
2.7999999999999989
  1
45\U+00B0
 50
67.500019018949445
  0
ENDBLK
  5
4649
  8
0
  0
BLOCK
  8
0
  2
*U42
 70
     1
 10
0.0
 20
0.0
 30
0.0
  3
*U42
  1

  0
TEXT
  5
464B
  8
240
 62
    40
 10
-8.0000000000000036
 20
6.1333333333334039
 30
0.0
 40
2.7999999999999989
  1
18
 50
90.0
  0
ENDBLK
  5
464D
  8
0
  0
ENDSEC
  0
SECTION
  2
ENTITIES
  0
LINE
  5
4291
  8
241
  6
CONTINUOUS
 10
70.05500567414623
 20
1.0000000000001421
 30
0.0
 11
73.371402177217902
 21
1.0000000000001421
 31
0.0
  0
LINE
  5
4292
  8
245
  6
CENTER2
 10
62.155005674146139
 20
5.9000000000001469
 30
0.0
 11
78.194854048362686
 21
5.9000000000001487
 31
0.0
  0
LINE
  5
4293
  8
241
  6
CONTINUOUS
 10
68.655005674145968
 20
0.4084228704943485
 30
0.0
 11
70.05500567414623
 21
0.4084228704943485
 31
0.0
  0
LINE
  5
429C
  8
240
  6
CONTINUOUS
 10
0.0
 20
0.2999999999999971
 30
0.0
 11
0.0
 21
16.500000000000139
 31
0.0
  0
LINE
  5
429D
  8
240
  6
CONTINUOUS
 10
0.2999999999999971
 20
0.0
 30
0.0
 11
0.0
 21
0.2999999999999971
 31
0.0
1001
GENIUS_GENFIL_13
1070
     0
1040
0.3
1040
0.3
1040
0.2999999999999971
1040
45.0
1002
{
1002
}
1001
GENIUS_GENOREF_13
1005
4300
  0
LINE
  5
429E
  8
240
  6
CONTINUOUS
 10
1.5
 20
18.000000000000139
 30
0.0
 11
0.0
 21
16.500000000000139
 31
0.0
1001
GENIUS_GENFIL_13
1070
     0
1040
1.5
1040
1.5
1040
1.5
1040
45.0
1002
{
1002
}
1001
GENIUS_GENOREF_13
1005
0
  0
LINE
  5
429F
  8
241
  6
CONTINUOUS
 10
33.899999999999977
 20
0.0000000000001421
 30
0.0
 11
15.899999999999981
 21
18.000000000000139
 31
0.0
  0
LINE
  5
42A0
  8
240
  6
CONTINUOUS
 10
26.399978755615852
 20
18.000000000000139
 30
0.0
 11
1.5
 21
18.000000000000139
 31
0.0
  0
LINE
  5
42A3
  8
240
  6
CONTINUOUS
 10
41.39999999999997
 20
0.0000000000001421
 30
0.0
 11
14.30000000000005
 21
0.0000000000000853
 31
0.0
  0
LINE
  5
42A4
  8
240
  6
CONTINUOUS
 10
5.700000000000002
 20
0.0000000000000568
 30
0.0
 11
0.2999999999999971
 21
0.0
 31
0.0
  0
LINE
  5
42A5
  8
240
  6
CONTINUOUS
 10
42.39999999999997
 20
1.0000000000001421
 30
0.0
 11
41.39999999999997
 21
0.0000000000001421
 31
0.0
1001
GENIUS_GENFIL_13
1070
     0
1040
1.0
1040
1.0
1040
1.0
1040
45.000000000000803
1002
{
1002
}
1001
GENIUS_GENOREF_13
1005
4301
  0
LINE
  5
42A6
  8
240
  6
CONTINUOUS
 10
42.39999999999997
 20
1.0000000000001421
 30
0.0
 11
42.39999999999997
 21
1.6241926906284041
 31
0.0
  0
LINE
  5
42A7
  8
245
  6
CENTER2
 10
31.199388825976332
 20
11.704283689417419
 30
0.0
 11
31.199388825976321
 21
7.204283689417422
 31
0.0
  0
LINE
  5
42A8
  8
241
  6
CONTINUOUS
 10
32.491087488935612
 20
12.66966610220179
 30
0.0
 11
42.942650739186981
 21
2.0340921944196988
 31
0.0
  0
LINE
  5
42A9
  8
240
  6
CONTINUOUS
 10
26.399978755615852
 20
18.000000000000139
 30
0.0
 11
31.691229466030041
 21
12.70875631516193
 31
0.0
  0
LINE
  5
42AA
  8
241
  6
CONTINUOUS
 10
35.669002792205113
 20
0.4978127436331335
 30
0.0
 11
42.833694920296082
 21
1.696768156975281
 31
0.0
  0
LINE
  5
42AB
  8
241
  6
CONTINUOUS
 10
35.493343198408098
 20
0.5548880843545163
 30
0.0
 11
24.967875191435471
 21
11.265691222316351
 31
0.0
  0
ARC
  5
42AC
  8
241
  6
CONTINUOUS
 10
35.635993347646149
 20
0.6950698767612096
 30
0.0
 40
0.2
 50
224.49997571879979
 51
279.49997774675433
1001
GENIUS_GENODEF_13
1002
{
1000
HIER
1070
     0
1002
}
1002
{
1000
MANEDIT
1070
     0
1002
}
1002
{
1000
NOSEL
1070
     0
1002
}
1002
{
1000
BEHIND
1070
     0
1002
}
1002
{
1000
OTHER
1070
     0
1002
}
1002
{
1000
REACTOR
1002
}
1001
GENIUS_GENOBJ-N-FIL_13
1002
{
1000
OWNER
1000
GEN
1002
}
  0
LINE
  5
42AD
  8
241
  6
CONTINUOUS
 10
25.077289803464691
 20
11.601958215837101
 30
0.0
 11
32.139768247079402
 21
12.783816248524911
 31
0.0
  0
LINE
  5
42AE
  8
245
  6
CENTER2
 10
28.94938882597674
 20
9.4542823061954806
 30
0.0
 11
33.449388825975888
 21
9.454285072639351
 31
0.0
  0
ARC
  5
42AF
  8
241
  6
CONTINUOUS
 10
25.111473481840662
 20
11.40490140743487
 30
0.0
 40
0.2
 50
99.500000999994512
 51
224.4999969999985
  0
ARC
  5
42B0
  8
241
  6
CONTINUOUS
 10
32.20578801921237
 20
12.389302102749911
 30
0.0
 40
0.3999999999999999
 50
44.500040000000382
 51
99.500032000002435
  0
ARC
  5
42B1
  8
241
  6
CONTINUOUS
 10
42.800000000000011
 20
1.893909703439447
 30
0.0
 40
0.2
 50
279.30084100000079
 51
44.500030000002567
  0
CIRCLE
  5
42B2
  8
241
  6
CONTINUOUS
 10
31.199388825976332
 20
9.4542836894174211
 30
0.0
 40
0.9999999999999998
  0
LINE
  5
42B5
  8
245
  6
CENTER2
 10
36.632776274720442
 20
6.175223765695236
 30
0.0
 11
36.632776274720428
 21
1.675223765695236
 31
0.0
  0
LINE
  5
42B6
  8
245
  6
CENTER2
 10
34.382776274720861
 20
3.925222382473279
 30
0.0
 11
38.882776274720023
 21
3.9252251489171641
 31
0.0
  0
CIRCLE
  5
42B7
  8
241
  6
CONTINUOUS
 10
36.632776274720442
 20
3.925223765695236
 30
0.0
 40
0.9999999999999998
  0
LINE
  5
42BB
  8
240
  6
CONTINUOUS
 10
74.355005674146071
 20
18.000000000000139
 30
0.0
 11
67.355005674146071
 21
18.000000000000139
 31
0.0
  0
LINE
  5
42BC
  8
240
  6
CONTINUOUS
 10
74.355005674146184
 20
0.0000000000001421
 30
0.0
 11
67.355005674146184
 21
0.0000000000001421
 31
0.0
  0
LINE
  5
42BD
  8
240
  6
CONTINUOUS
 10
66.855005674146184
 20
0.5000000000001421
 30
0.0
 11
66.855005674146071
 21
17.500000000000139
 31
0.0
  0
LINE
  5
42BE
  8
241
  6
CONTINUOUS
 10
67.355005674146184
 20
0.4861440000001665
 30
0.0
 11
67.355005674146071
 21
12.789302102749909
 31
0.0
  0
LINE
  5
42BF
  8
241
  6
CONTINUOUS
 10
67.555005674146415
 20
0.0000000000001421
 30
0.0
 11
67.555005674146415
 21
0.5142521669406756
 31
0.0
  0
LINE
  5
42C0
  8
241
  6
CONTINUOUS
 10
70.05500567414623
 20
0.4084228704943485
 30
0.0
 11
70.055005674145889
 21
18.000000000000139
 31
0.0
  0
LINE
  5
42C1
  8
240
  6
CONTINUOUS
 10
74.855005674146184
 20
0.5000000000001421
 30
0.0
 11
74.855005674146184
 21
17.500000000000028
 31
0.0
  0
LINE
  5
42C2
  8
240
  6
CONTINUOUS
 10
74.855005674146184
 20
17.500000000000028
 30
0.0
 11
74.355005674146071
 21
18.000000000000139
 31
0.0
1001
GENIUS_GENFIL_13
1070
     0
1040
0.5
1040
0.5
1040
0.2
1040
45.0
1002
{
1002
}
1001
GENIUS_GENODEF_13
1002
{
1000
HIER
1070
     0
1002
}
1002
{
1000
MANEDIT
1070
     0
1002
}
1002
{
1000
NOSEL
1070
     0
1002
}
1002
{
1000
BEHIND
1070
     0
1002
}
1002
{
1000
OTHER
1070
     0
1002
}
1002
{
1000
REACTOR
1002
}
1001
GENIUS_GENOBJ-N-CHA_13
1002
{
1000
OWNER
1000
GEN
1002
}
  0
LINE
  5
42C3
  8
240
  6
CONTINUOUS
 10
74.855005674146184
 20
0.5000000000001421
 30
0.0
 11
74.355005674146184
 21
0.0000000000001421
 31
0.0
1001
GENIUS_GENFIL_13
1070
     0
1040
0.5000000000000285
1040
0.5
1040
0.5000000000000285
1040
45.0
1002
{
1002
}
1001
GENIUS_GENOREF_13
1005
0
  0
LINE
  5
42C4
  8
240
  6
CONTINUOUS
 10
66.855005674146184
 20
0.5000000000001421
 30
0.0
 11
67.355005674146184
 21
0.0000000000001421
 31
0.0
1001
GENIUS_GENFIL_13
1070
     0
1040
0.5
1040
0.5
1040
0.2
1040
45.0
1002
{
1002
}
1001
GENIUS_GENOBJ-N-CHA_13
1002
{
1000
OWNER
1000
GEN
1002
}
1001
GENIUS_GENODEF_13
1002
{
1000
HIER
1070
     0
1002
}
1002
{
1000
MANEDIT
1070
     0
1002
}
1002
{
1000
NOSEL
1070
     0
1002
}
1002
{
1000
BEHIND
1070
     0
1002
}
1002
{
1000
OTHER
1070
     0
1002
}
1002
{
1000
REACTOR
1002
}
  0
LINE
  5
42C5
  8
240
  6
CONTINUOUS
 10
67.355005674146071
 20
18.000000000000139
 30
0.0
 11
66.855005674146071
 21
17.500000000000139
 31
0.0
1001
GENIUS_GENFIL_13
1070
     0
1040
0.5
1040
0.5
1040
0.2
1040
45.0
1002
{
1002
}
1001
GENIUS_GENODEF_13
1002
{
1000
HIER
1070
     0
1002
}
1002
{
1000
MANEDIT
1070
     0
1002
}
1002
{
1000
NOSEL
1070
     0
1002
}
1002
{
1000
BEHIND
1070
     0
1002
}
1002
{
1000
OTHER
1070
     0
1002
}
1002
{
1000
REACTOR
1002
}
1001
GENIUS_GENOBJ-N-CHA_13
1002
{
1000
OWNER
1000
GEN
1002
}
  0
LINE
  5
42C6
  8
241
  6
CONTINUOUS
 10
67.355005674146184
 20
0.4861440000001665
 30
0.0
 11
70.055005674146116
 21
0.8656042536966027
 31
0.0
  0
LINE
  5
42DD
  8
241
  6
CONTINUOUS
 10
67.555005674146415
 20
0.2042114352472311
 30
0.0
 11
68.655005674145968
 21
0.4084228704943485
 31
0.0
  0
ARC
  5
42E2
  8
241
  6
CONTINUOUS
 10
25.87242662832768
 20
10.88487910149041
 30
0.0
 40
1.5
 50
43.485812825983757
 51
299.89392376066883
  0
LINE
  5
42E8
  8
241
  6
CONTINUOUS
 10
70.055005674146173
 20
2.000000000000568
 30
0.0
 11
74.855005674146184
 21
0.5526459229002683
 31
0.0
  0
LINE
  5
42ED
  8
245
  6
CENTER2
 10
3.8999999999999768
 20
5.9000000000001469
 30
0.0
 11
16.100000000000019
 21
5.9000000000001469
 31
0.0
  0
ARC
  5
42EE
  8
240
  6
CONTINUOUS
 10
10.0
 20
5.9000000000001469
 30
0.0
 40
5.0999999999999988
 50
0.0
 51
180.0
  0
LINE
  5
42EF
  8
240
  6
CONTINUOUS
 10
14.0
 20
0.3000000000000682
 30
0.0
 11
14.30000000000001
 21
0.0000000000001137
 31
0.0
1001
GENIUS_GENFIL_13
1070
     0
1040
0.3
1040
0.3
1040
0.3000000000000114
1040
45.0
1002
{
1002
}
1001
GENIUS_GENOREF_13
1005
42FF
  0
LINE
  5
42F0
  8
240
  6
CONTINUOUS
 10
6.0
 20
0.3000000000000682
 30
0.0
 11
5.6999999999999877
 21
0.0000000000000568
 31
0.0
1001
GENIUS_GENFIL_13
1070
     0
1040
0.3
1040
0.3
1040
0.2
1040
45.0
1002
{
1002
}
1001
GENIUS_GENODEF_13
1002
{
1000
HIER
1070
     0
1002
}
1002
{
1000
MANEDIT
1070
     0
1002
}
1002
{
1000
NOSEL
1070
     0
1002
}
1002
{
1000
BEHIND
1070
     0
1002
}
1002
{
1000
OTHER
1070
     0
1002
}
1002
{
1000
REACTOR
1002
}
1001
GENIUS_GENOBJ-N-CHA_13
1002
{
1000
OWNER
1000
GEN
1002
}
  0
LINE
  5
42F1
  8
245
  6
CENTER2
 10
10.0
 20
-3.5127419999998319
 30
0.0
 11
10.0
 21
14.479172000000119
 31
0.0
  0
LINE
  5
42F2
  8
240
  6
CONTINUOUS
 10
14.0
 20
0.3000000000000682
 30
0.0
 11
14.0
 21
2.1361415960888048
 31
0.0
  0
LINE
  5
42F3
  8
240
  6
CONTINUOUS
 10
6.0
 20
0.3000000000000682
 30
0.0
 11
6.0
 21
2.1361415960888048
 31
0.0
  0
LINE
  5
42F4
  8
240
  6
CONTINUOUS
 10
15.100000000000019
 20
5.3000000000000682
 30
0.0
 11
15.100000000000019
 21
5.9000000000001469
 31
0.0
  0
LINE
  5
42F5
  8
240
  6
CONTINUOUS
 10
4.8999999999999773
 20
5.3000000000000682
 30
0.0
 11
4.8999999999999773
 21
5.9000000000001469
 31
0.0
  0
ARC
  5
42F9
  8
240
  6
CONTINUOUS
 10
10.0
 20
5.3000000000000682
 30
0.0
 40
5.0999999999999988
 50
180.0
 51
218.34274926046609
  0
ARC
  5
42FA
  8
240
  6
CONTINUOUS
 10
10.0
 20
5.3000000000000682
 30
0.0
 40
5.0999999999999988
 50
321.65725073953342
 51
0.0
  0
POINT
  5
42FF
  8
0
 10
-116.0
 20
-96.199999999999974
 30
0.0
1001
GENIUS_GENOBJ-N-CHA_13
1002
{
1000
OWNER
1000
GEN
1002
}
1001
GENIUS_GENOENT_13
1002
{
1000
MYREF
1005
42FF
1002
}
1002
{
1000
GRP
1005
0
1002
}
1001
GENIUS_GENOLIS_13
1002
{
1000
ENT
1005
42FB
1005
42EF
1002
}
1001
GENIUS_GENODEF_13
1002
{
1000
HIER
1070
     1
1002
}
1002
{
1000
MANEDIT
1070
     1
1002
}
1002
{
1000
NOSEL
1070
     0
1002
}
1002
{
1000
BEHIND
1070
     0
1002
}
1002
{
1000
OTHER
1070
     0
1002
}
1002
{
1000
REACTOR
1002
}
  0
POINT
  5
4300
  8
0
 10
-81.0
 20
-99.499999999999858
 30
0.0
1001
GENIUS_GENOBJ-N-CHA_13
1002
{
1000
OWNER
1000
GEN
1002
}
1001
GENIUS_GENOLIS_13
1002
{
1000
ENT
1005
42DE
1005
429D
1002
}
1001
GENIUS_GENOENT_13
1002
{
1000
MYREF
1005
4300
1002
}
1002
{
1000
GRP
1005
0
1002
}
1001
GENIUS_GENODEF_13
1002
{
1000
HIER
1070
     1
1002
}
1002
{
1000
MANEDIT
1070
     1
1002
}
1002
{
1000
NOSEL
1070
     0
1002
}
1002
{
1000
BEHIND
1070
     0
1002
}
1002
{
1000
OTHER
1070
     0
1002
}
1002
{
1000
REACTOR
1002
}
  0
POINT
  5
4301
  8
0
 10
-81.0
 20
-99.499999999999858
 30
0.0
1001
GENIUS_GENOLIS_13
1002
{
1000
ENT
1005
42DF
1005
42A5
1002
}
1001
GENIUS_GENOENT_13
1002
{
1000
MYREF
1005
4301
1002
}
1002
{
1000
GRP
1005
0
1002
}
1001
GENIUS_GENOBJ-N-CHA_13
1002
{
1000
OWNER
1000
GEN
1002
}
1001
GENIUS_GENODEF_13
1002
{
1000
HIER
1070
     1
1002
}
1002
{
1000
MANEDIT
1070
     1
1002
}
1002
{
1000
NOSEL
1070
     0
1002
}
1002
{
1000
BEHIND
1070
     0
1002
}
1002
{
1000
OTHER
1070
     0
1002
}
1002
{
1000
REACTOR
1002
}
  0
LINE
  5
4373
  8
241
  6
CONTINUOUS
 10
67.355005674146071
 20
12.789302102749909
 30
0.0
 11
70.055005674146003
 21
12.409841849053469
 31
0.0
  0
LINE
  5
4374
  8
241
  6
CONTINUOUS
 10
67.555005674146116
 20
12.76119393580943
 30
0.0
 11
67.555005674146003
 21
18.000000000000139
 31
0.0
  0
LINE
  5
4438
  8
250
  6
CONTINUOUS
 10
26.046425130303309
 20
18.353553155873989
 30
0.0
 11
12.76562860043059
 21
31.634332051873319
 31
0.0
  0
ARC
  5
4439
  8
250
  6
CONTINUOUS
 10
26.399978755615859
 20
18.000000000000139
 30
0.0
 40
18.281870102636219
 50
141.9932466834963
 51
173.00679135440259
  0
LINE
  5
443D
  8
250
  6
CONTINUOUS
 10
-0.2000000000000028
 20
0.0000000000000001
 30
0.0
 11
-8.0000000000000036
 21
0.0000000000000024
 31
0.0
  0
LINE
  5
443E
  8
250
  6
CONTINUOUS
 10
1.0
 20
18.000000000000139
 30
0.0
 11
-7.9999999999999991
 21
18.000000000000139
 31
0.0
  0
LINE
  5
443F
  8
250
  6
CONTINUOUS
 10
-7.0000000000000027
 20
2.2300000000000022
 30
0.0
 11
-7.0
 21
15.77000000000014
 31
0.0
  0
LINE
  5
4443
  8
250
  6
CONTINUOUS
 10
66.855005674146184
 20
0.0000000000001421
 30
0.0
 11
66.855005674146184
 21
-15.0
 31
0.0
  0
LINE
  5
4444
  8
250
  6
CONTINUOUS
 10
74.855005674146184
 20
0.0000000000001421
 30
0.0
 11
74.855005674146184
 21
-15.0
 31
0.0
  0
LINE
  5
4445
  8
250
  6
CONTINUOUS
 10
69.085005674146188
 20
-14.0
 30
0.0
 11
72.62500567414618
 21
-14.0
 31
0.0
  0
LINE
  5
4449
  8
250
  6
CONTINUOUS
 10
0.0
 20
-0.2000000000000028
 30
0.0
 11
-0.0000000000000009
 21
-15.0
 31
0.0
  0
LINE
  5
444A
  8
250
  6
CONTINUOUS
 10
43.000000000000007
 20
1.393909703439447
 30
0.0
 11
43.000000000000007
 21
-15.0
 31
0.0
  0
LINE
  5
444B
  8
250
  6
CONTINUOUS
 10
2.2299999999999991
 20
-14.0
 30
0.0
 11
40.77000000000001
 21
-14.0
 31
0.0
  0
TEXT
  5
444F
  8
250
  6
CONTINUOUS
 10
7.3612651676831824
 20
22.422431409485721
 30
0.0
 40
2.7999999999999989
  1
45\U+00B0
 50
67.500019018949445
  0
LINE
  5
4450
  8
250
  6
CONTINUOUS
 10
8.6250897572807617
 20
20.20318094377048
 30
0.0
 11
8.1181086529796307
 21
18.000000000000149
 31
0.0
  0
LINE
  5
4451
  8
250
  6
CONTINUOUS
 10
7.883140202311945
 20
20.24851638604272
 30
0.0
 11
8.1181086529796307
 21
18.000000000000149
 31
0.0
  0
LINE
  5
4452
  8
250
  6
CONTINUOUS
 10
8.1181086529796307
 20
18.000000000000149
 30
0.0
 11
8.2541149797963538
 21
20.2258486649066
 31
0.0
  0
LINE
  5
4453
  8
250
  6
CONTINUOUS
 10
11.71664782728161
 20
29.503431174934299
 30
0.0
 11
13.472735851055679
 21
30.927225740125628
 31
0.0
  0
LINE
  5
4454
  8
250
  6
CONTINUOUS
 10
12.273342714574691
 20
29.010850981558459
 30
0.0
 11
13.472735851055679
 21
30.927225740125628
 31
0.0
  0
LINE
  5
4455
  8
250
  6
CONTINUOUS
 10
13.472735851055679
 20
30.927225740125628
 30
0.0
 11
11.99499527092815
 21
29.257141078246381
 31
0.0
  0
TEXT
  5
4456
  8
250
  6
CONTINUOUS
 10
-8.0000000000000036
 20
6.1333333333334039
 30
0.0
 40
2.7999999999999989
  1
18
 50
90.0
  0
LINE
  5
4457
  8
250
  6
CONTINUOUS
 10
-7.371666666666667
 20
15.77000000000014
 30
0.0
 11
-7.0
 21
18.000000000000139
 31
0.0
  0
LINE
  5
4458
  8
250
  6
CONTINUOUS
 10
-6.628333333333333
 20
15.77000000000014
 30
0.0
 11
-7.0
 21
18.000000000000139
 31
0.0
  0
LINE
  5
4459
  8
250
  6
CONTINUOUS
 10
-7.0
 20
18.000000000000139
 30
0.0
 11
-7.0
 21
15.77000000000014
 31
0.0
  0
LINE
  5
445A
  8
250
  6
CONTINUOUS
 10
-6.6283333333333374
 20
2.2300000000000022
 30
0.0
 11
-7.0000000000000044
 21
0.0000000000000021
 31
0.0
  0
LINE
  5
445B
  8
250
  6
CONTINUOUS
 10
-7.3716666666666697
 20
2.2300000000000022
 30
0.0
 11
-7.0000000000000044
 21
0.0000000000000021
 31
0.0
  0
LINE
  5
445C
  8
250
  6
CONTINUOUS
 10
-7.0000000000000044
 20
0.0000000000000021
 30
0.0
 11
-7.0000000000000044
 21
2.2300000000000022
 31
0.0
  0
TEXT
  5
445D
  8
250
  6
CONTINUOUS
 10
69.521672340812842
 20
-13.0
 30
0.0
 40
2.7999999999999989
  1
8
  0
LINE
  5
445E
  8
250
  6
CONTINUOUS
 10
72.62500567414618
 20
-13.62833333333333
 30
0.0
 11
74.855005674146184
 21
-14.0
 31
0.0
  0
LINE
  5
445F
  8
250
  6
CONTINUOUS
 10
72.62500567414618
 20
-14.371666666666661
 30
0.0
 11
74.855005674146184
 21
-14.0
 31
0.0
  0
LINE
  5
4460
  8
250
  6
CONTINUOUS
 10
74.855005674146184
 20
-14.0
 30
0.0
 11
72.62500567414618
 21
-14.0
 31
0.0
  0
LINE
  5
4461
  8
250
  6
CONTINUOUS
 10
69.085005674146188
 20
-14.371666666666661
 30
0.0
 11
66.855005674146184
 21
-14.0
 31
0.0
  0
LINE
  5
4462
  8
250
  6
CONTINUOUS
 10
69.085005674146188
 20
-13.62833333333333
 30
0.0
 11
66.855005674146184
 21
-14.0
 31
0.0
  0
LINE
  5
4463
  8
250
  6
CONTINUOUS
 10
66.855005674146184
 20
-14.0
 30
0.0
 11
69.085005674146188
 21
-14.0
 31
0.0
  0
TEXT
  5
4464
  8
250
  6
CONTINUOUS
 10
18.833333333333339
 20
-13.0
 30
0.0
 40
2.7999999999999989
  1
43
  0
LINE
  5
4465
  8
250
  6
CONTINUOUS
 10
40.77000000000001
 20
-13.62833333333333
 30
0.0
 11
43.000000000000007
 21
-14.0
 31
0.0
  0
LINE
  5
4466
  8
250
  6
CONTINUOUS
 10
40.77000000000001
 20
-14.371666666666661
 30
0.0
 11
43.000000000000007
 21
-14.0
 31
0.0
  0
LINE
  5
4467
  8
250
  6
CONTINUOUS
 10
43.000000000000007
 20
-14.0
 30
0.0
 11
40.77000000000001
 21
-14.0
 31
0.0
  0
LINE
  5
4468
  8
250
  6
CONTINUOUS
 10
2.2299999999999991
 20
-14.371666666666661
 30
0.0
 11
-0.0000000000000009
 21
-14.0
 31
0.0
  0
LINE
  5
4469
  8
250
  6
CONTINUOUS
 10
2.2299999999999991
 20
-13.62833333333333
 30
0.0
 11
-0.0000000000000009
 21
-14.0
 31
0.0
  0
LINE
  5
446A
  8
250
  6
CONTINUOUS
 10
-0.0000000000000009
 20
-14.0
 30
0.0
 11
2.2299999999999991
 21
-14.0
 31
0.0
  0
TEXT
  5
446C
  8
241
  6
CONTINUOUS
 10
-7.0
 20
42.0
 30
0.0
 40
4.0
  1
CB2-45CW12A
  7
YOKO
  0
VIEWPORT
  5
22
 67
     1
  8
0
 10
261.51769911504419
 20
148.5
 30
0.0
 40
523.0353982300885
 41
297.0
 68
     1
 69
     1
1001
ACAD
1000
MVIEW
1002
{
1070
    16
1010
0.0
1020
0.0
1030
0.0
1010
0.0
1020
0.0
1030
1.0
1040
0.0
1040
297.0
1040
261.51769911504419
1040
148.5
1040
50.0
1040
0.0
1040
0.0
1070
     0
1070
   100
1070
     1
1070
     1
1070
     0
1070
     0
1070
     0
1070
     0
1040
0.0
1040
0.0
1040
0.0
1040
1.0
1040
1.0
1040
10.0
1040
10.0
1070
     0
1002
{
1002
}
1002
}
1001
GENIUS_GENODEF_13
1002
{
1000
HIER
1070
     0
1002
}
1002
{
1000
MANEDIT
1070
     0
1002
}
1002
{
1000
NOSEL
1070
     0
1002
}
1002
{
1000
BEHIND
1070
     0
1002
}
1002
{
1000
OTHER
1070
     0
1002
}
1002
{
1000
REACTOR
1002
}
1001
GENIUS_GENOBJ-N-SDF_13
1002
{
1000
OWNER
1000
GEN
1002
}
1001
GENIUS_GENSCREG_15
1000
PF
1040
1.0
1000
DF
1040
1.0
1000
MIN
1011
0.0
1021
-1.1031304526203975E+217
1031
0.0
1021
0.0
1031
0.0
1000
MAX
1011
523.0353982300885
1021
-1.1031304526203975E+217
1031
0.0
1021
297.0
1031
0.0
1000
FLAGS
1070
     4
  0
ENDSEC
  0
EOF
