  0
SECTION
  2
HEADER
  9
$ACADVER
  1
AC1009
  9
$INSBASE
 10
0.0
 20
0.0
 30
0.0
  9
$EXTMIN
 10
-81.164199874956026
 20
-126.50768428922299
 30
0.0
  9
$EXTMAX
 10
78.000000000000028
 20
129.12903215086749
 30
0.0
  9
$LIMMIN
 10
0.0
 20
0.0
  9
$LIMMAX
 10
297.0
 20
210.0
  9
$ORTHOMODE
 70
     1
  9
$REGENMODE
 70
     1
  9
$FILLMODE
 70
     1
  9
$QTEXTMODE
 70
     0
  9
$MIRRTEXT
 70
     1
  9
$DRAGMODE
 70
     2
  9
$LTSCALE
 40
10.0
  9
$OSMODE
 70
    47
  9
$ATTMODE
 70
     1
  9
$TEXTSIZE
 40
3.0
  9
$TRACEWID
 40
1.0
  9
$TEXTSTYLE
  7
YOKO
  9
$CLAYER
  8
245
  9
$CELTYPE
  6
BYLAYER
  9
$CECOLOR
 62
   256
  9
$DIMSCALE
 40
1.0
  9
$DIMASZ
 40
2.2299999999999991
  9
$DIMEXO
 40
0.5
  9
$DIMDLI
 40
7.0
  9
$DIMRND
 40
0.0
  9
$DIMDLE
 40
0.0
  9
$DIMEXE
 40
1.0
  9
$DIMTP
 40
0.0
  9
$DIMTM
 40
0.01
  9
$DIMTXT
 40
2.799999999999998
  9
$DIMCEN
 40
0.0
  9
$DIMTSZ
 40
0.0
  9
$DIMTOL
 70
     0
  9
$DIMLIM
 70
     0
  9
$DIMTIH
 70
     0
  9
$DIMTOH
 70
     0
  9
$DIMSE1
 70
     0
  9
$DIMSE2
 70
     0
  9
$DIMTAD
 70
     3
  9
$DIMZIN
 70
     9
  9
$DIMBLK
  1
OPEN
  9
$DIMASO
 70
     1
  9
$DIMSHO
 70
     1
  9
$DIMPOST
  1

  9
$DIMAPOST
  1

  9
$DIMALT
 70
     0
  9
$DIMALTD
 70
     2
  9
$DIMALTF
 40
25.399999999999999
  9
$DIMLFAC
 40
1.0
  9
$DIMTOFL
 70
     1
  9
$DIMTVP
 40
0.0
  9
$DIMTIX
 70
     1
  9
$DIMSOXD
 70
     0
  9
$DIMSAH
 70
     0
  9
$DIMBLK1
  1

  9
$DIMBLK2
  1

  9
$DIMSTYLE
  2
BIGT
  9
$DIMCLRD
 70
   256
  9
$DIMCLRE
 70
   256
  9
$DIMCLRT
 70
    40
  9
$DIMTFAC
 40
1.0
  9
$DIMGAP
 40
1.0
  9
$LUNITS
 70
     2
  9
$LUPREC
 70
     3
  9
$SKETCHINC
 40
1.0
  9
$FILLETRAD
 40
0.0
  9
$AUNITS
 70
     0
  9
$AUPREC
 70
     3
  9
$MENU
  1
.
  9
$ELEVATION
 40
0.0
  9
$PELEVATION
 40
0.0
  9
$THICKNESS
 40
0.0
  9
$LIMCHECK
 70
     0
  9
$BLIPMODE
 70
     0
  9
$CHAMFERA
 40
0.25
  9
$CHAMFERB
 40
0.25
  9
$SKPOLY
 70
     0
  9
$TDCREATE
 40
2456513.3644672921
  9
$TDUPDATE
 40
2460426.3916059262
  9
$TDINDWG
 40
0.1797190394
  9
$TDUSRTIMER
 40
0.1797188657
  9
$USRTIMER
 70
     1
  9
$ANGBASE
 50
0.0
  9
$ANGDIR
 70
     0
  9
$PDMODE
 70
     1
  9
$PDSIZE
 40
0.0
  9
$PLINEWID
 40
0.0
  9
$COORDS
 70
     1
  9
$SPLFRAME
 70
     0
  9
$SPLINETYPE
 70
     6
  9
$SPLINESEGS
 70
     4
  9
$ATTDIA
 70
     1
  9
$ATTREQ
 70
     1
  9
$HANDLING
 70
     1
  9
$HANDSEED
  5
3087
  9
$SURFTAB1
 70
     6
  9
$SURFTAB2
 70
     6
  9
$SURFTYPE
 70
     6
  9
$SURFU
 70
     6
  9
$SURFV
 70
     6
  9
$UCSNAME
  2

  9
$UCSORG
 10
0.0
 20
0.0
 30
0.0
  9
$UCSXDIR
 10
1.0
 20
0.0
 30
0.0
  9
$UCSYDIR
 10
0.0
 20
1.0
 30
0.0
  9
$PUCSNAME
  2

  9
$PUCSORG
 10
0.0
 20
0.0
 30
0.0
  9
$PUCSXDIR
 10
1.0
 20
0.0
 30
0.0
  9
$PUCSYDIR
 10
0.0
 20
1.0
 30
0.0
  9
$USERI1
 70
     1
  9
$USERI2
 70
     0
  9
$USERI3
 70
     0
  9
$USERI4
 70
     0
  9
$USERI5
 70
     0
  9
$USERR1
 40
0.0
  9
$USERR2
 40
0.0
  9
$USERR3
 40
0.0
  9
$USERR4
 40
0.0
  9
$USERR5
 40
0.0
  9
$WORLDVIEW
 70
     1
  9
$SHADEDGE
 70
     3
  9
$SHADEDIF
 70
    70
  9
$TILEMODE
 70
     1
  9
$MAXACTVP
 70
    16
  9
$PLIMCHECK
 70
     0
  9
$PEXTMIN
 10
1.0000000000000000E+020
 20
1.0000000000000000E+020
 30
1.0000000000000000E+020
  9
$PEXTMAX
 10
-1.0000000000000000E+020
 20
-1.0000000000000000E+020
 30
-1.0000000000000000E+020
  9
$PLIMMIN
 10
0.0
 20
0.0
  9
$PLIMMAX
 10
420.0
 20
297.0
  9
$UNITMODE
 70
     0
  9
$VISRETAIN
 70
     1
  9
$PLINEGEN
 70
     0
  9
$PSLTSCALE
 70
     1
  0
ENDSEC
  0
SECTION
  2
TABLES
  0
TABLE
  2
VPORT
 70
     1
  0
VPORT
  2
*ACTIVE
 70
     0
 10
0.0
 20
0.0
 11
1.0
 21
1.0
 12
55.611532088139832
 22
-25.210141954292119
 13
0.0
 23
0.0
 14
7.0
 24
7.0
 15
7.0
 25
7.0
 16
0.0
 26
0.0
 36
1.0
 17
0.0
 27
0.0
 37
0.0
 40
307.20252818207717
 41
2.196211096075777
 42
50.0
 43
0.0
 44
0.0
 50
0.0
 51
0.0
 71
     0
 72
  2000
 73
     1
 74
     0
 75
     0
 76
     1
 77
     0
 78
     0
  0
ENDTAB
  0
TABLE
  2
LTYPE
 70
    18
  0
LTYPE
  2
CONTINUOUS
 70
     0
  3
Solid line
 72
    65
 73
     0
 40
0.0
  0
LTYPE
  2
CENTER2
 70
     0
  3
___ _ ___ _ ___ _ ___ _ ___ _ ___ _ ___ _ ___ _
 72
    65
 73
     4
 40
1.125
 49
0.75
 49
-0.125
 49
0.125
 49
-0.125
  0
LTYPE
  2
HIDDEN2
 70
     0
  3
_ _ _ _ _ _ _ _ _ _ _ _ _ _ _ _ _ _ _ _ _ _ _ _
 72
    65
 73
     2
 40
0.1875
 49
0.125
 49
-0.0625
  0
LTYPE
  2
PHANTOM2
 70
     0
  3
___ _ _ ___ _ _ ___ _ _ ___ _ _ ___ _ _ ___ _ _
 72
    65
 73
     6
 40
1.25
 49
0.625
 49
-0.125
 49
0.125
 49
-0.125
 49
0.125
 49
-0.125
  0
LTYPE
  2
CENTER
 70
     0
  3
____ _ ____ _ ____ _ ____ _ ____ _ ____ _ ____ 
 72
    65
 73
     4
 40
2.0
 49
1.25
 49
-0.25
 49
0.25
 49
-0.25
  0
LTYPE
  2
AMCONSTR
 70
     0
  3
_______________________
 72
    65
 73
     2
 40
9999.0
 49
9999.0
 49
0.0
  0
LTYPE
  2
HIDDEN
 70
     0
  3
Hidden __ __ __ __ __ __ __ __ __ __ __ __ __ _
 72
    65
 73
     2
 40
9.5249999999999986
 49
6.349999999999997
 49
-3.174999999999998
  0
LTYPE
  2
AMZIGZAG2
 70
     0
  3
/\/-/\/-/\/-/\/-/\/-/\/
 72
    65
 73
     2
 40
0.4401
 49
0.0001
 49
-0.4400000000000003
  0
LTYPE
  2
ACANSTGB
 70
     0
  3
__ . . __ . .
 72
    65
 73
     6
 40
0.35433070866
 49
0.15748031496
 49
-0.03937007874
 49
0.03937007874
 49
-0.03937007874
 49
0.03937007874
 49
-0.03937007874
  0
LTYPE
  2
ACANSTGL
 70
     0
  3
_ _ _ _ _
 72
    65
 73
     2
 40
0.11811023622
 49
0.07874015748
 49
-0.03937007874
  0
ENDTAB
  0
TABLE
  2
LAYER
 70
     7
  0
LAYER
  2
0
 70
     0
 62
     7
  6
CONTINUOUS
  0
LAYER
  2
245
 70
     0
 62
     2
  6
CENTER2
  0
LAYER
  2
240
 70
     0
 62
     4
  6
CONTINUOUS
  0
LAYER
  2
241
 70
     0
 62
   211
  6
CONTINUOUS
  0
LAYER
  2
DEFPOINTS
 70
     0
 62
     7
  6
CONTINUOUS
  0
LAYER
  2
246
 70
     0
 62
     3
  6
PHANTOM2
  0
LAYER
  2
250
 70
     0
 62
     3
  6
CONTINUOUS
  0
ENDTAB
  0
TABLE
  2
STYLE
 70
     6
  0
STYLE
  2
STANDARD
 70
     0
 40
0.0
 41
1.0
 50
0.0
 71
     0
 42
3.0
  3
romans.shx
  4
extfont.shx
  0
STYLE
  2
YOKO
 70
     0
 40
0.0
 41
1.0
 50
0.0
 71
     0
 42
3.0
  3
romans.shx
  4
extfont.shx
  0
STYLE
  2
ACANSGDT
 70
     0
 40
0.0
 41
1.0
 50
0.0
 71
     0
 42
3.0
  3
amgdt.shx
  4

  0
ENDTAB
  0
TABLE
  2
VIEW
 70
     0
  0
ENDTAB
  0
TABLE
  2
UCS
 70
     0
  0
ENDTAB
  0
TABLE
  2
APPID
 70
    38
  0
APPID
  2
ACAD
 70
     0
  0
APPID
  2
ACADANNOTATIVE
 70
     0
  0
APPID
  2
GLOBAL
 70
     0
  0
APPID
  2
DETAIL
 70
     0
  0
APPID
  2
GRPNAME
 70
     0
  0
APPID
  2
GPARA
 70
     0
  0
APPID
  2
MCAD_NO_VIS
 70
     0
  0
APPID
  2
ACAD_TEMP_GRAPHIC
 70
     0
  0
APPID
  2
ACATTRIBSERVICES
 70
     0
  0
APPID
  2
GENIUS_GENSCREG_15
 70
     0
  0
APPID
  2
GENIUS_GENODEF_13
 70
     0
  0
APPID
  2
GENIUS_GENOBJ-N-SDF_13
 70
     0
  0
APPID
  2
GENIUS_GENREC_14
 70
     0
  0
APPID
  2
GENIUS_GENOBJ-N-REC_13
 70
     0
  0
APPID
  2
GENIUS_GENDIMSH_14
 70
     0
  0
APPID
  2
GENIUS_GENOBJ-N-DIM_13
 70
     0
  0
APPID
  2
GENIUS_GENDIM_13
 70
     0
  0
APPID
  2
GENIUS_GENDTOL_13
 70
     0
  0
APPID
  2
GENIUS_GENOLIS_13
 70
     0
  0
APPID
  2
GENIUS_GENOENT_13
 70
     0
  0
APPID
  2
GENIUS_GENOBJ-F-FEM_13
 70
     0
  0
APPID
  2
GENIUS_GENOREF_13
 70
     0
  0
APPID
  2
GENIUS_GEFFEM_13
 70
     0
  0
APPID
  2
GENIUS_GEFFEMP_13
 70
     0
  0
APPID
  2
AD_DRAW
 70
     0
  0
APPID
  2
DESIGNERASSEMBLIES
 70
     0
  0
APPID
  2
ACADM_DIM_EDIT
 70
     0
  0
APPID
  2
AMDT_DM_ADJ
 70
     0
  0
APPID
  2
LAYER_SCALE
 70
     0
  0
APPID
  2
ACAD_PSEXT
 70
     0
  0
APPID
  2
GENIUS_GENOBJ-N-FIL_13
 70
     0
  0
APPID
  2
ACAECLAYERSTANDARD
 70
     0
  0
APPID
  2
ACAD_DSTYLE_DIMBREAK
 70
     0
  0
APPID
  2
ACAD_DSTYLE_DIMJAG
 70
     0
  0
APPID
  2
ACAD_NAV_VCDISPLAY
 70
     0
  0
APPID
  2
ACAD_EXEMPT_FROM_CAD_STANDARDS
 70
     0
  0
APPID
  2
ACAD_DSTYLE_DIMINSPECT
 70
     0
  0
APPID
  2
ACAD_MLEADERVER
 70
     0
  0
ENDTAB
  0
TABLE
  2
DIMSTYLE
 70
    10
  0
DIMSTYLE
  2
STANDARD
 70
     0
  3

  4

  5

  6

  7

 40
1.0
 41
0.18
 42
0.0625
 43
0.38
 44
0.18
 45
0.0
 46
0.0
 47
0.0
 48
0.0
140
0.18
141
0.09
142
0.0
143
25.399999999999999
144
1.0
145
0.0
146
1.0
147
0.09
 71
     0
 72
     0
 73
     1
 74
     1
 75
     0
 76
     0
 77
     0
 78
     0
170
     0
171
     2
172
     0
173
     0
174
     0
175
     0
176
     0
177
     0
178
     0
  0
DIMSTYLE
  2
BIGT
 70
     0
  3

  4

  5

  6

  7

 40
1.0
 41
2.2299999999999991
 42
0.5
 43
7.0
 44
1.0
 45
0.0
 46
0.0
 47
0.0
 48
0.01
140
2.799999999999998
141
0.0
142
0.0
143
25.399999999999999
144
1.0
145
0.0
146
1.0
147
1.0
 71
     0
 72
     0
 73
     0
 74
     0
 75
     0
 76
     0
 77
     3
 78
     9
170
     0
171
     2
172
     1
173
     0
174
     1
175
     0
176
   256
177
   256
178
    40
  0
DIMSTYLE
  2
AM_ANSI
 70
     0
  3

  4
mm
  5

  6

  7

 40
1.0
 41
0.1
 42
0.05
 43
0.5
 44
0.1
 45
0.0
 46
0.0
 47
0.1
 48
0.1
140
0.12
141
0.0
142
0.0
143
25.399999999999999
144
1.0
145
0.0
146
0.71
147
0.06
 71
     0
 72
     0
 73
     1
 74
     1
 75
     0
 76
     0
 77
     0
 78
     7
170
     0
171
     2
172
     0
173
     0
174
     0
175
     0
176
   256
177
   256
178
     2
  0
DIMSTYLE
  2
AM_ANSI$3
 70
     0
  3

  4
mm
  5

  6

  7

 40
1.0
 41
0.1
 42
0.05
 43
0.5
 44
0.1
 45
0.0
 46
0.0
 47
0.1
 48
0.1
140
0.12
141
0.0
142
0.0
143
25.399999999999999
144
1.0
145
0.0
146
0.71
147
0.06
 71
     0
 72
     0
 73
     1
 74
     1
 75
     0
 76
     0
 77
     0
 78
     7
170
     0
171
     2
172
     0
173
     0
174
     0
175
     0
176
   256
177
   256
178
     2
  0
DIMSTYLE
  2
AM_ANSI$4
 70
     0
  3

  4
mm
  5

  6

  7

 40
1.0
 41
0.1
 42
0.05
 43
0.5
 44
0.1
 45
0.0
 46
0.0
 47
0.1
 48
0.1
140
0.12
141
0.0
142
0.0
143
25.399999999999999
144
1.0
145
0.0
146
0.71
147
0.06
 71
     0
 72
     0
 73
     1
 74
     1
 75
     0
 76
     0
 77
     0
 78
     7
170
     0
171
     2
172
     0
173
     0
174
     0
175
     0
176
   256
177
   256
178
     2
  0
DIMSTYLE
  2
AM_ANSI$7
 70
     0
  3

  4
mm
  5

  6

  7

 40
1.0
 41
0.1
 42
0.05
 43
0.5
 44
0.1
 45
0.0
 46
0.0
 47
0.1
 48
0.1
140
0.24
141
0.0
142
0.0
143
25.399999999999999
144
1.0
145
0.0
146
0.71
147
0.06
 71
     0
 72
     0
 73
     1
 74
     1
 75
     0
 76
     0
 77
     0
 78
     7
170
     0
171
     2
172
     0
173
     0
174
     0
175
     0
176
   256
177
   256
178
     2
  0
DIMSTYLE
  2
AM_ANSI$SF
 70
     0
  3

  4
mm
  5

  6

  7

 40
1.0
 41
0.1
 42
0.05
 43
0.5
 44
0.1
 45
0.0
 46
0.0
 47
0.1
 48
0.1
140
0.12
141
0.0
142
0.0
143
25.399999999999999
144
1.0
145
0.0
146
0.71
147
0.06
 71
     0
 72
     0
 73
     1
 74
     1
 75
     1
 76
     1
 77
     0
 78
     7
170
     0
171
     2
172
     0
173
     0
174
     0
175
     0
176
   256
177
   256
178
     2
  0
DIMSTYLE
  2
AM_ANSI$SH
 70
     0
  3

  4
mm
  5

  6

  7

 40
1.0
 41
0.1
 42
0.05
 43
0.5
 44
0.1
 45
0.0
 46
0.0
 47
0.1
 48
0.1
140
0.12
141
0.0
142
0.0
143
25.399999999999999
144
1.0
145
0.0
146
0.71
147
0.06
 71
     0
 72
     0
 73
     1
 74
     1
 75
     1
 76
     1
 77
     0
 78
     7
170
     0
171
     2
172
     0
173
     1
174
     0
175
     0
176
   256
177
   256
178
     2
  0
ENDTAB
  0
ENDSEC
  0
SECTION
  2
BLOCKS
  0
BLOCK
  8
0
  2
$MODEL_SPACE
 70
     0
 10
0.0
 20
0.0
 30
0.0
  3
$MODEL_SPACE
  1

  0
ENDBLK
  5
2F6A
  8
0
  0
BLOCK
 67
     1
  8
0
  2
$PAPER_SPACE
 70
     0
 10
0.0
 20
0.0
 30
0.0
  3
$PAPER_SPACE
  1

  0
ENDBLK
  5
2F66
 67
     1
  8
0
  0
BLOCK
  8
0
  2
_OPEN
 70
     0
 10
0.0
 20
0.0
 30
0.0
  3
_OPEN
  1

  0
LINE
  5
166D
  8
0
  6
BYBLOCK
 62
     0
 10
-1.0
 20
0.1666666666666666
 30
0.0
 11
0.0
 21
0.0
 31
0.0
  0
LINE
  5
166E
  8
0
  6
BYBLOCK
 62
     0
 10
-1.0
 20
-0.1666666666666666
 30
0.0
 11
0.0
 21
0.0
 31
0.0
  0
LINE
  5
166F
  8
0
  6
BYBLOCK
 62
     0
 10
0.0
 20
0.0
 30
0.0
 11
-1.0
 21
0.0
 31
0.0
  0
ENDBLK
  5
1670
  8
0
  0
BLOCK
  8
0
  2
_ACMFILLEDHALF
 70
     0
 10
0.0
 20
0.0
 30
0.0
  3
_ACMFILLEDHALF
  1

  0
TRACE
  5
1B2A
  8
245
 62
     0
 10
-0.8
 20
0.0
 30
0.0
 11
-1.0
 21
0.166666666
 31
0.0
 12
0.0
 22
0.0
 32
0.0
 13
0.0
 23
0.0
 33
0.0
  0
LINE
  5
1B2B
  8
245
 62
     0
 10
-1.0
 20
0.0
 30
0.0
 11
-0.8
 21
0.0
 31
0.0
  0
ENDBLK
  5
1B29
  8
0
  0
ENDSEC
  0
SECTION
  2
ENTITIES
  0
LINE
  5
13AA
  8
241
  6
CONTINUOUS
 10
1.000000047496995
 20
74.500001168343928
 30
0.0
 11
1.000000047496995
 21
69.02330288896313
 31
0.0
  0
LINE
  5
13AB
  8
246
  6
PHANTOM2
 10
-43.000001693144533
 20
74.500001168344141
 30
0.0
 11
-45.000001788139123
 21
72.499997115228553
 31
0.0
  0
LINE
  5
13AC
  8
246
  6
PHANTOM2
 10
-45.000001788139123
 20
72.499997115228553
 30
0.0
 11
-45.000001788133538
 21
-108.49999477854
 31
0.0
  0
LINE
  5
13AD
  8
241
  6
CONTINUOUS
 10
21.500000730157119
 20
-13.50000021746359
 30
0.0
 11
1.000000047497678
 21
-13.500000217463819
 31
0.0
  0
LINE
  5
13AE
  8
240
  6
CONTINUOUS
 10
21.500000730157119
 20
-17.499999999999769
 30
0.0
 11
1.000000047497678
 21
-17.5
 31
0.0
  0
LINE
  5
13AF
  8
241
  6
CONTINUOUS
 10
0.0
 20
-13.500000217463819
 30
0.0
 11
21.99999988079071
 21
-13.50000021746359
 31
0.0
  0
LINE
  5
13B0
  8
240
  6
CONTINUOUS
 10
0.0000000000055219
 20
-16.50000001071459
 30
0.0
 11
1.000000047497678
 21
-17.5
 31
0.0
  0
LINE
  5
13B2
  8
246
  6
PHANTOM2
 10
-1.000002026557919
 20
74.500001168344141
 30
0.0
 11
-43.000001693144533
 21
74.500001168344141
 31
0.0
  0
LINE
  5
13B3
  8
246
  6
PHANTOM2
 10
-0.0000000000009095
 20
73.49999914178899
 30
0.0
 11
-1.000002026557919
 21
74.500001168344141
 31
0.0
  0
LINE
  5
13B4
  8
241
  6
CONTINUOUS
 10
-0.0000000000006821
 20
69.02330288896313
 30
0.0
 11
21.999999880790249
 21
69.023302888963372
 31
0.0
  0
LINE
  5
13B5
  8
240
  6
CONTINUOUS
 10
16.000271269339059
 20
74.500001168344369
 30
0.0
 11
1.000000047496995
 21
74.500001168343928
 31
0.0
  0
LINE
  5
13B6
  8
240
  6
CONTINUOUS
 10
0.0000000000055219
 20
-16.50000001071459
 30
0.0
 11
-0.0000000000009095
 21
73.499999141786006
 31
0.0
  0
LINE
  5
13B7
  8
240
  6
CONTINUOUS
 10
1.000000047496995
 20
74.500001168343928
 30
0.0
 11
-0.0000000000009095
 21
73.499999141786006
 31
0.0
  0
LINE
  5
13B8
  8
241
  6
CONTINUOUS
 10
1.000000047497678
 20
-13.500000217463819
 30
0.0
 11
1.000000047497678
 21
-17.5
 31
0.0
  0
LINE
  5
13C2
  8
240
  6
CONTINUOUS
 10
21.99999988079071
 20
-16.999999976251271
 30
0.0
 11
21.500000730157119
 21
-17.499999999999879
 31
0.0
  0
LINE
  5
13C3
  8
240
  6
CONTINUOUS
 10
21.99999988079071
 20
-16.999999976251271
 30
0.0
 11
21.99999988078817
 21
72.406291383428936
 31
0.0
  0
LINE
  5
13CF
  8
240
  6
CONTINUOUS
 10
21.50000073015644
 20
73.007404005620771
 30
0.0
 11
16.000268721383581
 21
73.007404005620771
 31
0.0
  0
LINE
  5
13D0
  8
240
  6
CONTINUOUS
 10
16.000268721383581
 20
73.007404005620771
 30
0.0
 11
16.000268721383581
 21
74.500001168344369
 31
0.0
  0
LINE
  5
143F
  8
250
  6
CONTINUOUS
 10
-6.6944813107423951
 20
103.1532859721388
 30
0.0
 11
11.57218535592426
 21
103.1532859721388
 31
0.0
  0
LINE
  5
1440
  8
250
  6
CONTINUOUS
 10
11.57218535592426
 20
103.1532859721388
 30
0.0
 11
23.227657973858449
 21
84.016959951448712
 31
0.0
  0
LINE
  5
1441
  8
250
  6
CONTINUOUS
 10
23.227657973858449
 20
84.016959951448712
 30
0.0
 11
24.353590758842909
 21
82.092076743641698
 31
0.0
  0
LINE
  5
1442
  8
250
  6
CONTINUOUS
 10
22.974242293117339
 20
83.868728088851199
 30
0.0
 11
24.353590758842909
 21
82.092076743641698
 31
0.0
  0
LINE
  5
1443
  8
250
  6
CONTINUOUS
 10
24.353590758842909
 20
82.092076743641698
 30
0.0
 11
23.481073654599609
 21
84.165191814045983
 31
0.0
  0
LINE
  5
1444
  8
250
  6
CONTINUOUS
 10
-27.836556116792512
 20
88.217008829718921
 30
0.0
 11
-1.084156839141539
 21
88.217008829718921
 31
0.0
  0
LINE
  5
1445
  8
250
  6
CONTINUOUS
 10
-1.084156839141539
 20
88.217008829718921
 30
0.0
 11
6.045156039508397
 21
76.409028487243702
 31
0.0
  0
LINE
  5
1446
  8
250
  6
CONTINUOUS
 10
6.045156039508397
 20
76.409028487243702
 30
0.0
 11
7.197770132416589
 21
74.500002360437264
 31
0.0
  0
LINE
  5
1447
  8
250
  6
CONTINUOUS
 10
5.7938279830761132
 20
76.257283963834894
 30
0.0
 11
7.197770132416589
 21
74.500002360437264
 31
0.0
  0
LINE
  5
1448
  8
250
  6
CONTINUOUS
 10
7.197770132416589
 20
74.500002360437264
 30
0.0
 11
6.296484095940726
 21
76.560773010652483
 31
0.0
  0
TEXT
  5
1449
  8
250
  6
CONTINUOUS
 10
-7.22781464407573
 20
104.5532859721387
 30
0.0
 40
2.799999999999998
  1
TW200A
  7
YOKO
  0
TEXT
  5
144A
  8
250
  6
CONTINUOUS
 10
-25.55450362044461
 20
89.617008829718912
 30
0.0
 40
2.799999999999998
  1
CB-TW200
  7
YOKO
  0
LINE
  5
1480
  8
246
  6
PHANTOM2
 10
-43.000001693138962
 20
-110.4999988316557
 30
0.0
 11
-45.000001788133538
 21
-108.49999477854
 31
0.0
  0
LINE
  5
1481
  8
246
  6
PHANTOM2
 10
-1.0000020265523331
 20
-110.4999988316557
 30
0.0
 11
-43.000001693138962
 21
-110.4999988316557
 31
0.0
  0
LINE
  5
1482
  8
246
  6
PHANTOM2
 10
0.0000000000046789
 20
-109.4999968050962
 30
0.0
 11
-1.0000020265523331
 21
-110.4999988316557
 31
0.0
  0
LINE
  5
1483
  8
240
  6
CONTINUOUS
 10
1.0000000475025841
 20
-110.4999988316554
 30
0.0
 11
0.0000000000046789
 21
-109.4999968050974
 31
0.0
  0
LINE
  5
1484
  8
240
  6
CONTINUOUS
 10
1.0000000475025841
 20
-110.4999988316554
 30
0.0
 11
16.000268721383581
 21
-110.4999988316558
 31
0.0
  0
LINE
  5
1486
  8
240
  6
CONTINUOUS
 10
0.0000000000046789
 20
-19.49999765260829
 30
0.0
 11
1.0000000475032671
 21
-18.499997663311461
 31
0.0
  0
LINE
  5
1487
  8
241
  6
CONTINUOUS
 10
0.0000000000055884
 20
-22.499997445847612
 30
0.0
 11
21.999999880796071
 21
-22.499997445847612
 31
0.0
  0
LINE
  5
1488
  8
240
  6
CONTINUOUS
 10
21.500000730162721
 20
-18.499997663311461
 30
0.0
 11
1.0000000475032671
 21
-18.499997663311461
 31
0.0
  0
LINE
  5
1489
  8
241
  6
CONTINUOUS
 10
0.0000000000044516
 20
-105.02330055227461
 30
0.0
 11
21.999999880795841
 21
-105.02330055227461
 31
0.0
  0
LINE
  5
148A
  8
240
  6
CONTINUOUS
 10
0.0000000000046789
 20
-19.49999765260829
 30
0.0
 11
0.0000000000046789
 21
-109.4999968050974
 31
0.0
  0
LINE
  5
148C
  8
241
  6
CONTINUOUS
 10
1.0000000475019011
 20
-18.499997663311461
 30
0.0
 11
1.0000000475019011
 21
-22.499997445847612
 31
0.0
  0
LINE
  5
148D
  8
241
  6
CONTINUOUS
 10
1.0000000475025841
 20
-105.02330055227461
 30
0.0
 11
1.0000000475025841
 21
-110.4999988316554
 31
0.0
  0
LINE
  5
149B
  8
240
  6
CONTINUOUS
 10
21.999999880796189
 20
-18.9999976870604
 30
0.0
 11
21.500000730162601
 21
-18.499997663311461
 31
0.0
  0
LINE
  5
149C
  8
240
  6
CONTINUOUS
 10
21.99999988079573
 20
-108.4062890467403
 30
0.0
 11
21.999999880796189
 21
-18.9999976870604
 31
0.0
  0
LINE
  5
149E
  8
240
  6
CONTINUOUS
 10
21.500000730161918
 20
-109.007401668932
 30
0.0
 11
16.000268721383581
 21
-109.007401668932
 31
0.0
  0
LINE
  5
14A0
  8
240
  6
CONTINUOUS
 10
16.000268721383581
 20
-109.007401668932
 30
0.0
 11
16.000268721383581
 21
-110.4999988316558
 31
0.0
  0
LINE
  5
1512
  8
245
  6
CENTER2
 10
64.395597325050062
 20
-17.999998831655699
 30
0.0
 11
-81.164199874956026
 21
-17.999998831655699
 31
0.0
  0
TEXT
  5
158E
  8
241
  6
CONTINUOUS
 10
-43.000001693144533
 20
125.1290321508675
 30
0.0
 40
4.0
  1
CB-TW200
  7
YOKO
  0
LINE
  5
15C6
  8
250
  6
CONTINUOUS
 10
50.500000759819052
 20
89.500001168344227
 30
0.0
 11
78.000000000000028
 21
89.500001168344227
 31
0.0
  0
LINE
  5
15C7
  8
250
  6
CONTINUOUS
 10
50.50000075982463
 20
-125.4999988316557
 30
0.0
 11
77.999999999999986
 21
-125.4999988316557
 31
0.0
  0
LINE
  5
15C8
  8
250
  6
CONTINUOUS
 10
77.000000000000014
 20
89.500001168344198
 30
0.0
 11
76.999999999999972
 21
-125.4999988316557
 31
0.0
  0
LINE
  5
15CD
  8
250
  6
CONTINUOUS
 10
77.371666666666655
 20
-123.2699988316557
 30
0.0
 11
76.999999999999986
 21
-125.4999988316557
 31
0.0
  0
LINE
  5
15CE
  8
250
  6
CONTINUOUS
 10
76.628333333333316
 20
-123.2699988316557
 30
0.0
 11
76.999999999999986
 21
-125.4999988316557
 31
0.0
  0
LINE
  5
15CF
  8
250
  6
CONTINUOUS
 10
76.999999999999986
 20
-125.4999988316557
 30
0.0
 11
76.999999999999986
 21
-123.2699988316557
 31
0.0
  0
LINE
  5
15D0
  8
250
  6
CONTINUOUS
 10
76.628333333333373
 20
87.270001168344209
 30
0.0
 11
77.000000000000014
 21
89.500001168344227
 31
0.0
  0
LINE
  5
15D1
  8
250
  6
CONTINUOUS
 10
77.371666666666684
 20
87.270001168344209
 30
0.0
 11
77.000000000000014
 21
89.500001168344227
 31
0.0
  0
LINE
  5
15D2
  8
250
  6
CONTINUOUS
 10
77.000000000000014
 20
89.500001168344227
 30
0.0
 11
77.000000000000014
 21
87.270001168344209
 31
0.0
  0
LINE
  5
1BC6
  8
246
  6
PHANTOM2
 10
16.60026872086917
 20
80.516753701776622
 30
0.0
 11
16.60026872086916
 21
73.007404005620771
 31
0.0
  0
LINE
  5
1BC7
  8
246
  6
PHANTOM2
 10
35.000268720869137
 20
71.942839669898092
 30
0.0
 11
35.000268720869123
 21
-7.999728322085442
 31
0.0
  0
LINE
  5
1BC8
  8
246
  6
PHANTOM2
 10
34.000268720869123
 20
-8.9997283220854456
 30
0.0
 11
35.000268720869123
 21
-7.999728322085442
 31
0.0
  0
LINE
  5
1BC9
  8
246
  6
PHANTOM2
 10
34.000268720869123
 20
-8.9997283220854456
 30
0.0
 11
34.000268720869137
 21
70.682361066285026
 31
0.0
  0
LINE
  5
1BCA
  8
246
  6
PHANTOM2
 10
16.000268721383581
 20
74.500001168344369
 30
0.0
 11
16.000268721430128
 21
82.000273555460936
 31
0.0
  0
LINE
  5
1BCB
  8
246
  6
PHANTOM2
 10
21.999997332835012
 20
-8.9997283220854456
 30
0.0
 11
34.000268720869123
 21
-8.9997283220854456
 31
0.0
  0
LINE
  5
1BCC
  8
246
  6
PHANTOM2
 10
16.000268721430128
 20
82.000273555460936
 30
0.0
 11
25.873150850775719
 21
82.000273555460652
 31
0.0
  0
ARC
  5
1BCD
  8
246
  6
PHANTOM2
 10
0.0002677875861821
 20
-10.4997286333508
 30
0.0
 40
92.499999999999915
 50
79.724680837321429
 51
80.039280807855164
  0
LINE
  5
1BCE
  8
246
  6
PHANTOM2
 10
16.50026600941014
 20
80.516751199904448
 30
0.0
 11
27.126410716613041
 21
80.516751199904448
 31
0.0
  0
LINE
  5
1BCF
  8
246
  6
PHANTOM2
 10
31.02194305642438
 20
81.99941673869229
 30
0.0
 11
25.39222106968829
 21
81.99941673869192
 31
0.0
  0
LINE
  5
1BD0
  8
246
  6
PHANTOM2
 10
31.021946781714679
 20
81.999409288111707
 30
0.0
 11
31.02194305642438
 21
81.99941673869229
 31
0.0
  0
POLYLINE
  5
1BD1
  8
246
  6
PHANTOM2
 66
     1
 10
0.0
 20
0.0
 30
0.0
 70
   128
  0
VERTEX
  5
1F2D
  8
246
  6
PHANTOM2
 10
31.021946781714679
 20
81.999409288111707
 30
0.0
  0
VERTEX
  5
1F2E
  8
246
  6
PHANTOM2
 10
31.066098922332049
 20
81.936355024519926
 30
0.0
  0
VERTEX
  5
1F2F
  8
246
  6
PHANTOM2
 10
31.180103981335879
 20
81.773537486735293
 30
0.0
  0
VERTEX
  5
1F30
  8
246
  6
PHANTOM2
 10
31.363835298856021
 20
81.511142939272844
 30
0.0
  0
SEQEND
  5
1F31
  8
246
  6
PHANTOM2
  0
LINE
  5
1BD2
  8
246
  6
PHANTOM2
 10
27.126410716613041
 20
80.516751199904448
 30
0.0
 11
34.00026794656111
 21
70.699869930687854
 31
0.0
  0
LINE
  5
1BD3
  8
246
  6
PHANTOM2
 10
34.00026794656111
 20
70.699869930687854
 30
0.0
 11
35.000268110473868
 21
70.278301179352724
 31
0.0
  0
LINE
  5
1BD4
  8
246
  6
PHANTOM2
 10
35.000268110473868
 20
76.317779064122206
 30
0.0
 11
35.000268720869123
 21
-7.999728322085442
 31
0.0
  0
LINE
  5
1BD5
  8
246
  6
PHANTOM2
 10
31.363835298856021
 20
81.511142939272844
 30
0.0
 11
35.000268110473868
 21
76.317779064122206
 31
0.0
  0
LINE
  5
1BD6
  8
246
  6
PHANTOM2
 10
28.216445559104191
 20
81.99941673869229
 30
0.0
 11
28.216445559104191
 21
82.000273555460936
 31
0.0
  0
LINE
  5
1BD7
  8
246
  6
PHANTOM2
 10
48.634048644968431
 20
65.561565406302094
 30
0.0
 11
35.000268188340762
 21
65.561565406302094
 31
0.0
  0
LINE
  5
1BD8
  8
246
  6
PHANTOM2
 10
35.400268721421497
 20
-5.8415214523577124
 30
0.0
 11
35.00026872142152
 21
-7.999728322085442
 31
0.0
  0
LINE
  5
1BD9
  8
246
  6
PHANTOM2
 10
35.400268721421497
 20
-5.8415214523577124
 30
0.0
 11
37.6876816087386
 21
6.5002540659210011
 31
0.0
  0
LINE
  5
1BDA
  8
246
  6
PHANTOM2
 10
39.50026872105132
 20
16.280098960354199
 30
0.0
 11
49.59999821235256
 21
70.773362886649295
 31
0.0
  0
CIRCLE
  5
1BDB
  8
246
  6
PHANTOM2
 10
43.100268721434063
 20
82.600271677914591
 30
0.0
 40
6.349999999999997
  0
LINE
  5
1BDC
  8
246
  6
PHANTOM2
 10
47.956109498978577
 20
89.495618684638785
 30
0.0
 11
36.916916460390773
 21
88.335352742367817
 31
0.0
  0
LINE
  5
1BDD
  8
246
  6
PHANTOM2
 10
49.283620982477771
 20
76.865190613461735
 30
0.0
 11
38.244427943890003
 21
75.704924671190781
 31
0.0
  0
LINE
  5
1BDE
  8
246
  6
PHANTOM2
 10
48.835349785887303
 20
88.7836239389583
 30
0.0
 11
49.995615728158278
 21
77.744430900370432
 31
0.0
  0
LINE
  5
1BDF
  8
246
  6
PHANTOM2
 10
36.204921714710267
 20
87.45611245545912
 30
0.0
 11
37.36518765698127
 21
76.416919416871281
 31
0.0
  0
ARC
  5
1BE0
  8
246
  6
PHANTOM2
 10
49.199998211863672
 20
77.660808129756319
 30
0.0
 40
0.8
 50
276.00000000000011
 51
6.000000000001755
  0
ARC
  5
1BE1
  8
246
  6
PHANTOM2
 10
38.160805173275882
 20
76.500542187485394
 30
0.0
 40
0.8
 50
185.99999999999849
 51
276.00000000000011
  0
ARC
  5
1BE2
  8
246
  6
PHANTOM2
 10
37.000539231004872
 20
87.539735226073205
 30
0.0
 40
0.8
 50
96.000000000000128
 51
186.00000000000171
  0
ARC
  5
1BE3
  8
246
  6
PHANTOM2
 10
48.039732269592697
 20
88.700001168344215
 30
0.0
 40
0.8
 50
5.9999999999984812
 51
96.000000000000128
  0
LINE
  5
1BE4
  8
246
  6
PHANTOM2
 10
41.105808643123673
 20
76.005667901387696
 30
0.0
 11
40.895265754954842
 21
75.745674155507658
 31
0.0
  0
ARC
  5
1BE5
  8
246
  6
PHANTOM2
 10
38.874701854161017
 20
77.381926435203127
 30
0.0
 40
2.600000000000029
 50
140.99945377506239
 51
320.99945377506242
  0
LINE
  5
1BE6
  8
246
  6
PHANTOM2
 10
37.064483461882283
 20
79.277928721956783
 30
0.0
 11
36.854137953367172
 21
79.018178714898696
 31
0.0
  0
LINE
  5
1BE7
  8
246
  6
PHANTOM2
 10
49.599998212393821
 20
76.959584751574596
 30
0.0
 11
49.599998212354492
 21
70.77336288666055
 31
0.0
  0
LINE
  5
1BE8
  8
246
  6
PHANTOM2
 10
29.672902464928971
 20
83.403736387162979
 30
0.0
 11
34.544013400811011
 21
87.491083776859298
 31
0.0
  0
ARC
  5
1BE9
  8
246
  6
PHANTOM2
 10
25.816176806824181
 20
88.000003045888974
 30
0.0
 40
6.0
 50
270.0
 51
309.99999999981821
  0
LINE
  5
1BEA
  8
246
  6
PHANTOM2
 10
36.210606274250679
 20
87.666249746321199
 30
0.0
 11
34.544013400809369
 21
87.491083776859227
 31
0.0
  0
LINE
  5
1BEB
  8
246
  6
PHANTOM2
 10
27.126410716613041
 20
80.516751199904448
 30
0.0
 11
31.36383605277263
 21
81.511140289836774
 31
0.0
  0
LINE
  5
1BEC
  8
246
  6
PHANTOM2
 10
39.50026872105132
 20
7.5002540659210011
 30
0.0
 11
39.50026872105132
 21
16.280087244167181
 31
0.0
  0
LINE
  5
1BED
  8
246
  6
PHANTOM2
 10
38.50026872105132
 20
6.5002540659210011
 30
0.0
 11
38.151034629603657
 21
6.5002540659210011
 31
0.0
  0
ARC
  5
1BEE
  8
246
  6
PHANTOM2
 10
38.50026872105132
 20
7.5002540659210011
 30
0.0
 40
1.0
 50
270.0
 51
0.0
  0
LINE
  5
1BEF
  8
246
  6
PHANTOM2
 10
38.50026872105132
 20
22.500254065920959
 30
0.0
 11
35.000268720877862
 21
22.500254065920959
 31
0.0
  0
LINE
  5
1BF0
  8
246
  6
PHANTOM2
 10
39.50026872105132
 20
21.500254065920998
 30
0.0
 11
39.50026872105132
 21
16.280087244164001
 31
0.0
  0
ARC
  5
1BF1
  8
246
  6
PHANTOM2
 10
38.50026872105132
 20
21.500254065920998
 30
0.0
 40
1.0
 50
0.0
 51
90.0
  0
LINE
  5
1BF2
  8
246
  6
PHANTOM2
 10
38.500268720946849
 20
40.500254065921013
 30
0.0
 11
35.00026872087772
 21
40.500254065921013
 31
0.0
  0
ARC
  5
1BF3
  8
246
  6
PHANTOM2
 10
38.500268720946849
 20
41.500254065920977
 30
0.0
 40
1.0
 50
270.0
 51
0.0
  0
LINE
  5
1BF4
  8
246
  6
PHANTOM2
 10
38.500268720946607
 20
56.50025406592097
 30
0.0
 11
35.00026872087772
 21
56.500254065920352
 31
0.0
  0
ARC
  5
1BF5
  8
246
  6
PHANTOM2
 10
38.500268720946607
 20
55.50025406592097
 30
0.0
 40
1.0
 50
0.0
 51
90.0
  0
LINE
  5
1BF6
  8
246
  6
PHANTOM2
 10
35.000268720877862
 20
6.5002540659210011
 30
0.0
 11
38.15103462960343
 21
6.5002540659210011
 31
0.0
  0
LINE
  5
1BF7
  8
246
  6
PHANTOM2
 10
39.500268720946629
 20
55.50025406592097
 30
0.0
 11
39.500268720946849
 21
41.500254065920977
 31
0.0
  0
LINE
  5
1BF8
  8
246
  6
PHANTOM2
 10
38.500268720946607
 20
56.50025406592097
 30
0.0
 11
38.500268720946849
 21
40.500254065921013
 31
0.0
  0
LINE
  5
1BF9
  8
246
  6
PHANTOM2
 10
38.50026872105132
 20
6.5002540659210011
 30
0.0
 11
38.50026872105132
 21
22.500254065920959
 31
0.0
  0
LINE
  5
1C03
  8
240
  6
CONTINUOUS
 10
21.999999880790249
 20
72.406291383428936
 30
0.0
 11
21.50000073015644
 21
73.007404005620771
 31
0.0
  0
LINE
  5
1C06
  8
240
  6
CONTINUOUS
 10
21.500000730161918
 20
-109.007401668932
 30
0.0
 11
21.99999988079573
 21
-108.4062890467403
 31
0.0
  0
LINE
  5
1C07
  8
246
  6
PHANTOM2
 10
34.000268720869123
 20
-27.000269341225959
 30
0.0
 11
35.000268720869123
 21
-28.000269341225959
 31
0.0
  0
LINE
  5
1C08
  8
246
  6
PHANTOM2
 10
16.000268721383581
 20
-110.4999988316558
 30
0.0
 11
16.000268721430128
 21
-118.0002712187723
 31
0.0
  0
LINE
  5
1C09
  8
246
  6
PHANTOM2
 10
21.999997332835012
 20
-27.000269341225959
 30
0.0
 11
34.000268720869123
 21
-27.000269341225959
 31
0.0
  0
LINE
  5
1C0A
  8
246
  6
PHANTOM2
 10
16.000268721430128
 20
-118.0002712187723
 30
0.0
 11
25.873150850775719
 21
-118.0002712187721
 31
0.0
  0
LINE
  5
1C0B
  8
246
  6
PHANTOM2
 10
35.400268721421497
 20
-30.158476210953701
 30
0.0
 11
35.00026872142152
 21
-28.000269341225959
 31
0.0
  0
LINE
  5
1C0D
  8
246
  6
PHANTOM2
 10
35.400268721421497
 20
-30.158476210953701
 30
0.0
 11
49.59999821235256
 21
-106.7733605499607
 31
0.0
  0
LINE
  5
1C0E
  8
246
  6
PHANTOM2
 10
47.956109498978577
 20
-125.4956163479502
 30
0.0
 11
36.916916460390773
 21
-124.33535040567919
 31
0.0
  0
LINE
  5
1C0F
  8
246
  6
PHANTOM2
 10
48.835349785887303
 20
-124.7836216022697
 30
0.0
 11
49.995615728158278
 21
-113.74442856368179
 31
0.0
  0
ARC
  5
1C10
  8
246
  6
PHANTOM2
 10
49.199998211863672
 20
-113.6608057930676
 30
0.0
 40
0.8
 50
353.99999999999818
 51
60.4209398655752
  0
ARC
  5
1C11
  8
246
  6
PHANTOM2
 10
37.000539231004872
 20
-123.5397328893846
 30
0.0
 40
0.8
 50
189.09913442882021
 51
263.99999999999989
  0
ARC
  5
1C12
  8
246
  6
PHANTOM2
 10
48.039732269592697
 20
-124.69999883165561
 30
0.0
 40
0.8
 50
263.99999999999989
 51
354.00000000000159
  0
LINE
  5
1C13
  8
246
  6
PHANTOM2
 10
49.599998212393821
 20
-112.959582414886
 30
0.0
 11
49.599998212354492
 21
-106.7733605499719
 31
0.0
  0
LINE
  5
1C14
  8
246
  6
PHANTOM2
 10
29.672902464928971
 20
-119.4037340504744
 30
0.0
 11
34.544013400811011
 21
-123.4910814401707
 31
0.0
  0
ARC
  5
1C15
  8
246
  6
PHANTOM2
 10
25.816176806824181
 20
-124.00000070920041
 30
0.0
 40
6.0
 50
50.000000000181771
 51
90.0
  0
LINE
  5
1C16
  8
246
  6
PHANTOM2
 10
36.52024668026295
 20
-123.6987919277138
 30
0.0
 11
34.544013400809369
 21
-123.4910814401706
 31
0.0
  0
LINE
  5
1C17
  8
246
  6
PHANTOM2
 10
39.50026872105132
 20
-43.50025172923241
 30
0.0
 11
39.50026872105132
 21
-52.28008490747861
 31
0.0
  0
LINE
  5
1C18
  8
246
  6
PHANTOM2
 10
38.50026872105132
 20
-42.50025172923241
 30
0.0
 11
37.6876816087386
 21
-42.50025172923241
 31
0.0
  0
ARC
  5
1C19
  8
246
  6
PHANTOM2
 10
38.50026872105132
 20
-43.50025172923241
 30
0.0
 40
1.0
 50
0.0
 51
90.0
  0
LINE
  5
1C1A
  8
246
  6
PHANTOM2
 10
38.50026872105132
 20
-42.50025172923241
 30
0.0
 11
38.50026872105132
 21
-46.884579449346333
 31
0.0
  0
LINE
  5
1C42
  8
246
  6
PHANTOM2
 10
49.363118567850073
 20
-113.214216662716
 30
0.0
 11
49.599998212393892
 21
-112.959582414886
 31
0.0
  0
LINE
  5
1C43
  8
246
  6
PHANTOM2
 10
36.5299517768361
 20
-123.606454101853
 30
0.0
 11
36.52024668026295
 21
-123.6987919277138
 31
0.0
  0
LINE
  5
1C44
  8
246
  6
PHANTOM2
 10
48.14256699689227
 20
-124.8269891439919
 30
0.0
 11
49.36311856785035
 21
-113.214216662716
 31
0.0
  0
LINE
  5
1C45
  8
246
  6
PHANTOM2
 10
48.14256699689227
 20
-124.8269891439919
 30
0.0
 11
36.5299517768361
 21
-123.606454101853
 31
0.0
  0
LINE
  5
24D1
  8
246
  6
PHANTOM2
 10
16.000268721321511
 20
92.000001168344355
 30
0.0
 11
1.000000047496995
 21
92.000001168343928
 31
0.0
  0
LINE
  5
24D2
  8
246
  6
PHANTOM2
 10
1.000000047496995
 20
92.000001168343928
 30
0.0
 11
-0.0000000000009095
 21
90.999999141786006
 31
0.0
  0
LINE
  5
24D3
  8
246
  6
PHANTOM2
 10
16.000268721321511
 20
92.000001168344355
 30
0.0
 11
16.000268721430128
 21
109.50027355546089
 31
0.0
  0
LINE
  5
24D4
  8
246
  6
PHANTOM2
 10
16.000268721430128
 20
109.50027355546089
 30
0.0
 11
25.873150850775719
 21
109.50027355546059
 31
0.0
  0
CIRCLE
  5
24D5
  8
246
  6
PHANTOM2
 10
43.100268721434063
 20
110.10027167791461
 30
0.0
 40
6.349999999999997
  0
LINE
  5
24D6
  8
246
  6
PHANTOM2
 10
47.956109498978577
 20
116.9956186846388
 30
0.0
 11
36.916916460390773
 21
115.8353527423678
 31
0.0
  0
LINE
  5
24D7
  8
246
  6
PHANTOM2
 10
49.283620982477771
 20
104.36519061346171
 30
0.0
 11
38.244427943890003
 21
103.2049246711908
 31
0.0
  0
LINE
  5
24D8
  8
246
  6
PHANTOM2
 10
48.835349785887303
 20
116.2836239389583
 30
0.0
 11
49.995615728158278
 21
105.2444309003704
 31
0.0
  0
LINE
  5
24D9
  8
246
  6
PHANTOM2
 10
36.204921714710267
 20
114.95611245545911
 30
0.0
 11
37.36518765698127
 21
103.91691941687129
 31
0.0
  0
ARC
  5
24DA
  8
246
  6
PHANTOM2
 10
49.199998211863672
 20
105.1608081297563
 30
0.0
 40
0.8
 50
276.00000000000011
 51
6.000000000001755
  0
ARC
  5
24DB
  8
246
  6
PHANTOM2
 10
38.160805173275882
 20
104.00054218748539
 30
0.0
 40
0.8
 50
185.99999999999849
 51
276.00000000000011
  0
ARC
  5
24DC
  8
246
  6
PHANTOM2
 10
37.000539231004872
 20
115.0397352260732
 30
0.0
 40
0.8
 50
96.000000000000128
 51
186.00000000000171
  0
ARC
  5
24DD
  8
246
  6
PHANTOM2
 10
48.039732269592697
 20
116.2000011683442
 30
0.0
 40
0.8
 50
5.9999999999984812
 51
96.000000000000128
  0
LINE
  5
24DE
  8
246
  6
PHANTOM2
 10
49.599998212393821
 20
104.4595847515746
 30
0.0
 11
49.599998212354492
 21
98.273362886660536
 31
0.0
  0
LINE
  5
24DF
  8
246
  6
PHANTOM2
 10
29.672902464928971
 20
110.90373638716289
 30
0.0
 11
34.544013400811011
 21
114.9910837768593
 31
0.0
  0
ARC
  5
24E0
  8
246
  6
PHANTOM2
 10
25.816176806824181
 20
115.500003045889
 30
0.0
 40
6.0
 50
270.0
 51
309.9999999998181
  0
LINE
  5
24E1
  8
246
  6
PHANTOM2
 10
36.210606274250679
 20
115.1662497463212
 30
0.0
 11
34.544013400809369
 21
114.9910837768592
 31
0.0
  0
TEXT
  5
2847
  8
246
  6
PHANTOM2
 10
-47.698459189608741
 20
-127.2695890511278
 30
0.0
 40
4.0
  1
(Extension slide and Clamping base +35/\U+03C6adjustment of boring diameterüj
 50
90.0
  7
YOKO
  0
TEXT
  5
284F
  8
250
  6
CONTINUOUS
 10
73.371883602078455
 20
-94.381639297756536
 30
0.0
 40
2.799999999999998
  1
(Clamping base and Insert holder +35/\U+03C6adjustment of boring diameter)
 50
90.0
  0
LINE
  5
2E40
  8
241
 10
0.000000000001144
 20
44.750000000000107
 30
0.0
 11
-7.9999999999988569
 21
44.750000000000107
 31
0.0
  0
LINE
  5
2E41
  8
241
 10
-7.9999999999988569
 20
44.750000000000107
 30
0.0
 11
-7.9999999999982778
 21
36.750000000000121
 31
0.0
  0
LINE
  5
2E42
  8
241
 10
-7.9999999999982778
 20
36.750000000000121
 30
0.0
 11
0.000000000001716
 21
36.750000000000121
 31
0.0
  0
LINE
  5
2E43
  8
241
 10
0.0000000000023945
 20
27.250000000000121
 30
0.0
 11
-7.9999999999976943
 21
27.250000000000121
 31
0.0
  0
LINE
  5
2E44
  8
241
 10
-7.9999999999976943
 20
27.250000000000121
 30
0.0
 11
-7.9999999999970308
 21
19.250000000000121
 31
0.0
  0
LINE
  5
2E45
  8
241
 10
-7.9999999999970308
 20
19.250000000000121
 30
0.0
 11
0.0000000000029665
 21
19.250000000000121
 31
0.0
  0
LINE
  5
2E48
  8
241
 10
0.0000000000036451
 20
9.7500000000001208
 30
0.0
 11
-7.9999999999963531
 21
9.7500000000001208
 31
0.0
  0
LINE
  5
2E49
  8
241
 10
-7.9999999999963531
 20
9.7500000000001208
 30
0.0
 11
-7.999999999995782
 21
1.750000000000119
 31
0.0
  0
LINE
  5
2E4A
  8
241
 10
-7.999999999995782
 20
1.750000000000119
 30
0.0
 11
0.0000000000042171
 21
1.750000000000119
 31
0.0
  0
LINE
  5
2E4D
  8
245
 10
-8.9999999999960671
 20
5.750000000000119
 30
0.0
 11
1.0000000000039291
 21
5.750000000000119
 31
0.0
  0
LINE
  5
2E4E
  8
245
 10
-8.9999999999973141
 20
23.250000000000121
 30
0.0
 11
1.0000000000026781
 21
23.250000000000121
 31
0.0
  0
LINE
  5
2E4F
  8
245
 10
-8.9999999999985683
 20
40.750000000000121
 30
0.0
 11
1.0000000000014271
 21
40.750000000000121
 31
0.0
  0
LINE
  5
2E50
  8
241
 10
0.000000000001144
 20
-80.749997663311504
 30
0.0
 11
-7.9999999999988569
 21
-80.749997663311504
 31
0.0
  0
LINE
  5
2E51
  8
241
 10
-7.9999999999988569
 20
-80.749997663311504
 30
0.0
 11
-7.9999999999982778
 21
-72.749997663311518
 31
0.0
  0
LINE
  5
2E52
  8
241
 10
-7.9999999999982778
 20
-72.749997663311518
 30
0.0
 11
0.000000000001716
 21
-72.749997663311518
 31
0.0
  0
LINE
  5
2E53
  8
241
 10
0.0000000000023945
 20
-63.249997663311518
 30
0.0
 11
-7.9999999999976943
 21
-63.249997663311518
 31
0.0
  0
LINE
  5
2E54
  8
241
 10
-7.9999999999976943
 20
-63.249997663311518
 30
0.0
 11
-7.9999999999970308
 21
-55.249997663311518
 31
0.0
  0
LINE
  5
2E55
  8
241
 10
-7.9999999999970308
 20
-55.249997663311518
 30
0.0
 11
0.0000000000029665
 21
-55.249997663311518
 31
0.0
  0
LINE
  5
2E56
  8
241
 10
0.0000000000036451
 20
-45.749997663311518
 30
0.0
 11
-7.9999999999963531
 21
-45.749997663311518
 31
0.0
  0
LINE
  5
2E57
  8
241
 10
-7.9999999999963531
 20
-45.749997663311518
 30
0.0
 11
-7.999999999995782
 21
-37.749997663311518
 31
0.0
  0
LINE
  5
2E58
  8
241
 10
-7.999999999995782
 20
-37.749997663311518
 30
0.0
 11
0.0000000000042171
 21
-37.749997663311518
 31
0.0
  0
LINE
  5
2E59
  8
245
 10
-8.9999999999960671
 20
-41.749997663311511
 30
0.0
 11
1.0000000000039291
 21
-41.749997663311511
 31
0.0
  0
LINE
  5
2E5A
  8
245
 10
-8.9999999999973141
 20
-59.249997663311511
 30
0.0
 11
1.0000000000026781
 21
-59.249997663311511
 31
0.0
  0
LINE
  5
2E5B
  8
245
 10
-8.9999999999985683
 20
-76.749997663311504
 30
0.0
 11
1.0000000000014271
 21
-76.749997663311504
 31
0.0
  0
VIEWPORT
  5
22
 67
     1
  8
0
 10
261.51769911504419
 20
148.5
 30
0.0
 40
523.0353982300885
 41
297.0
 68
     1
 69
     1
1001
ACAD
1000
MVIEW
1002
{
1070
    16
1010
0.0
1020
0.0
1030
0.0
1010
0.0
1020
0.0
1030
1.0
1040
0.0
1040
297.0
1040
261.51769911504419
1040
148.5
1040
50.0
1040
0.0
1040
0.0
1070
     0
1070
   100
1070
     1
1070
     1
1070
     0
1070
     0
1070
     0
1070
     0
1040
0.0
1040
0.0
1040
0.0
1040
1.0
1040
1.0
1040
10.0
1040
10.0
1070
     0
1002
{
1002
}
1002
}
1001
GENIUS_GENODEF_13
1002
{
1000
HIER
1070
     0
1002
}
1002
{
1000
MANEDIT
1070
     0
1002
}
1002
{
1000
NOSEL
1070
     0
1002
}
1002
{
1000
BEHIND
1070
     0
1002
}
1002
{
1000
OTHER
1070
     0
1002
}
1002
{
1000
REACTOR
1002
}
1001
GENIUS_GENOBJ-N-SDF_13
1002
{
1000
OWNER
1000
GEN
1002
}
1001
GENIUS_GENSCREG_15
1000
PF
1040
1.0
1000
DF
1040
1.0
1000
MIN
1011
0.0
1021
0.0
1031
0.0
1021
0.0
1031
0.0
1000
MAX
1011
523.0353982300885
1021
0.0
1031
0.0
1021
297.0
1031
0.0
1000
FLAGS
1070
     4
  0
ENDSEC
  0
EOF
