  0
SECTION
  2
HEADER
  9
$ACADVER
  1
AC1009
  9
$INSBASE
 10
0.0
 20
0.0
 30
0.0
  9
$EXTMIN
 10
-123.2924015154241
 20
-45.000000000000021
 30
0.0
  9
$EXTMAX
 10
89.0
 20
82.000000000000014
 30
0.0
  9
$LIMMIN
 10
0.0
 20
0.0
  9
$LIMMAX
 10
297.0
 20
210.0
  9
$ORTHOMODE
 70
     0
  9
$REGENMODE
 70
     1
  9
$FILLMODE
 70
     1
  9
$QTEXTMODE
 70
     0
  9
$MIRRTEXT
 70
     1
  9
$DRAGMODE
 70
     2
  9
$LTSCALE
 40
10.0
  9
$OSMODE
 70
    39
  9
$ATTMODE
 70
     1
  9
$TEXTSIZE
 40
3.0
  9
$TRACEWID
 40
1.0
  9
$TEXTSTYLE
  7
YOKO
  9
$CLAYER
  8
240
  9
$CELTYPE
  6
BYLAYER
  9
$CECOLOR
 62
   256
  9
$DIMSCALE
 40
1.0
  9
$DIMASZ
 40
2.2299999999999991
  9
$DIMEXO
 40
0.5
  9
$DIMDLI
 40
7.0
  9
$DIMRND
 40
0.0
  9
$DIMDLE
 40
0.0
  9
$DIMEXE
 40
1.0
  9
$DIMTP
 40
0.0
  9
$DIMTM
 40
0.01
  9
$DIMTXT
 40
2.799999999999998
  9
$DIMCEN
 40
0.0
  9
$DIMTSZ
 40
0.0
  9
$DIMTOL
 70
     0
  9
$DIMLIM
 70
     0
  9
$DIMTIH
 70
     0
  9
$DIMTOH
 70
     0
  9
$DIMSE1
 70
     0
  9
$DIMSE2
 70
     0
  9
$DIMTAD
 70
     3
  9
$DIMZIN
 70
     9
  9
$DIMBLK
  1
OPEN
  9
$DIMASO
 70
     1
  9
$DIMSHO
 70
     1
  9
$DIMPOST
  1

  9
$DIMAPOST
  1

  9
$DIMALT
 70
     0
  9
$DIMALTD
 70
     2
  9
$DIMALTF
 40
25.399999999999999
  9
$DIMLFAC
 40
1.0
  9
$DIMTOFL
 70
     1
  9
$DIMTVP
 40
0.0
  9
$DIMTIX
 70
     1
  9
$DIMSOXD
 70
     0
  9
$DIMSAH
 70
     0
  9
$DIMBLK1
  1

  9
$DIMBLK2
  1

  9
$DIMSTYLE
  2
BIGT
  9
$DIMCLRD
 70
   256
  9
$DIMCLRE
 70
   256
  9
$DIMCLRT
 70
    40
  9
$DIMTFAC
 40
1.0
  9
$DIMGAP
 40
1.0
  9
$LUNITS
 70
     2
  9
$LUPREC
 70
     6
  9
$SKETCHINC
 40
1.0
  9
$FILLETRAD
 40
0.0
  9
$AUNITS
 70
     0
  9
$AUPREC
 70
     6
  9
$MENU
  1
.
  9
$ELEVATION
 40
0.0
  9
$PELEVATION
 40
0.0
  9
$THICKNESS
 40
0.0
  9
$LIMCHECK
 70
     0
  9
$BLIPMODE
 70
     0
  9
$CHAMFERA
 40
0.2
  9
$CHAMFERB
 40
0.2
  9
$SKPOLY
 70
     0
  9
$TDCREATE
 40
2457749.407108264
  9
$TDUPDATE
 40
2459608.6206867481
  9
$TDINDWG
 40
0.007638044
  9
$TDUSRTIMER
 40
0.0076379977
  9
$USRTIMER
 70
     1
  9
$ANGBASE
 50
0.0
  9
$ANGDIR
 70
     0
  9
$PDMODE
 70
     1
  9
$PDSIZE
 40
0.0
  9
$PLINEWID
 40
0.0
  9
$COORDS
 70
     1
  9
$SPLFRAME
 70
     0
  9
$SPLINETYPE
 70
     6
  9
$SPLINESEGS
 70
     4
  9
$ATTDIA
 70
     1
  9
$ATTREQ
 70
     1
  9
$HANDLING
 70
     1
  9
$HANDSEED
  5
4A10
  9
$SURFTAB1
 70
     6
  9
$SURFTAB2
 70
     6
  9
$SURFTYPE
 70
     6
  9
$SURFU
 70
     6
  9
$SURFV
 70
     6
  9
$UCSNAME
  2

  9
$UCSORG
 10
0.0
 20
0.0
 30
0.0
  9
$UCSXDIR
 10
1.0
 20
0.0
 30
0.0
  9
$UCSYDIR
 10
0.0
 20
1.0
 30
0.0
  9
$PUCSNAME
  2

  9
$PUCSORG
 10
0.0
 20
0.0
 30
0.0
  9
$PUCSXDIR
 10
1.0
 20
0.0
 30
0.0
  9
$PUCSYDIR
 10
0.0
 20
1.0
 30
0.0
  9
$USERI1
 70
     1
  9
$USERI2
 70
     0
  9
$USERI3
 70
     0
  9
$USERI4
 70
     0
  9
$USERI5
 70
     0
  9
$USERR1
 40
0.0
  9
$USERR2
 40
0.0
  9
$USERR3
 40
0.0
  9
$USERR4
 40
0.0
  9
$USERR5
 40
0.0
  9
$WORLDVIEW
 70
     1
  9
$SHADEDGE
 70
     3
  9
$SHADEDIF
 70
    70
  9
$TILEMODE
 70
     1
  9
$MAXACTVP
 70
    16
  9
$PLIMCHECK
 70
     0
  9
$PEXTMIN
 10
1.0000000000000000E+020
 20
1.0000000000000000E+020
 30
1.0000000000000000E+020
  9
$PEXTMAX
 10
-1.0000000000000000E+020
 20
-1.0000000000000000E+020
 30
-1.0000000000000000E+020
  9
$PLIMMIN
 10
0.0
 20
0.0
  9
$PLIMMAX
 10
420.0
 20
297.0
  9
$UNITMODE
 70
     0
  9
$VISRETAIN
 70
     1
  9
$PLINEGEN
 70
     0
  9
$PSLTSCALE
 70
     1
  0
ENDSEC
  0
SECTION
  2
TABLES
  0
TABLE
  2
VPORT
 70
     1
  0
VPORT
  2
*ACTIVE
 70
     0
 10
0.0
 20
0.0
 11
1.0
 21
1.0
 12
-20.585371451855082
 22
10.80825732697668
 13
0.0
 23
0.0
 14
7.0
 24
7.0
 15
7.0
 25
7.0
 16
0.0
 26
0.0
 36
1.0
 17
0.0
 27
0.0
 37
0.0
 40
242.51624480701011
 41
1.488859764089121
 42
50.0
 43
0.0
 44
0.0
 50
0.0
 51
0.0
 71
     0
 72
  2000
 73
     1
 74
     0
 75
     0
 76
     1
 77
     0
 78
     0
  0
ENDTAB
  0
TABLE
  2
LTYPE
 70
    21
  0
LTYPE
  2
CONTINUOUS
 70
     0
  3
Solid line
 72
    65
 73
     0
 40
0.0
  0
LTYPE
  2
CENTER2
 70
     0
  3
___ _ ___ _ ___ _ ___ _ ___ _ ___ _ ___ _ ___ _
 72
    65
 73
     4
 40
1.125
 49
0.75
 49
-0.125
 49
0.125
 49
-0.125
  0
LTYPE
  2
HIDDEN2
 70
     0
  3
_ _ _ _ _ _ _ _ _ _ _ _ _ _ _ _ _ _ _ _ _ _ _ _
 72
    65
 73
     2
 40
0.1875
 49
0.125
 49
-0.0625
  0
LTYPE
  2
PHANTOM2
 70
     0
  3
___ _ _ ___ _ _ ___ _ _ ___ _ _ ___ _ _ ___ _ _
 72
    65
 73
     6
 40
1.25
 49
0.625
 49
-0.125
 49
0.125
 49
-0.125
 49
0.125
 49
-0.125
  0
LTYPE
  2
AMCONSTR
 70
     0
  3
_______________________
 72
    65
 73
     2
 40
9999.0
 49
9999.0
 49
0.0
  0
LTYPE
  2
HIDDEN
 70
     0
  3
Hidden __ __ __ __ __ __ __ __ __ __ __ __ __ _
 72
    65
 73
     2
 40
0.375
 49
0.25
 49
-0.125
  0
LTYPE
  2
CENTER
 70
     0
  3
Center ____ _ ____ _ ____ _ ____ _ ____ _ ____
 72
    65
 73
     4
 40
2.0
 49
1.25
 49
-0.25
 49
0.25
 49
-0.25
  0
LTYPE
  2
AMZIGZAG2
 70
     0
  3
/\/-/\/-/\/-/\/-/\/-/\/
 72
    65
 73
     2
 40
0.4401
 49
0.0001
 49
-0.4400000000000001
  0
LTYPE
  2
ACANSTGB
 70
     0
  3
__ . . __ . .
 72
    65
 73
     6
 40
0.35433070866
 49
0.15748031496
 49
-0.03937007874
 49
0.03937007874
 49
-0.03937007874
 49
0.03937007874
 49
-0.03937007874
  0
LTYPE
  2
ACANSTGL
 70
     0
  3
_ _ _ _ _
 72
    65
 73
     2
 40
0.11811023622
 49
0.07874015748
 49
-0.03937007874
  0
ENDTAB
  0
TABLE
  2
LAYER
 70
     9
  0
LAYER
  2
0
 70
     0
 62
     7
  6
CONTINUOUS
  0
LAYER
  2
240
 70
     0
 62
     4
  6
CONTINUOUS
  0
LAYER
  2
DEFPOINTS
 70
     0
 62
     7
  6
CONTINUOUS
  0
LAYER
  2
245
 70
     0
 62
     2
  6
CENTER2
  0
LAYER
  2
241
 70
     0
 62
   211
  6
CONTINUOUS
  0
LAYER
  2
242
 70
     0
 62
     3
  6
CONTINUOUS
  0
LAYER
  2
243
 70
     0
 62
   211
  6
HIDDEN2
  0
LAYER
  2
247
 70
     0
 62
    60
  6
CONTINUOUS
  0
LAYER
  2
250
 70
     0
 62
     3
  6
CONTINUOUS
  0
ENDTAB
  0
TABLE
  2
STYLE
 70
    10
  0
STYLE
  2
STANDARD
 70
     0
 40
0.0
 41
1.0
 50
0.0
 71
     0
 42
3.0
  3
romans.shx
  4
extfont.shx
  0
STYLE
  2
YOKO
 70
     0
 40
0.0
 41
1.0
 50
0.0
 71
     0
 42
3.0
  3
romans.shx
  4
extfont.shx
  0
STYLE
  2

 70
     1
 40
0.0
 41
1.0
 50
0.0
 71
     0
 42
3.0
  3
genltshp.shx
  4

  0
STYLE
  2
ACANSGDT
 70
     0
 40
0.0
 41
1.0
 50
0.0
 71
     0
 42
3.0
  3
amgdt.shx
  4

  0
ENDTAB
  0
TABLE
  2
VIEW
 70
     0
  0
ENDTAB
  0
TABLE
  2
UCS
 70
     0
  0
ENDTAB
  0
TABLE
  2
APPID
 70
    37
  0
APPID
  2
ACAD
 70
     0
  0
APPID
  2
ACADANNOTATIVE
 70
     0
  0
APPID
  2
GLOBAL
 70
     0
  0
APPID
  2
DETAIL
 70
     0
  0
APPID
  2
GRPNAME
 70
     0
  0
APPID
  2
GPARA
 70
     0
  0
APPID
  2
MCAD_NO_VIS
 70
     0
  0
APPID
  2
ACAD_TEMP_GRAPHIC
 70
     0
  0
APPID
  2
ACATTRIBSERVICES
 70
     0
  0
APPID
  2
GENIUS_GENSCREG_15
 70
     0
  0
APPID
  2
GENIUS_GENODEF_13
 70
     0
  0
APPID
  2
GENIUS_GENOBJ-N-SDF_13
 70
     0
  0
APPID
  2
GENIUS_GENREC_14
 70
     0
  0
APPID
  2
GENIUS_GENOBJ-N-REC_13
 70
     0
  0
APPID
  2
GENIUS_GENDIMSH_14
 70
     0
  0
APPID
  2
GENIUS_GENOBJ-N-DIM_13
 70
     0
  0
APPID
  2
GENIUS_GENDIM_13
 70
     0
  0
APPID
  2
GENIUS_GENDTOL_13
 70
     0
  0
APPID
  2
GENIUS_GENOLIS_13
 70
     0
  0
APPID
  2
GENIUS_GENOENT_13
 70
     0
  0
APPID
  2
GENIUS_GENOBJ-F-FEM_13
 70
     0
  0
APPID
  2
GENIUS_GENOREF_13
 70
     0
  0
APPID
  2
GENIUS_GEFFEM_13
 70
     0
  0
APPID
  2
GENIUS_GEFFEMP_13
 70
     0
  0
APPID
  2
AD_DRAW
 70
     0
  0
APPID
  2
DESIGNERASSEMBLIES
 70
     0
  0
APPID
  2
ACADM_DIM_EDIT
 70
     0
  0
APPID
  2
AMDT_DM_ADJ
 70
     0
  0
APPID
  2
ITEMNAME
 70
     0
  0
APPID
  2
GENIUS_GENOBJ-N-FIL_13
 70
     0
  0
APPID
  2
GENIUS_GENFIL_13
 70
     0
  0
APPID
  2
GENIUS_GENOBJ-N-CHA_13
 70
     0
  0
APPID
  2
ACAD_NAV_VCDISPLAY
 70
     0
  0
APPID
  2
ACAD_DSTYLE_DIMJAG
 70
     0
  0
APPID
  2
ACAD_DSTYLE_DIMBREAK
 70
     0
  0
APPID
  2
ACAECLAYERSTANDARD
 70
     0
  0
APPID
  2
ACAD_MLEADERVER
 70
     0
  0
ENDTAB
  0
TABLE
  2
DIMSTYLE
 70
    31
  0
DIMSTYLE
  2
STANDARD
 70
     0
  3

  4

  5

  6

  7

 40
1.0
 41
0.18
 42
0.0625
 43
0.38
 44
0.18
 45
0.0
 46
0.0
 47
0.0
 48
0.0
140
0.18
141
0.09
142
0.0
143
25.399999999999999
144
1.0
145
0.0
146
1.0
147
0.09
 71
     0
 72
     0
 73
     1
 74
     1
 75
     0
 76
     0
 77
     0
 78
     0
170
     0
171
     2
172
     0
173
     0
174
     0
175
     0
176
     0
177
     0
178
     0
  0
DIMSTYLE
  2
BIGT
 70
     0
  3

  4

  5

  6

  7

 40
1.0
 41
2.2299999999999991
 42
0.5
 43
7.0
 44
1.0
 45
0.0
 46
0.0
 47
0.0
 48
0.01
140
2.799999999999998
141
0.0
142
0.0
143
25.399999999999999
144
1.0
145
0.0
146
1.0
147
1.0
 71
     0
 72
     0
 73
     0
 74
     0
 75
     0
 76
     0
 77
     3
 78
     9
170
     0
171
     2
172
     1
173
     0
174
     1
175
     0
176
   256
177
   256
178
    40
  0
DIMSTYLE
  2
AM_ANSI
 70
     0
  3

  4
mm
  5

  6

  7

 40
1.0
 41
0.12
 42
0.05
 43
0.5
 44
0.1
 45
0.0
 46
0.0
 47
0.1
 48
0.1
140
0.12
141
0.0
142
0.0
143
25.399999999999999
144
1.0
145
0.0
146
0.71
147
0.06
 71
     0
 72
     0
 73
     1
 74
     1
 75
     0
 76
     0
 77
     0
 78
     7
170
     0
171
     2
172
     0
173
     0
174
     0
175
     0
176
   256
177
   256
178
     2
  0
DIMSTYLE
  2
AM_ANSI$3
 70
     0
  3

  4
mm
  5

  6

  7

 40
1.0
 41
0.12
 42
0.05
 43
0.5
 44
0.1
 45
0.0
 46
0.0
 47
0.1
 48
0.1
140
0.12
141
0.0
142
0.0
143
25.399999999999999
144
1.0
145
0.0
146
0.71
147
0.06
 71
     0
 72
     0
 73
     1
 74
     1
 75
     0
 76
     0
 77
     0
 78
     7
170
     0
171
     2
172
     0
173
     0
174
     0
175
     0
176
   256
177
   256
178
     2
  0
DIMSTYLE
  2
AM_ANSI$4
 70
     0
  3

  4
mm
  5

  6

  7

 40
1.0
 41
0.12
 42
0.05
 43
0.5
 44
0.1
 45
0.0
 46
0.0
 47
0.1
 48
0.1
140
0.12
141
0.0
142
0.0
143
25.399999999999999
144
1.0
145
0.0
146
0.71
147
0.06
 71
     0
 72
     0
 73
     1
 74
     1
 75
     0
 76
     0
 77
     0
 78
     7
170
     0
171
     2
172
     0
173
     0
174
     0
175
     0
176
   256
177
   256
178
     2
  0
DIMSTYLE
  2
AM_ANSI$7
 70
     0
  3

  4
mm
  5

  6

  7

 40
1.0
 41
0.12
 42
0.05
 43
0.5
 44
0.1
 45
0.0
 46
0.0
 47
0.1
 48
0.1
140
0.12
141
0.0
142
0.0
143
25.399999999999999
144
1.0
145
0.0
146
0.71
147
0.06
 71
     0
 72
     0
 73
     1
 74
     1
 75
     0
 76
     0
 77
     0
 78
     7
170
     0
171
     2
172
     0
173
     0
174
     0
175
     0
176
   256
177
   256
178
     2
  0
DIMSTYLE
  2
AM_ANSI$SF
 70
     0
  3

  4
mm
  5

  6

  7

 40
1.0
 41
0.12
 42
0.05
 43
0.5
 44
0.1
 45
0.0
 46
0.0
 47
0.1
 48
0.1
140
0.12
141
0.0
142
0.0
143
25.399999999999999
144
1.0
145
0.0
146
0.71
147
0.06
 71
     0
 72
     0
 73
     1
 74
     1
 75
     1
 76
     1
 77
     0
 78
     7
170
     0
171
     2
172
     0
173
     0
174
     0
175
     0
176
   256
177
   256
178
     2
  0
DIMSTYLE
  2
AM_ANSI$SH
 70
     0
  3

  4
mm
  5

  6
GENAXEH
  7

 40
1.0
 41
0.12
 42
0.05
 43
0.5
 44
0.1
 45
0.0
 46
0.0
 47
0.1
 48
0.1
140
0.12
141
0.0
142
0.0
143
25.399999999999999
144
1.0
145
0.0
146
0.71
147
0.06
 71
     0
 72
     0
 73
     1
 74
     1
 75
     1
 76
     1
 77
     0
 78
     7
170
     0
171
     2
172
     0
173
     1
174
     0
175
     0
176
   256
177
   256
178
     2
  0
ENDTAB
  0
ENDSEC
  0
SECTION
  2
BLOCKS
  0
BLOCK
  8
0
  2
$MODEL_SPACE
 70
     0
 10
0.0
 20
0.0
 30
0.0
  3
$MODEL_SPACE
  1

  0
ENDBLK
  5
44F1
  8
0
  0
BLOCK
 67
     1
  8
0
  2
$PAPER_SPACE
 70
     0
 10
0.0
 20
0.0
 30
0.0
  3
$PAPER_SPACE
  1

  0
ENDBLK
  5
44ED
 67
     1
  8
0
  0
BLOCK
  8
0
  2
_OPEN
 70
     0
 10
0.0
 20
0.0
 30
0.0
  3
_OPEN
  1

  0
LINE
  5
4388
  8
0
  6
BYBLOCK
 62
     0
 10
-1.0
 20
0.1666666666666666
 30
0.0
 11
0.0
 21
0.0
 31
0.0
  0
LINE
  5
4389
  8
0
  6
BYBLOCK
 62
     0
 10
-1.0
 20
-0.1666666666666666
 30
0.0
 11
0.0
 21
0.0
 31
0.0
  0
LINE
  5
438A
  8
0
  6
BYBLOCK
 62
     0
 10
0.0
 20
0.0
 30
0.0
 11
-1.0
 21
0.0
 31
0.0
  0
ENDBLK
  5
438B
  8
0
  0
BLOCK
  8
0
  2
GENAXEH
 70
     0
 10
0.0
 20
0.0
 30
0.0
  3
GENAXEH
  1

  0
LINE
  5
43C3
  8
0
 10
-1.0
 20
0.0
 30
0.0
 11
1.0
 21
0.0
 31
0.0
  0
ENDBLK
  5
43C4
  8
0
  0
BLOCK
  8
0
  2
_ACMFILLEDHALF
 70
     0
 10
0.0
 20
0.0
 30
0.0
  3
_ACMFILLEDHALF
  1

  0
TRACE
  5
45B1
  8
240
 62
     0
 10
-0.8
 20
0.0
 30
0.0
 11
-1.0
 21
0.166666666
 31
0.0
 12
0.0
 22
0.0
 32
0.0
 13
0.0
 23
0.0
 33
0.0
  0
LINE
  5
45B2
  8
240
 62
     0
 10
-1.0
 20
0.0
 30
0.0
 11
-0.8
 21
0.0
 31
0.0
  0
ENDBLK
  5
45B0
  8
0
  0
ENDSEC
  0
SECTION
  2
ENTITIES
  0
LINE
  5
4229
  8
245
  6
CENTER2
 10
-48.999999999999282
 20
0.0
 30
0.0
 11
76.628983534818303
 21
0.0
 31
0.0
  0
LINE
  5
422A
  8
241
  6
CONTINUOUS
 10
-39.725958279723137
 20
-4.4179999999999993
 30
0.0
 11
-39.725958279723137
 21
4.4179999999999993
 31
0.0
  0
LINE
  5
422B
  8
241
  6
CONTINUOUS
 10
-47.999999999999282
 20
-4.4179999999999993
 30
0.0
 11
-39.725958279723137
 21
-4.4179999999999993
 31
0.0
  0
LINE
  5
422C
  8
241
  6
CONTINUOUS
 10
-47.999999999999282
 20
4.4179999999999993
 30
0.0
 11
-39.725958279723137
 21
4.4179999999999993
 31
0.0
  0
LINE
  5
422D
  8
240
  6
CONTINUOUS
 10
0.0000000000007105
 20
-40.0
 30
0.0
 11
0.0000000000007105
 21
-27.575022188355408
 31
0.0
  0
LINE
  5
422E
  8
240
  6
CONTINUOUS
 10
0.0000000000007105
 20
40.0
 30
0.0
 11
0.0000000000007105
 21
27.57502218835522
 31
0.0
  0
LINE
  5
422F
  8
241
  6
CONTINUOUS
 10
31.17753520777579
 20
40.0
 30
0.0
 11
31.17753520777579
 21
-40.0
 31
0.0
  0
LINE
  5
4230
  8
247
  6
CONTINUOUS
 10
6.000000000000707
 20
-20.250000000069999
 30
0.0
 11
6.000000000000707
 21
-13.557692308029999
 31
0.0
  0
ARC
  5
4231
  8
247
  6
CONTINUOUS
 10
4.250000000070683
 20
-20.250000000069999
 30
0.0
 40
1.7499999999299991
 50
180.0
 51
0.0
  0
ARC
  5
4232
  8
247
  6
CONTINUOUS
 10
4.250000000070683
 20
-13.557692308029999
 30
0.0
 40
1.7499999999299991
 50
0.0
 51
180.0
  0
LINE
  5
4233
  8
247
  6
CONTINUOUS
 10
2.5000000001407141
 20
-19.384615384720011
 30
0.0
 11
5.5000000000207203
 21
-20.244851541962021
 31
0.0
  0
LINE
  5
4234
  8
247
  6
CONTINUOUS
 10
3.9230769231607181
 20
-18.48498381833582
 30
0.0
 11
3.9230769231607181
 21
-19.792676125975809
 31
0.0
  0
ARC
  5
4235
  8
247
  6
CONTINUOUS
 10
3.049598667703691
 20
-18.145143816089782
 30
0.0
 40
0.5538165441895349
 50
72.997889675292001
 51
172.924166218512
  0
ARC
  5
4236
  8
247
  6
CONTINUOUS
 10
2.9360330444664831
 20
-18.566878323028789
 30
0.0
 40
0.9904354236226808
 50
4.742936852200585
 51
73.849226273266424
1001
GENIUS_GENOBJ-N-FIL_13
1002
{
1000
OWNER
1000
GEN
1002
}
1001
GENIUS_GENODEF_13
1002
{
1000
HIER
1070
     0
1002
}
1002
{
1000
MANEDIT
1070
     0
1002
}
1002
{
1000
NOSEL
1070
     0
1002
}
1002
{
1000
BEHIND
1070
     0
1002
}
1002
{
1000
OTHER
1070
     0
1002
}
1002
{
1000
REACTOR
1002
}
  0
LINE
  5
4237
  8
247
  6
CONTINUOUS
 10
5.5000000000207203
 20
-18.937159234321989
 30
0.0
 11
5.5000000000207203
 21
-20.244851541962021
 31
0.0
  0
LINE
  5
4238
  8
247
  6
CONTINUOUS
 10
2.5000000001407141
 20
-19.384615384720011
 30
0.0
 11
2.5000000001407141
 21
-18.076923077079972
 31
0.0
  0
ARC
  5
4239
  8
247
  6
CONTINUOUS
 10
4.4820242326662481
 20
-18.56091963654697
 30
0.0
 40
0.5640818586791229
 50
65.990941652528889
 51
172.26344345906909
  0
ARC
  5
423A
  8
247
  6
CONTINUOUS
 10
4.4874290391872762
 20
-19.03826268534706
 30
0.0
 40
1.0176059446230981
 50
5.7019851642580841
 51
77.277338436822191
1001
GENIUS_GENOBJ-N-FIL_13
1002
{
1000
OWNER
1000
GEN
1002
}
1001
GENIUS_GENODEF_13
1002
{
1000
HIER
1070
     0
1002
}
1002
{
1000
MANEDIT
1070
     0
1002
}
1002
{
1000
NOSEL
1070
     0
1002
}
1002
{
1000
BEHIND
1070
     0
1002
}
1002
{
1000
OTHER
1070
     0
1002
}
1002
{
1000
REACTOR
1002
}
  0
LINE
  5
423B
  8
247
  6
CONTINUOUS
 10
5.5000000000207203
 20
-17.283313080541991
 30
0.0
 11
2.5000000001407141
 21
-16.423076923300009
 31
0.0
  0
LINE
  5
423C
  8
247
  6
CONTINUOUS
 10
2.5000000001407141
 20
-14.00000000032
 30
0.0
 11
2.5000000001407141
 21
-14.565736619456599
 31
0.0
  0
LINE
  5
423D
  8
247
  6
CONTINUOUS
 10
5.5000000000207203
 20
-15.461538461799989
 30
0.0
 11
5.5000000000207203
 21
-14.846153846440011
 31
0.0
  0
ARC
  5
423E
  8
247
  6
CONTINUOUS
 10
4.58328513597408
 20
-13.708791209122859
 30
0.0
 40
2.2526500823422122
 50
202.35948814152769
 51
254.99324854284609
  0
ARC
  5
423F
  8
247
  6
CONTINUOUS
 10
3.3083126551952362
 20
-14.37406947921323
 30
0.0
 40
0.8906723995727782
 50
94.994589319075374
 51
155.1663289573039
1001
GENIUS_GENOBJ-N-FIL_13
1002
{
1000
OWNER
1000
GEN
1002
}
1001
GENIUS_GENODEF_13
1002
{
1000
HIER
1070
     0
1002
}
1002
{
1000
MANEDIT
1070
     0
1002
}
1002
{
1000
NOSEL
1070
     0
1002
}
1002
{
1000
BEHIND
1070
     0
1002
}
1002
{
1000
OTHER
1070
     0
1002
}
1002
{
1000
REACTOR
1002
}
  0
ARC
  5
4240
  8
247
  6
CONTINUOUS
 10
4.1601458886684952
 20
-15.22645888621258
 30
0.0
 40
1.392781735586712
 50
15.8460965557808
 51
82.325137004169122
  0
ARC
  5
4241
  8
247
  6
CONTINUOUS
 10
4.459243431527991
 20
-14.64221272584035
 30
0.0
 40
1.324563662670287
 50
249.7136016704969
 51
321.78874565640928
1001
GENIUS_GENOBJ-N-FIL_13
1002
{
1000
OWNER
1000
GEN
1002
}
1001
GENIUS_GENODEF_13
1002
{
1000
HIER
1070
     0
1002
}
1002
{
1000
MANEDIT
1070
     0
1002
}
1002
{
1000
NOSEL
1070
     0
1002
}
1002
{
1000
BEHIND
1070
     0
1002
}
1002
{
1000
OTHER
1070
     0
1002
}
1002
{
1000
REACTOR
1002
}
  0
LINE
  5
4242
  8
247
  6
CONTINUOUS
 10
4.3461538462206866
 20
-14.53846153876
 30
0.0
 11
4.3461538462206866
 21
-13.84615384648
 31
0.0
  0
LINE
  5
4243
  8
247
  6
CONTINUOUS
 10
2.500000000140687
 20
-20.250000000069999
 30
0.0
 11
2.500000000140687
 21
-19.576923077020009
 31
0.0
  0
LINE
  5
4244
  8
240
  6
CONTINUOUS
 10
-47.975958279723137
 20
-26.375703820393401
 30
0.0
 11
-47.975958279723137
 21
26.37570382039306
 31
0.0
1001
GRPNAME
1000
PASTMD0U
  0
LINE
  5
4245
  8
240
  6
CONTINUOUS
 10
-0.0000000000007105
 20
-27.57502218835538
 30
0.0
 11
-47.975958279723137
 21
-26.375703820393401
 31
0.0
  0
LINE
  5
4246
  8
240
  6
CONTINUOUS
 10
-0.0000000000007105
 20
27.575022188355039
 30
0.0
 11
-47.975958279723137
 21
26.37570382039306
 31
0.0
  0
LINE
  5
4247
  8
241
  6
CONTINUOUS
 10
0.0000000000007105
 20
27.57502218835522
 30
0.0
 11
-0.0000000000007105
 21
-27.57502218835538
 31
0.0
  0
TEXT
  5
4248
  8
250
  6
CONTINUOUS
 10
-38.771796381152967
 20
-36.0023988214895
 30
0.0
 40
2.799999999999998
  1
C8
  7
YOKO
1001
ITEMNAME
1000
LNSP3
  0
LINE
  5
4249
  8
250
  6
CONTINUOUS
 10
-26.38864390603052
 20
-28.512949272158931
 30
0.0
 11
-25.099968771152959
 21
-26.94756513148949
 31
0.0
  0
LINE
  5
424A
  8
250
  6
CONTINUOUS
 10
-25.811293636901119
 20
-28.846282605596549
 30
0.0
 11
-25.099968771152959
 21
-26.94756513148949
 31
0.0
  0
LINE
  5
424B
  8
250
  6
CONTINUOUS
 10
-25.099968771152959
 20
-26.94756513148949
 30
0.0
 11
-26.099968771465829
 21
-28.679615938877738
 31
0.0
  0
LINE
  5
424C
  8
250
  6
CONTINUOUS
 10
-26.099968771465829
 20
-28.679615938877738
 30
0.0
 11
-30.90512971115297
 21
-37.002398821489493
 31
0.0
1001
ACAD
1000
DSTYLE
1002
{
1070
     6
1000
OPEN
1070
    41
1040
2.0
1070
    42
1040
2.0
1070
    44
1040
2.0
1070
   140
1040
4.0
1070
   343
1005
0
1002
}
  0
LINE
  5
424D
  8
250
  6
CONTINUOUS
 10
-30.90512971115297
 20
-37.002398821489493
 30
0.0
 11
-41.171796381152937
 21
-37.002398821489493
 31
0.0
1001
ITEMNAME
1000
LNSP2
  0
LINE
  5
424E
  8
240
  6
CONTINUOUS
 10
0.0000000000007105
 20
40.0
 30
0.0
 11
31.17753520777579
 21
40.0
 31
0.0
  0
LINE
  5
424F
  8
240
  6
CONTINUOUS
 10
0.0000000000007105
 20
-40.0
 30
0.0
 11
31.177535207775769
 21
-40.0
 31
0.0
  0
LINE
  5
4250
  8
241
  6
CONTINUOUS
 10
9.9499999999999975
 20
11.77167262
 30
0.0
 11
9.9499999999999975
 21
38.22077680999999
 31
0.0
1001
GRPNAME
1000
PASTMD1I
  0
LINE
  5
4251
  8
241
  6
CONTINUOUS
 10
14.05000000000002
 20
11.77167262
 30
0.0
 11
14.05000000000002
 21
38.22077680999999
 31
0.0
1001
GRPNAME
1000
PASTMD1I
  0
LINE
  5
4252
  8
241
  6
CONTINUOUS
 10
9.9499999999999975
 20
11.77167262
 30
0.0
 11
14.05000000000002
 21
11.77167262
 31
0.0
1001
GRPNAME
1000
PASTMD1I
  0
LINE
  5
4253
  8
241
  6
CONTINUOUS
 10
9.9499999999999975
 20
38.22077680999999
 30
0.0
 11
14.05000000000002
 21
38.22077680999999
 31
0.0
1001
GRPNAME
1000
PASTMD1I
  0
ARC
  5
4254
  8
241
  6
CONTINUOUS
 10
-19.247999627147941
 20
24.996224715
 30
0.0
 40
35.82799962714796
 50
338.33912465138178
 51
21.660875348618202
  0
ARC
  5
4255
  8
241
  6
CONTINUOUS
 10
43.247999627147912
 20
24.996224715
 30
0.0
 40
35.827999627147932
 50
158.33912465138181
 51
201.66087534861811
  0
LINE
  5
4256
  8
241
  6
CONTINUOUS
 10
9.9499999999999975
 20
-11.77167262
 30
0.0
 11
9.9499999999999975
 21
-38.22077680999999
 31
0.0
1001
GRPNAME
1000
PASTMD1I
  0
LINE
  5
4257
  8
241
  6
CONTINUOUS
 10
14.05000000000002
 20
-11.77167262
 30
0.0
 11
14.05000000000002
 21
-38.22077680999999
 31
0.0
1001
GRPNAME
1000
PASTMD1I
  0
LINE
  5
4258
  8
241
  6
CONTINUOUS
 10
9.9499999999999975
 20
-11.77167262
 30
0.0
 11
14.05000000000002
 21
-11.77167262
 31
0.0
1001
GRPNAME
1000
PASTMD1I
  0
LINE
  5
4259
  8
241
  6
CONTINUOUS
 10
9.9499999999999975
 20
-38.22077680999999
 30
0.0
 11
14.05000000000002
 21
-38.22077680999999
 31
0.0
1001
GRPNAME
1000
PASTMD1I
  0
ARC
  5
425A
  8
241
  6
CONTINUOUS
 10
-19.247999627147941
 20
-24.996224715
 30
0.0
 40
35.82799962714796
 50
338.33912465138178
 51
21.660875348618202
  0
ARC
  5
425B
  8
241
  6
CONTINUOUS
 10
43.247999627147912
 20
-24.996224715
 30
0.0
 40
35.827999627147932
 50
158.33912465138181
 51
201.66087534861811
  0
ARC
  5
425C
  8
241
  6
CONTINUOUS
 10
-42.514693471448112
 20
0.0
 30
0.0
 40
5.2245351917242679
 50
302.26098869277632
 51
57.739011307223699
  0
LINE
  5
426D
  8
240
  6
CONTINUOUS
 10
34.064286553723989
 20
-45.000000000000021
 30
0.0
 11
73.0
 21
-45.000000000000021
 31
0.0
1001
GRPNAME
1000
PASTMD1J
  0
LINE
  5
426E
  8
240
  6
CONTINUOUS
 10
73.0
 20
45.000000000000021
 30
0.0
 11
34.064286553723932
 21
45.000000000000021
 31
0.0
  0
LINE
  5
4270
  8
240
  6
CONTINUOUS
 10
34.064286553723989
 20
-45.000000000000021
 30
0.0
 11
31.177535207775769
 21
-40.0
 31
0.0
  0
LINE
  5
4271
  8
240
  6
CONTINUOUS
 10
31.17753520777579
 20
40.0
 30
0.0
 11
34.064286553723932
 21
45.000000000000021
 31
0.0
  0
LINE
  5
4272
  8
240
  6
CONTINUOUS
 10
73.0
 20
-45.000000000000021
 30
0.0
 11
73.0
 21
45.000000000000021
 31
0.0
1001
GRPNAME
1000
PASTMD1J
  0
LINE
  5
4273
  8
241
  6
CONTINUOUS
 10
34.064286553723932
 20
-45.000000000000021
 30
0.0
 11
34.064286553723683
 21
44.999999999999588
 31
0.0
  0
LINE
  5
42A1
  8
243
  6
HIDDEN2
 10
73.0
 20
23.0
 30
0.0
 11
21.0
 21
23.0
 31
0.0
  0
LINE
  5
42A2
  8
243
  6
HIDDEN2
 10
73.0
 20
-23.0
 30
0.0
 11
21.0
 21
-23.0
 31
0.0
  0
LINE
  5
42A3
  8
250
  6
CONTINUOUS
 10
73.499999999999986
 20
-45.0
 30
0.0
 11
89.0
 21
-45.0
 31
0.0
  0
LINE
  5
42A4
  8
250
  6
CONTINUOUS
 10
73.499999999999986
 20
45.0
 30
0.0
 11
89.0
 21
45.0
 31
0.0
  0
LINE
  5
42A5
  8
250
  6
CONTINUOUS
 10
88.0
 20
-42.770000000000003
 30
0.0
 11
88.0
 21
42.770000000000003
 31
0.0
  0
LINE
  5
42A6
  8
250
  6
CONTINUOUS
 10
88.371666666666584
 20
-42.770000000000003
 30
0.0
 11
88.0
 21
-45.0
 31
0.0
  0
LINE
  5
42A7
  8
250
  6
CONTINUOUS
 10
87.628333333333316
 20
-42.770000000000003
 30
0.0
 11
88.0
 21
-45.0
 31
0.0
  0
LINE
  5
42A8
  8
250
  6
CONTINUOUS
 10
88.0
 20
-45.0
 30
0.0
 11
88.0
 21
-42.770000000000003
 31
0.0
  0
LINE
  5
42A9
  8
250
  6
CONTINUOUS
 10
87.628333333333316
 20
42.770000000000003
 30
0.0
 11
88.0
 21
45.0
 31
0.0
  0
LINE
  5
42AA
  8
250
  6
CONTINUOUS
 10
88.371666666666584
 20
42.770000000000003
 30
0.0
 11
88.0
 21
45.0
 31
0.0
  0
LINE
  5
42AB
  8
250
  6
CONTINUOUS
 10
88.0
 20
45.0
 30
0.0
 11
88.0
 21
42.770000000000003
 31
0.0
  0
TEXT
  5
42AC
  8
250
  6
CONTINUOUS
 10
87.0
 20
-3.9333333333333309
 30
0.0
 40
2.799999999999998
  1
\U+220590
 50
90.0
1001
ACAD
1000
MTEXTBEGIN
1070
    73
1070
     1
1070
    44
1040
1.0
1070
    74
1070
     0
1000
MTEXTEND
  0
LINE
  5
42AD
  8
250
  6
CONTINUOUS
 10
67.297850684882675
 20
46.745403317262792
 30
0.0
 11
65.860977910000003
 21
44.99999999999995
 31
0.0
  0
LINE
  5
42AE
  8
250
  6
CONTINUOUS
 10
66.654105134695655
 20
47.117069983859167
 30
0.0
 11
65.860977910000003
 21
44.99999999999995
 31
0.0
  0
LINE
  5
42AF
  8
250
  6
CONTINUOUS
 10
65.860977910000003
 20
44.99999999999995
 30
0.0
 11
66.975977909789165
 21
46.93123665056099
 31
0.0
  0
POLYLINE
  5
42B0
  8
250
  6
CONTINUOUS
 66
     1
 10
0.0
 20
0.0
 30
0.0
1001
ACAD
1000
DSTYLE
1002
{
1070
     6
1000
OPEN
1070
   343
1005
0
1002
}
  0
VERTEX
  5
42B1
  8
250
  6
CONTINUOUS
 10
66.975977909789165
 20
46.93123665056099
 30
0.0
  0
VERTEX
  5
42B2
  8
250
  6
CONTINUOUS
 10
78.662758306691657
 20
67.173334079999961
 30
0.0
  0
VERTEX
  5
42B3
  8
250
  6
CONTINUOUS
 10
88.143860355627027
 20
67.173334079999961
 30
0.0
  0
SEQEND
  5
42B4
  8
250
  6
CONTINUOUS
  0
TEXT
  5
42B5
  8
250
  6
CONTINUOUS
 10
79.675401710454238
 20
68.173334079999961
 30
0.0
 40
2.799999999999998
  1
CK7
  7
YOKO
1001
ITEMNAME
1000
LNSP3
1001
ACAD
1000
MTEXTBEGIN
1070
    73
1070
     1
1070
    44
1040
1.0
1070
    74
1070
     0
1000
MTEXTEND
1000
MTEXTBEGIN
1070
    73
1070
     1
1070
    44
1040
1.0
1070
    74
1070
     0
1000
MTEXTEND
  0
CIRCLE
  5
42B6
  8
241
  6
CONTINUOUS
 10
54.0
 20
0.0
 30
0.0
 40
10.0
  0
CIRCLE
  5
42B7
  8
242
  6
CONTINUOUS
 10
54.0
 20
0.0
 30
0.0
 40
9.25
  0
LINE
  5
42B8
  8
245
  6
CENTER2
 10
54.0
 20
11.0
 30
0.0
 11
54.0
 21
-11.0
 31
0.0
  0
LINE
  5
42B9
  8
241
  6
CONTINUOUS
 10
59.0
 20
2.8867513459481682
 30
0.0
 11
53.999999999999979
 21
5.773502691896196
 31
0.0
1001
GRPNAME
1000
00000001
  0
LINE
  5
42BA
  8
241
  6
CONTINUOUS
 10
59.0
 20
-2.8867513459481402
 30
0.0
 11
59.0
 21
2.8867513459481682
 31
0.0
1001
GRPNAME
1000
00000001
  0
LINE
  5
42BB
  8
241
  6
CONTINUOUS
 10
53.999999999999972
 20
-5.773502691896196
 30
0.0
 11
59.0
 21
-2.8867513459481402
 31
0.0
1001
GRPNAME
1000
00000001
  0
LINE
  5
42BC
  8
241
  6
CONTINUOUS
 10
53.999999999999972
 20
-5.773502691896196
 30
0.0
 11
49.0
 21
-2.8867513459481682
 31
0.0
1001
GRPNAME
1000
00000001
  0
LINE
  5
42BD
  8
241
  6
CONTINUOUS
 10
49.0
 20
-2.8867513459481682
 30
0.0
 11
49.0
 21
2.8867513459481962
 31
0.0
1001
GRPNAME
1000
00000001
  0
LINE
  5
42BE
  8
241
  6
CONTINUOUS
 10
49.0
 20
2.8867513459481962
 30
0.0
 11
53.999999999999979
 21
5.773502691896196
 31
0.0
1001
GRPNAME
1000
00000001
  0
LINE
  5
42D1
  8
250
  6
CONTINUOUS
 10
0.0
 20
40.492499999999993
 30
0.0
 11
0.0
 21
64.0
 31
0.0
  0
LINE
  5
42D2
  8
250
  6
CONTINUOUS
 10
73.0
 20
45.499999999999993
 30
0.0
 11
73.0
 21
64.0
 31
0.0
  0
LINE
  5
42D3
  8
250
  6
CONTINUOUS
 10
2.2299999999999991
 20
63.0
 30
0.0
 11
70.769999999999996
 21
63.0
 31
0.0
  0
LINE
  5
42D4
  8
250
  6
CONTINUOUS
 10
2.2299999999999991
 20
62.62833333333333
 30
0.0
 11
0.0
 21
63.0
 31
0.0
  0
LINE
  5
42D5
  8
250
  6
CONTINUOUS
 10
2.2299999999999991
 20
63.37166666666667
 30
0.0
 11
0.0
 21
63.0
 31
0.0
  0
LINE
  5
42D6
  8
250
  6
CONTINUOUS
 10
0.0
 20
63.0
 30
0.0
 11
2.2299999999999991
 21
63.0
 31
0.0
  0
LINE
  5
42D7
  8
250
  6
CONTINUOUS
 10
70.769999999999996
 20
63.37166666666667
 30
0.0
 11
73.0
 21
63.0
 31
0.0
  0
LINE
  5
42D8
  8
250
  6
CONTINUOUS
 10
70.769999999999996
 20
62.62833333333333
 30
0.0
 11
73.0
 21
63.0
 31
0.0
  0
LINE
  5
42D9
  8
250
  6
CONTINUOUS
 10
73.0
 20
63.0
 30
0.0
 11
70.769999999999996
 21
63.0
 31
0.0
  0
TEXT
  5
42DA
  8
250
  6
CONTINUOUS
 10
34.60168334285715
 20
64.0
 30
0.0
 40
3.0
  1
73
1001
ACAD
1000
MTEXTBEGIN
1070
    73
1070
     1
1070
    44
1040
1.0
1070
    74
1070
     0
1000
MTEXTEND
  0
TEXT
  5
42DB
  8
241
  6
CONTINUOUS
 10
-48.0
 20
77.0
 30
0.0
 40
5.0
  1
C8-CKB7-73
  7
YOKO
 11
-48.0
 21
77.0
 31
0.0
 73
     1
  0
LINE
  5
47C4
  8
245
  6
CENTER2
 10
-90.999999999999986
 20
29.500000000000099
 30
0.0
 11
-91.0
 21
-29.499999999999901
 31
0.0
  0
LINE
  5
47C5
  8
245
  6
CENTER2
 10
-123.2924015154241
 20
0.0000000000000995
 30
0.0
 11
-59.073013977967022
 21
0.0000000000000995
 31
0.0
  0
ARC
  5
47C6
  8
241
  6
CONTINUOUS
 10
-120.2
 20
0.0000000000000995
 30
0.0
 40
7.0
 50
305.4441780804321
 51
55.022492573911741
  0
ARC
  5
47C7
  8
241
  6
CONTINUOUS
 10
-57.789999999999992
 20
0.0000000000000711
 30
0.0
 40
7.0
 50
131.38246406869931
 51
228.29366482707141
  0
CIRCLE
  5
47C8
  8
241
  6
CONTINUOUS
 10
-91.000000000000881
 20
0.0000000000006111
 30
0.0
 40
9.0500000000000007
  0
CIRCLE
  5
47C9
  8
241
  6
CONTINUOUS
 10
-91.000000000000881
 20
0.0000000000006111
 30
0.0
 40
16.0
  0
CIRCLE
  5
47CA
  8
242
  6
CONTINUOUS
 10
-91.000000000000881
 20
0.0000000000006111
 30
0.0
 40
10.0
  0
POLYLINE
  5
47CB
  8
240
 66
     1
 10
0.0
 20
0.0
 30
0.0
 70
     8
  0
VERTEX
  5
47CC
  8
240
 10
-78.25
 20
22.083600000000001
 30
0.0
 70
    32
  0
VERTEX
  5
47CD
  8
240
 10
-77.896500000000003
 20
21.880500000000001
 30
0.0
 70
    32
  0
VERTEX
  5
47CE
  8
240
 10
-77.545000000000002
 20
21.674399999999999
 30
0.0
 70
    32
  0
VERTEX
  5
47CF
  8
240
 10
-77.195499999999996
 20
21.465599999999998
 30
0.0
 70
    32
  0
VERTEX
  5
47D0
  8
240
 10
-76.848200000000006
 20
21.254000000000001
 30
0.0
 70
    32
  0
VERTEX
  5
47D1
  8
240
 10
-76.502899999999997
 20
21.0396
 30
0.0
 70
    32
  0
VERTEX
  5
47D2
  8
240
 10
-76.159999999999997
 20
20.822500000000002
 30
0.0
 70
    32
  0
VERTEX
  5
47D3
  8
240
 10
-75.819299999999984
 20
20.602799999999998
 30
0.0
 70
    32
  0
VERTEX
  5
47D4
  8
240
 10
-75.480900000000005
 20
20.380400000000002
 30
0.0
 70
    32
  0
VERTEX
  5
47D5
  8
240
 10
-75.144999999999996
 20
20.1555
 30
0.0
 70
    32
  0
VERTEX
  5
47D6
  8
240
 10
-74.811599999999999
 20
19.928000000000001
 30
0.0
 70
    32
  0
VERTEX
  5
47D7
  8
240
 10
-74.480699999999999
 20
19.698
 30
0.0
 70
    32
  0
VERTEX
  5
47D8
  8
240
 10
-74.1524
 20
19.465399999999999
 30
0.0
 70
    32
  0
VERTEX
  5
47D9
  8
240
 10
-73.826800000000006
 20
19.230499999999999
 30
0.0
 70
    32
  0
VERTEX
  5
47DA
  8
240
 10
-73.504000000000005
 20
18.993099999999998
 30
0.0
 70
    32
  0
VERTEX
  5
47DB
  8
240
 10
-73.183899999999994
 20
18.753399999999999
 30
0.0
 70
    32
  0
VERTEX
  5
47DC
  8
240
 10
-72.866799999999998
 20
18.511299999999999
 30
0.0
 70
    32
  0
VERTEX
  5
47DD
  8
240
 10
-72.552499999999995
 20
18.2669
 30
0.0
 70
    32
  0
VERTEX
  5
47DE
  8
240
 10
-72.241299999999995
 20
18.020299999999999
 30
0.0
 70
    32
  0
VERTEX
  5
47DF
  8
240
 10
-71.933099999999996
 20
17.7714
 30
0.0
 70
    32
  0
VERTEX
  5
47E0
  8
240
 10
-71.628100000000003
 20
17.520399999999999
 30
0.0
 70
    32
  0
VERTEX
  5
47E1
  8
240
 10
-71.326300000000003
 20
17.267199999999999
 30
0.0
 70
    32
  0
VERTEX
  5
47E2
  8
240
 10
-71.027699999999996
 20
17.011900000000001
 30
0.0
 70
    32
  0
VERTEX
  5
47E3
  8
240
 10
-70.732500000000002
 20
16.7545
 30
0.0
 70
    32
  0
VERTEX
  5
47E4
  8
240
 10
-70.440600000000003
 20
16.495000000000001
 30
0.0
 70
    32
  0
VERTEX
  5
47E5
  8
240
 10
-70.152199999999993
 20
16.233599999999999
 30
0.0
 70
    32
  0
VERTEX
  5
47E6
  8
240
 10
-69.8673
 20
15.9702
 30
0.0
 70
    32
  0
VERTEX
  5
47E7
  8
240
 10
-69.585999999999999
 20
15.704800000000001
 30
0.0
 70
    32
  0
VERTEX
  5
47E8
  8
240
 10
-69.308400000000006
 20
15.4376
 30
0.0
 70
    32
  0
VERTEX
  5
47E9
  8
240
 10
-69.034499999999994
 20
15.1685
 30
0.0
 70
    32
  0
VERTEX
  5
47EA
  8
240
 10
-68.764300000000006
 20
14.897600000000001
 30
0.0
 70
    32
  0
VERTEX
  5
47EB
  8
240
 10
-68.498000000000005
 20
14.6249
 30
0.0
 70
    32
  0
VERTEX
  5
47EC
  8
240
 10
-68.235600000000005
 20
14.3505
 30
0.0
 70
    32
  0
VERTEX
  5
47ED
  8
240
 10
-67.977099999999993
 20
14.074299999999999
 30
0.0
 70
    32
  0
VERTEX
  5
47EE
  8
240
 10
-67.722700000000003
 20
13.7965
 30
0.0
 70
    32
  0
VERTEX
  5
47EF
  8
240
 10
-67.472399999999993
 20
13.516999999999999
 30
0.0
 70
    32
  0
VERTEX
  5
47F0
  8
240
 10
-67.226299999999995
 20
13.235900000000001
 30
0.0
 70
    32
  0
VERTEX
  5
47F1
  8
240
 10
-66.984399999999994
 20
12.9533
 30
0.0
 70
    32
  0
VERTEX
  5
47F2
  8
240
 10
-66.746799999999993
 20
12.6692
 30
0.0
 70
    32
  0
VERTEX
  5
47F3
  8
240
 10
-66.513599999999997
 20
12.3835
 30
0.0
 70
    32
  0
VERTEX
  5
47F4
  8
240
 10
-66.284700000000001
 20
12.096399999999999
 30
0.0
 70
    32
  0
VERTEX
  5
47F5
  8
240
 10
-66.060400000000001
 20
11.8079
 30
0.0
 70
    32
  0
VERTEX
  5
47F6
  8
240
 10
-65.840599999999995
 20
11.518000000000001
 30
0.0
 70
    32
  0
VERTEX
  5
47F7
  8
240
 10
-65.625500000000002
 20
11.226699999999999
 30
0.0
 70
    32
  0
VERTEX
  5
47F8
  8
240
 10
-65.415000000000006
 20
10.934200000000001
 30
0.0
 70
    32
  0
VERTEX
  5
47F9
  8
240
 10
-65.209199999999996
 20
10.6404
 30
0.0
 70
    32
  0
VERTEX
  5
47FA
  8
240
 10
-65.008300000000006
 20
10.3453
 30
0.0
 70
    32
  0
VERTEX
  5
47FB
  8
240
 10
-64.812299999999993
 20
10.049099999999999
 30
0.0
 70
    32
  0
VERTEX
  5
47FC
  8
240
 10
-64.621200000000002
 20
9.7516699999999972
 30
0.0
 70
    32
  0
VERTEX
  5
47FD
  8
240
 10
-64.435100000000006
 20
9.4531500000000008
 30
0.0
 70
    32
  0
VERTEX
  5
47FE
  8
240
 10
-64.254000000000005
 20
9.1535299999999982
 30
0.0
 70
    32
  0
VERTEX
  5
47FF
  8
240
 10
-64.078199999999995
 20
8.8528699999999994
 30
0.0
 70
    32
  0
VERTEX
  5
4800
  8
240
 10
-63.907499999999999
 20
8.5511900000000001
 30
0.0
 70
    32
  0
VERTEX
  5
4801
  8
240
 10
-63.741999999999997
 20
8.2485400000000002
 30
0.0
 70
    32
  0
VERTEX
  5
4802
  8
240
 10
-63.581899999999997
 20
7.9449500000000004
 30
0.0
 70
    32
  0
VERTEX
  5
4803
  8
240
 10
-63.427199999999992
 20
7.64046
 30
0.0
 70
    32
  0
VERTEX
  5
4804
  8
240
 10
-63.277999999999992
 20
7.3350999999999988
 30
0.0
 70
    32
  0
VERTEX
  5
4805
  8
240
 10
-63.1342
 20
7.0289099999999998
 30
0.0
 70
    32
  0
VERTEX
  5
4806
  8
240
 10
-62.996099999999998
 20
6.7219300000000004
 30
0.0
 70
    32
  0
VERTEX
  5
4807
  8
240
 10
-62.863599999999998
 20
6.4142000000000001
 30
0.0
 70
    32
  0
VERTEX
  5
4808
  8
240
 10
-62.736899999999999
 20
6.1057499999999987
 30
0.0
 70
    32
  0
VERTEX
  5
4809
  8
240
 10
-62.615900000000003
 20
5.7966100000000003
 30
0.0
 70
    32
  0
VERTEX
  5
480A
  8
240
 10
-62.500700000000002
 20
5.4868300000000003
 30
0.0
 70
    32
  0
VERTEX
  5
480B
  8
240
 10
-62.391500000000001
 20
5.1764499999999991
 30
0.0
 70
    32
  0
VERTEX
  5
480C
  8
240
 10
-62.288200000000003
 20
4.8654900000000003
 30
0.0
 70
    32
  0
VERTEX
  5
480D
  8
240
 10
-62.191000000000003
 20
4.5540000000000003
 30
0.0
 70
    32
  0
VERTEX
  5
480E
  8
240
 10
-62.099899999999998
 20
4.2420099999999987
 30
0.0
 70
    32
  0
VERTEX
  5
480F
  8
240
 10
-62.015000000000001
 20
3.9295599999999999
 30
0.0
 70
    32
  0
VERTEX
  5
4810
  8
240
 10
-61.936199999999999
 20
3.6166800000000001
 30
0.0
 70
    32
  0
VERTEX
  5
4811
  8
240
 10
-61.863799999999991
 20
3.3034199999999991
 30
0.0
 70
    32
  0
VERTEX
  5
4812
  8
240
 10
-61.797800000000002
 20
2.9897999999999989
 30
0.0
 70
    32
  0
VERTEX
  5
4813
  8
240
 10
-61.738199999999999
 20
2.6758700000000002
 30
0.0
 70
    32
  0
VERTEX
  5
4814
  8
240
 10
-61.685000000000002
 20
2.3616700000000002
 30
0.0
 70
    32
  0
VERTEX
  5
4815
  8
240
 10
-61.638399999999997
 20
2.0472199999999998
 30
0.0
 70
    32
  0
VERTEX
  5
4816
  8
240
 10
-61.598500000000001
 20
1.7325699999999999
 30
0.0
 70
    32
  0
VERTEX
  5
4817
  8
240
 10
-61.565199999999997
 20
1.4177599999999999
 30
0.0
 70
    32
  0
VERTEX
  5
4818
  8
240
 10
-61.538699999999999
 20
1.1028100000000001
 30
0.0
 70
    32
  0
VERTEX
  5
4819
  8
240
 10
-61.518999999999998
 20
0.7877690000000001
 30
0.0
 70
    32
  0
VERTEX
  5
481A
  8
240
 10
-61.506199999999993
 20
0.4726720000000001
 30
0.0
 70
    32
  0
VERTEX
  5
481B
  8
240
 10
-61.500300000000003
 20
0.157555
 30
0.0
 70
    32
  0
VERTEX
  5
481C
  8
240
 10
-61.501399999999997
 20
-0.157546
 30
0.0
 70
    32
  0
VERTEX
  5
481D
  8
240
 10
-61.509599999999999
 20
-0.472595
 30
0.0
 70
    32
  0
VERTEX
  5
481E
  8
240
 10
-61.524700000000003
 20
-0.787557
 30
0.0
 70
    32
  0
VERTEX
  5
481F
  8
240
 10
-61.546599999999991
 20
-1.1024
 30
0.0
 70
    32
  0
VERTEX
  5
4820
  8
240
 10
-61.575400000000002
 20
-1.4170899999999991
 30
0.0
 70
    32
  0
VERTEX
  5
4821
  8
240
 10
-61.610900000000001
 20
-1.73159
 30
0.0
 70
    32
  0
VERTEX
  5
4822
  8
240
 10
-61.652999999999999
 20
-2.0458599999999989
 30
0.0
 70
    32
  0
VERTEX
  5
4823
  8
240
 10
-61.701799999999999
 20
-2.3598799999999991
 30
0.0
 70
    32
  0
VERTEX
  5
4824
  8
240
 10
-61.757100000000001
 20
-2.67361
 30
0.0
 70
    32
  0
VERTEX
  5
4825
  8
240
 10
-61.818899999999999
 20
-2.9870099999999988
 30
0.0
 70
    32
  0
VERTEX
  5
4826
  8
240
 10
-61.887099999999997
 20
-3.3000599999999989
 30
0.0
 70
    32
  0
VERTEX
  5
4827
  8
240
 10
-61.9617
 20
-3.612709999999999
 30
0.0
 70
    32
  0
VERTEX
  5
4828
  8
240
 10
-62.042499999999997
 20
-3.9249299999999998
 30
0.0
 70
    32
  0
VERTEX
  5
4829
  8
240
 10
-62.1295
 20
-4.2366900000000003
 30
0.0
 70
    32
  0
VERTEX
  5
482A
  8
240
 10
-62.222700000000003
 20
-4.5479599999999989
 30
0.0
 70
    32
  0
VERTEX
  5
482B
  8
240
 10
-62.321899999999999
 20
-4.8586999999999989
 30
0.0
 70
    32
  0
VERTEX
  5
482C
  8
240
 10
-62.427199999999999
 20
-5.1688700000000001
 30
0.0
 70
    32
  0
VERTEX
  5
482D
  8
240
 10
-62.5383
 20
-5.4784499999999987
 30
0.0
 70
    32
  0
VERTEX
  5
482E
  8
240
 10
-62.6554
 20
-5.7873900000000003
 30
0.0
 70
    32
  0
VERTEX
  5
482F
  8
240
 10
-62.778199999999998
 20
-6.0956700000000001
 30
0.0
 70
    32
  0
VERTEX
  5
4830
  8
240
 10
-62.906799999999997
 20
-6.403249999999999
 30
0.0
 70
    32
  0
VERTEX
  5
4831
  8
240
 10
-63.0411
 20
-6.7100899999999992
 30
0.0
 70
    32
  0
VERTEX
  5
4832
  8
240
 10
-63.180999999999997
 20
-7.0161699999999989
 30
0.0
 70
    32
  0
VERTEX
  5
4833
  8
240
 10
-63.3264
 20
-7.3214399999999991
 30
0.0
 70
    32
  0
VERTEX
  5
4834
  8
240
 10
-63.4773
 20
-7.625869999999999
 30
0.0
 70
    32
  0
VERTEX
  5
4835
  8
240
 10
-63.633600000000001
 20
-7.9294399999999987
 30
0.0
 70
    32
  0
VERTEX
  5
4836
  8
240
 10
-63.795200000000001
 20
-8.2321000000000009
 30
0.0
 70
    32
  0
VERTEX
  5
4837
  8
240
 10
-63.962099999999992
 20
-8.5338200000000004
 30
0.0
 70
    32
  0
VERTEX
  5
4838
  8
240
 10
-64.134299999999996
 20
-8.8345699999999994
 30
0.0
 70
    32
  0
VERTEX
  5
4839
  8
240
 10
-64.311499999999995
 20
-9.134310000000001
 30
0.0
 70
    32
  0
VERTEX
  5
483A
  8
240
 10
-64.493799999999993
 20
-9.4330100000000012
 30
0.0
 70
    32
  0
VERTEX
  5
483B
  8
240
 10
-64.681200000000004
 20
-9.7306399999999993
 30
0.0
 70
    32
  0
VERTEX
  5
483C
  8
240
 10
-64.873400000000004
 20
-10.027200000000001
 30
0.0
 70
    32
  0
VERTEX
  5
483D
  8
240
 10
-65.070599999999999
 20
-10.3225
 30
0.0
 70
    32
  0
VERTEX
  5
483E
  8
240
 10
-65.272499999999994
 20
-10.6167
 30
0.0
 70
    32
  0
VERTEX
  5
483F
  8
240
 10
-65.479200000000006
 20
-10.909700000000001
 30
0.0
 70
    32
  0
VERTEX
  5
4840
  8
240
 10
-65.6905
 20
-11.2014
 30
0.0
 70
    32
  0
VERTEX
  5
4841
  8
240
 10
-65.906499999999994
 20
-11.491899999999999
 30
0.0
 70
    32
  0
VERTEX
  5
4842
  8
240
 10
-66.126999999999995
 20
-11.781000000000001
 30
0.0
 70
    32
  0
VERTEX
  5
4843
  8
240
 10
-66.351900000000001
 20
-12.0688
 30
0.0
 70
    32
  0
VERTEX
  5
4844
  8
240
 10
-66.581299999999985
 20
-12.3552
 30
0.0
 70
    32
  0
VERTEX
  5
4845
  8
240
 10
-66.814999999999984
 20
-12.6402
 30
0.0
 70
    32
  0
VERTEX
  5
4846
  8
240
 10
-67.052999999999997
 20
-12.9238
 30
0.0
 70
    32
  0
VERTEX
  5
4847
  8
240
 10
-67.295199999999994
 20
-13.2059
 30
0.0
 70
    32
  0
VERTEX
  5
4848
  8
240
 10
-67.541499999999999
 20
-13.4864
 30
0.0
 70
    32
  0
VERTEX
  5
4849
  8
240
 10
-67.791899999999984
 20
-13.7654
 30
0.0
 70
    32
  0
VERTEX
  5
484A
  8
240
 10
-68.046199999999985
 20
-14.0428
 30
0.0
 70
    32
  0
VERTEX
  5
484B
  8
240
 10
-68.304599999999994
 20
-14.3186
 30
0.0
 70
    32
  0
VERTEX
  5
484C
  8
240
 10
-68.566800000000001
 20
-14.592700000000001
 30
0.0
 70
    32
  0
VERTEX
  5
484D
  8
240
 10
-68.832800000000006
 20
-14.8651
 30
0.0
 70
    32
  0
VERTEX
  5
484E
  8
240
 10
-69.102500000000006
 20
-15.1358
 30
0.0
 70
    32
  0
VERTEX
  5
484F
  8
240
 10
-69.375900000000001
 20
-15.4048
 30
0.0
 70
    32
  0
VERTEX
  5
4850
  8
240
 10
-69.652900000000002
 20
-15.672000000000001
 30
0.0
 70
    32
  0
VERTEX
  5
4851
  8
240
 10
-69.933499999999995
 20
-15.9373
 30
0.0
 70
    32
  0
VERTEX
  5
4852
  8
240
 10
-70.217500000000001
 20
-16.200800000000001
 30
0.0
 70
    32
  0
VERTEX
  5
4853
  8
240
 10
-70.504900000000006
 20
-16.462399999999999
 30
0.0
 70
    32
  0
VERTEX
  5
4854
  8
240
 10
-70.795599999999993
 20
-16.722000000000001
 30
0.0
 70
    32
  0
VERTEX
  5
4855
  8
240
 10
-71.089699999999993
 20
-16.979700000000001
 30
0.0
 70
    32
  0
VERTEX
  5
4856
  8
240
 10
-71.386899999999997
 20
-17.235399999999998
 30
0.0
 70
    32
  0
VERTEX
  5
4857
  8
240
 10
-71.687200000000004
 20
-17.489100000000001
 30
0.0
 70
    32
  0
VERTEX
  5
4858
  8
240
 10
-71.990700000000004
 20
-17.7407
 30
0.0
 70
    32
  0
VERTEX
  5
4859
  8
240
 10
-72.2971
 20
-17.990200000000002
 30
0.0
 70
    32
  0
VERTEX
  5
485A
  8
240
 10
-72.606399999999994
 20
-18.2376
 30
0.0
 70
    32
  0
VERTEX
  5
485B
  8
240
 10
-72.918700000000001
 20
-18.482800000000001
 30
0.0
 70
    32
  0
VERTEX
  5
485C
  8
240
 10
-73.233699999999999
 20
-18.7258
 30
0.0
 70
    32
  0
VERTEX
  5
485D
  8
240
 10
-73.551500000000004
 20
-18.9666
 30
0.0
 70
    32
  0
VERTEX
  5
485E
  8
240
 10
-73.871899999999997
 20
-19.205100000000002
 30
0.0
 70
    32
  0
VERTEX
  5
485F
  8
240
 10
-74.194999999999993
 20
-19.441299999999998
 30
0.0
 70
    32
  0
VERTEX
  5
4860
  8
240
 10
-74.520499999999984
 20
-19.6752
 30
0.0
 70
    32
  0
VERTEX
  5
4861
  8
240
 10
-74.848600000000005
 20
-19.906600000000001
 30
0.0
 70
    32
  0
VERTEX
  5
4862
  8
240
 10
-75.179000000000002
 20
-20.1357
 30
0.0
 70
    32
  0
VERTEX
  5
4863
  8
240
 10
-75.511799999999994
 20
-20.362400000000001
 30
0.0
 70
    32
  0
VERTEX
  5
4864
  8
240
 10
-75.846800000000002
 20
-20.586600000000001
 30
0.0
 70
    32
  0
VERTEX
  5
4865
  8
240
 10
-76.184100000000001
 20
-20.808199999999999
 30
0.0
 70
    32
  0
VERTEX
  5
4866
  8
240
 10
-76.523399999999995
 20
-21.0273
 30
0.0
 70
    32
  0
VERTEX
  5
4867
  8
240
 10
-76.864900000000006
 20
-21.2439
 30
0.0
 70
    32
  0
VERTEX
  5
4868
  8
240
 10
-77.208299999999994
 20
-21.457799999999999
 30
0.0
 70
    32
  0
VERTEX
  5
4869
  8
240
 10
-77.553700000000006
 20
-21.6691
 30
0.0
 70
    32
  0
VERTEX
  5
486A
  8
240
 10
-77.900999999999996
 20
-21.877700000000001
 30
0.0
 70
    32
  0
VERTEX
  5
486B
  8
240
 10
-78.25
 20
-22.083600000000001
 30
0.0
 70
    32
  0
SEQEND
  5
486C
  8
240
  0
POLYLINE
  5
486D
  8
240
 66
     1
 10
0.0
 20
0.0
 30
0.0
 70
     8
  0
VERTEX
  5
486E
  8
240
 10
-116.5
 20
0.00000000306889
 30
0.0
 70
    32
  0
VERTEX
  5
486F
  8
240
 10
-116.501
 20
0.407712
 30
0.0
 70
    32
  0
VERTEX
  5
4870
  8
240
 10
-116.498
 20
0.8151439999999999
 30
0.0
 70
    32
  0
VERTEX
  5
4871
  8
240
 10
-116.492
 20
1.2222200000000001
 30
0.0
 70
    32
  0
VERTEX
  5
4872
  8
240
 10
-116.482
 20
1.62887
 30
0.0
 70
    32
  0
VERTEX
  5
4873
  8
240
 10
-116.46899999999999
 20
2.0350199999999998
 30
0.0
 70
    32
  0
VERTEX
  5
4874
  8
240
 10
-116.453
 20
2.4405899999999998
 30
0.0
 70
    32
  0
VERTEX
  5
4875
  8
240
 10
-116.43300000000001
 20
2.8455099999999991
 30
0.0
 70
    32
  0
VERTEX
  5
4876
  8
240
 10
-116.41
 20
3.2496999999999989
 30
0.0
 70
    32
  0
VERTEX
  5
4877
  8
240
 10
-116.383
 20
3.6530999999999989
 30
0.0
 70
    32
  0
VERTEX
  5
4878
  8
240
 10
-116.352
 20
4.0556099999999988
 30
0.0
 70
    32
  0
VERTEX
  5
4879
  8
240
 10
-116.319
 20
4.4571800000000001
 30
0.0
 70
    32
  0
VERTEX
  5
487A
  8
240
 10
-116.28100000000001
 20
4.8577300000000001
 30
0.0
 70
    32
  0
VERTEX
  5
487B
  8
240
 10
-116.241
 20
5.2571799999999991
 30
0.0
 70
    32
  0
VERTEX
  5
487C
  8
240
 10
-116.197
 20
5.6554599999999988
 30
0.0
 70
    32
  0
VERTEX
  5
487D
  8
240
 10
-116.149
 20
6.0524899999999988
 30
0.0
 70
    32
  0
VERTEX
  5
487E
  8
240
 10
-116.098
 20
6.448199999999999
 30
0.0
 70
    32
  0
VERTEX
  5
487F
  8
240
 10
-116.04300000000001
 20
6.8425199999999986
 30
0.0
 70
    32
  0
VERTEX
  5
4880
  8
240
 10
-115.985
 20
7.2353699999999987
 30
0.0
 70
    32
  0
VERTEX
  5
4881
  8
240
 10
-115.92400000000001
 20
7.626669999999999
 30
0.0
 70
    32
  0
VERTEX
  5
4882
  8
240
 10
-115.85899999999999
 20
8.0163600000000006
 30
0.0
 70
    32
  0
VERTEX
  5
4883
  8
240
 10
-115.791
 20
8.4043500000000009
 30
0.0
 70
    32
  0
VERTEX
  5
4884
  8
240
 10
-115.71899999999999
 20
8.7905800000000003
 30
0.0
 70
    32
  0
VERTEX
  5
4885
  8
240
 10
-115.64400000000001
 20
9.1749600000000004
 30
0.0
 70
    32
  0
VERTEX
  5
4886
  8
240
 10
-115.565
 20
9.5574300000000001
 30
0.0
 70
    32
  0
VERTEX
  5
4887
  8
240
 10
-115.483
 20
9.9379200000000001
 30
0.0
 70
    32
  0
VERTEX
  5
4888
  8
240
 10
-115.39700000000001
 20
10.3163
 30
0.0
 70
    32
  0
VERTEX
  5
4889
  8
240
 10
-115.30800000000001
 20
10.692600000000001
 30
0.0
 70
    32
  0
VERTEX
  5
488A
  8
240
 10
-115.215
 20
11.066700000000001
 30
0.0
 70
    32
  0
VERTEX
  5
488B
  8
240
 10
-115.119
 20
11.438499999999999
 30
0.0
 70
    32
  0
VERTEX
  5
488C
  8
240
 10
-115.02
 20
11.8079
 30
0.0
 70
    32
  0
VERTEX
  5
488D
  8
240
 10
-114.917
 20
12.174899999999999
 30
0.0
 70
    32
  0
VERTEX
  5
488E
  8
240
 10
-114.81
 20
12.539300000000001
 30
0.0
 70
    32
  0
VERTEX
  5
488F
  8
240
 10
-114.7
 20
12.901199999999999
 30
0.0
 70
    32
  0
VERTEX
  5
4890
  8
240
 10
-114.587
 20
13.2605
 30
0.0
 70
    32
  0
VERTEX
  5
4891
  8
240
 10
-114.47
 20
13.617000000000001
 30
0.0
 70
    32
  0
VERTEX
  5
4892
  8
240
 10
-114.34999999999999
 20
13.970599999999999
 30
0.0
 70
    32
  0
VERTEX
  5
4893
  8
240
 10
-114.226
 20
14.3215
 30
0.0
 70
    32
  0
VERTEX
  5
4894
  8
240
 10
-114.098
 20
14.6693
 30
0.0
 70
    32
  0
VERTEX
  5
4895
  8
240
 10
-113.968
 20
15.014099999999999
 30
0.0
 70
    32
  0
VERTEX
  5
4896
  8
240
 10
-113.833
 20
15.3558
 30
0.0
 70
    32
  0
VERTEX
  5
4897
  8
240
 10
-113.696
 20
15.6944
 30
0.0
 70
    32
  0
VERTEX
  5
4898
  8
240
 10
-113.55500000000001
 20
16.029699999999998
 30
0.0
 70
    32
  0
VERTEX
  5
4899
  8
240
 10
-113.41
 20
16.361599999999999
 30
0.0
 70
    32
  0
VERTEX
  5
489A
  8
240
 10
-113.262
 20
16.690200000000001
 30
0.0
 70
    32
  0
VERTEX
  5
489B
  8
240
 10
-113.11
 20
17.0153
 30
0.0
 70
    32
  0
VERTEX
  5
489C
  8
240
 10
-112.955
 20
17.3368
 30
0.0
 70
    32
  0
VERTEX
  5
489D
  8
240
 10
-112.797
 20
17.654699999999998
 30
0.0
 70
    32
  0
VERTEX
  5
489E
  8
240
 10
-112.63500000000001
 20
17.968900000000001
 30
0.0
 70
    32
  0
VERTEX
  5
489F
  8
240
 10
-112.46899999999999
 20
18.279299999999999
 30
0.0
 70
    32
  0
VERTEX
  5
48A0
  8
240
 10
-112.3
 20
18.585899999999999
 30
0.0
 70
    32
  0
VERTEX
  5
48A1
  8
240
 10
-112.128
 20
18.8886
 30
0.0
 70
    32
  0
VERTEX
  5
48A2
  8
240
 10
-111.952
 20
19.187200000000001
 30
0.0
 70
    32
  0
VERTEX
  5
48A3
  8
240
 10
-111.77200000000001
 20
19.4818
 30
0.0
 70
    32
  0
VERTEX
  5
48A4
  8
240
 10
-111.59
 20
19.772300000000001
 30
0.0
 70
    32
  0
VERTEX
  5
48A5
  8
240
 10
-111.40300000000001
 20
20.058499999999999
 30
0.0
 70
    32
  0
VERTEX
  5
48A6
  8
240
 10
-111.21299999999999
 20
20.340399999999999
 30
0.0
 70
    32
  0
VERTEX
  5
48A7
  8
240
 10
-111.02
 20
20.617999999999999
 30
0.0
 70
    32
  0
VERTEX
  5
48A8
  8
240
 10
-110.82299999999999
 20
20.891100000000002
 30
0.0
 70
    32
  0
VERTEX
  5
48A9
  8
240
 10
-110.623
 20
21.159700000000001
 30
0.0
 70
    32
  0
VERTEX
  5
48AA
  8
240
 10
-110.419
 20
21.4237
 30
0.0
 70
    32
  0
VERTEX
  5
48AB
  8
240
 10
-110.212
 20
21.6831
 30
0.0
 70
    32
  0
VERTEX
  5
48AC
  8
240
 10
-110.001
 20
21.9377
 30
0.0
 70
    32
  0
VERTEX
  5
48AD
  8
240
 10
-109.78700000000001
 20
22.1875
 30
0.0
 70
    32
  0
VERTEX
  5
48AE
  8
240
 10
-109.56999999999999
 20
22.432400000000001
 30
0.0
 70
    32
  0
VERTEX
  5
48AF
  8
240
 10
-109.348
 20
22.6723
 30
0.0
 70
    32
  0
VERTEX
  5
48B0
  8
240
 10
-109.124
 20
22.9072
 30
0.0
 70
    32
  0
VERTEX
  5
48B1
  8
240
 10
-108.896
 20
23.137
 30
0.0
 70
    32
  0
VERTEX
  5
48B2
  8
240
 10
-108.664
 20
23.361599999999999
 30
0.0
 70
    32
  0
VERTEX
  5
48B3
  8
240
 10
-108.429
 20
23.581
 30
0.0
 70
    32
  0
VERTEX
  5
48B4
  8
240
 10
-108.19
 20
23.795000000000002
 30
0.0
 70
    32
  0
VERTEX
  5
48B5
  8
240
 10
-107.94799999999999
 20
24.003599999999999
 30
0.0
 70
    32
  0
VERTEX
  5
48B6
  8
240
 10
-107.703
 20
24.206700000000001
 30
0.0
 70
    32
  0
VERTEX
  5
48B7
  8
240
 10
-107.45399999999999
 20
24.404199999999999
 30
0.0
 70
    32
  0
VERTEX
  5
48B8
  8
240
 10
-107.20099999999999
 20
24.5962
 30
0.0
 70
    32
  0
VERTEX
  5
48B9
  8
240
 10
-106.94499999999999
 20
24.782399999999999
 30
0.0
 70
    32
  0
VERTEX
  5
48BA
  8
240
 10
-106.68600000000001
 20
24.962800000000001
 30
0.0
 70
    32
  0
VERTEX
  5
48BB
  8
240
 10
-106.423
 20
25.1374
 30
0.0
 70
    32
  0
VERTEX
  5
48BC
  8
240
 10
-106.15600000000001
 20
25.306100000000001
 30
0.0
 70
    32
  0
VERTEX
  5
48BD
  8
240
 10
-105.886
 20
25.468699999999998
 30
0.0
 70
    32
  0
VERTEX
  5
48BE
  8
240
 10
-105.613
 20
25.625299999999999
 30
0.0
 70
    32
  0
VERTEX
  5
48BF
  8
240
 10
-105.336
 20
25.7758
 30
0.0
 70
    32
  0
VERTEX
  5
48C0
  8
240
 10
-105.056
 20
25.920200000000001
 30
0.0
 70
    32
  0
VERTEX
  5
48C1
  8
240
 10
-104.77200000000001
 20
26.058599999999998
 30
0.0
 70
    32
  0
VERTEX
  5
48C2
  8
240
 10
-104.485
 20
26.190999999999999
 30
0.0
 70
    32
  0
VERTEX
  5
48C3
  8
240
 10
-104.19499999999999
 20
26.317499999999999
 30
0.0
 70
    32
  0
VERTEX
  5
48C4
  8
240
 10
-103.902
 20
26.438099999999999
 30
0.0
 70
    32
  0
VERTEX
  5
48C5
  8
240
 10
-103.605
 20
26.552900000000001
 30
0.0
 70
    32
  0
VERTEX
  5
48C6
  8
240
 10
-103.306
 20
26.661899999999999
 30
0.0
 70
    32
  0
VERTEX
  5
48C7
  8
240
 10
-103.004
 20
26.7651
 30
0.0
 70
    32
  0
VERTEX
  5
48C8
  8
240
 10
-102.699
 20
26.862500000000001
 30
0.0
 70
    32
  0
VERTEX
  5
48C9
  8
240
 10
-102.39
 20
26.9543
 30
0.0
 70
    32
  0
VERTEX
  5
48CA
  8
240
 10
-102.08
 20
27.040400000000002
 30
0.0
 70
    32
  0
VERTEX
  5
48CB
  8
240
 10
-101.76600000000001
 20
27.120899999999999
 30
0.0
 70
    32
  0
VERTEX
  5
48CC
  8
240
 10
-101.45
 20
27.195900000000002
 30
0.0
 70
    32
  0
VERTEX
  5
48CD
  8
240
 10
-101.131
 20
27.2653
 30
0.0
 70
    32
  0
VERTEX
  5
48CE
  8
240
 10
-100.81
 20
27.3292
 30
0.0
 70
    32
  0
VERTEX
  5
48CF
  8
240
 10
-100.486
 20
27.387799999999999
 30
0.0
 70
    32
  0
VERTEX
  5
48D0
  8
240
 10
-100.16
 20
27.440899999999999
 30
0.0
 70
    32
  0
VERTEX
  5
48D1
  8
240
 10
-99.831900000000005
 20
27.488600000000002
 30
0.0
 70
    32
  0
VERTEX
  5
48D2
  8
240
 10
-99.501199999999997
 20
27.530999999999999
 30
0.0
 70
    32
  0
VERTEX
  5
48D3
  8
240
 10
-99.168300000000002
 20
27.568100000000001
 30
0.0
 70
    32
  0
VERTEX
  5
48D4
  8
240
 10
-98.833299999999994
 20
27.600000000000001
 30
0.0
 70
    32
  0
VERTEX
  5
48D5
  8
240
 10
-98.496200000000016
 20
27.6267
 30
0.0
 70
    32
  0
VERTEX
  5
48D6
  8
240
 10
-98.157100000000014
 20
27.648299999999999
 30
0.0
 70
    32
  0
VERTEX
  5
48D7
  8
240
 10
-97.816100000000006
 20
27.6647
 30
0.0
 70
    32
  0
VERTEX
  5
48D8
  8
240
 10
-97.473200000000006
 20
27.676100000000002
 30
0.0
 70
    32
  0
VERTEX
  5
48D9
  8
240
 10
-97.128399999999985
 20
27.682400000000001
 30
0.0
 70
    32
  0
VERTEX
  5
48DA
  8
240
 10
-96.781899999999993
 20
27.683700000000002
 30
0.0
 70
    32
  0
VERTEX
  5
48DB
  8
240
 10
-96.433700000000002
 20
27.680099999999999
 30
0.0
 70
    32
  0
VERTEX
  5
48DC
  8
240
 10
-96.083899999999986
 20
27.671500000000002
 30
0.0
 70
    32
  0
VERTEX
  5
48DD
  8
240
 10
-95.732399999999998
 20
27.658100000000001
 30
0.0
 70
    32
  0
VERTEX
  5
48DE
  8
240
 10
-95.379499999999993
 20
27.639900000000001
 30
0.0
 70
    32
  0
VERTEX
  5
48DF
  8
240
 10
-95.025199999999998
 20
27.616800000000001
 30
0.0
 70
    32
  0
VERTEX
  5
48E0
  8
240
 10
-94.669399999999996
 20
27.588999999999999
 30
0.0
 70
    32
  0
VERTEX
  5
48E1
  8
240
 10
-94.312299999999993
 20
27.5565
 30
0.0
 70
    32
  0
VERTEX
  5
48E2
  8
240
 10
-93.953999999999994
 20
27.519400000000001
 30
0.0
 70
    32
  0
VERTEX
  5
48E3
  8
240
 10
-93.594499999999996
 20
27.477599999999999
 30
0.0
 70
    32
  0
VERTEX
  5
48E4
  8
240
 10
-93.233800000000002
 20
27.4312
 30
0.0
 70
    32
  0
VERTEX
  5
48E5
  8
240
 10
-92.872099999999989
 20
27.380299999999998
 30
0.0
 70
    32
  0
VERTEX
  5
48E6
  8
240
 10
-92.509399999999985
 20
27.3248
 30
0.0
 70
    32
  0
VERTEX
  5
48E7
  8
240
 10
-92.145700000000005
 20
27.264900000000001
 30
0.0
 70
    32
  0
VERTEX
  5
48E8
  8
240
 10
-91.781199999999984
 20
27.200600000000001
 30
0.0
 70
    32
  0
VERTEX
  5
48E9
  8
240
 10
-91.415800000000004
 20
27.131900000000002
 30
0.0
 70
    32
  0
VERTEX
  5
48EA
  8
240
 10
-91.049699999999987
 20
27.058900000000001
 30
0.0
 70
    32
  0
VERTEX
  5
48EB
  8
240
 10
-90.682900000000004
 20
26.9815
 30
0.0
 70
    32
  0
VERTEX
  5
48EC
  8
240
 10
-90.315500000000014
 20
26.899899999999999
 30
0.0
 70
    32
  0
VERTEX
  5
48ED
  8
240
 10
-89.947500000000005
 20
26.8141
 30
0.0
 70
    32
  0
VERTEX
  5
48EE
  8
240
 10
-89.578999999999994
 20
26.7241
 30
0.0
 70
    32
  0
VERTEX
  5
48EF
  8
240
 10
-89.209999999999994
 20
26.629999999999999
 30
0.0
 70
    32
  0
VERTEX
  5
48F0
  8
240
 10
-88.840699999999984
 20
26.531700000000001
 30
0.0
 70
    32
  0
VERTEX
  5
48F1
  8
240
 10
-88.471100000000007
 20
26.429400000000001
 30
0.0
 70
    32
  0
VERTEX
  5
48F2
  8
240
 10
-88.101200000000006
 20
26.3231
 30
0.0
 70
    32
  0
VERTEX
  5
48F3
  8
240
 10
-87.731200000000001
 20
26.212800000000001
 30
0.0
 70
    32
  0
VERTEX
  5
48F4
  8
240
 10
-87.361000000000004
 20
26.098600000000001
 30
0.0
 70
    32
  0
VERTEX
  5
48F5
  8
240
 10
-86.990700000000004
 20
25.980499999999999
 30
0.0
 70
    32
  0
VERTEX
  5
48F6
  8
240
 10
-86.620500000000007
 20
25.858499999999999
 30
0.0
 70
    32
  0
VERTEX
  5
48F7
  8
240
 10
-86.250299999999996
 20
25.732700000000001
 30
0.0
 70
    32
  0
VERTEX
  5
48F8
  8
240
 10
-85.880200000000002
 20
25.603200000000001
 30
0.0
 70
    32
  0
VERTEX
  5
48F9
  8
240
 10
-85.510400000000004
 20
25.469899999999999
 30
0.0
 70
    32
  0
VERTEX
  5
48FA
  8
240
 10
-85.140799999999984
 20
25.332899999999999
 30
0.0
 70
    32
  0
VERTEX
  5
48FB
  8
240
 10
-84.771499999999989
 20
25.192299999999999
 30
0.0
 70
    32
  0
VERTEX
  5
48FC
  8
240
 10
-84.402600000000007
 20
25.048100000000002
 30
0.0
 70
    32
  0
VERTEX
  5
48FD
  8
240
 10
-84.034099999999995
 20
24.900300000000001
 30
0.0
 70
    32
  0
VERTEX
  5
48FE
  8
240
 10
-83.666099999999986
 20
24.748999999999999
 30
0.0
 70
    32
  0
VERTEX
  5
48FF
  8
240
 10
-83.298699999999997
 20
24.594200000000001
 30
0.0
 70
    32
  0
VERTEX
  5
4900
  8
240
 10
-82.931899999999999
 20
24.4359
 30
0.0
 70
    32
  0
VERTEX
  5
4901
  8
240
 10
-82.565899999999999
 20
24.2742
 30
0.0
 70
    32
  0
VERTEX
  5
4902
  8
240
 10
-82.200599999999994
 20
24.109200000000001
 30
0.0
 70
    32
  0
VERTEX
  5
4903
  8
240
 10
-81.836099999999988
 20
23.940899999999999
 30
0.0
 70
    32
  0
VERTEX
  5
4904
  8
240
 10
-81.472399999999993
 20
23.769200000000001
 30
0.0
 70
    32
  0
VERTEX
  5
4905
  8
240
 10
-81.109800000000007
 20
23.5944
 30
0.0
 70
    32
  0
VERTEX
  5
4906
  8
240
 10
-80.748099999999994
 20
23.4163
 30
0.0
 70
    32
  0
VERTEX
  5
4907
  8
240
 10
-80.387500000000003
 20
23.235099999999999
 30
0.0
 70
    32
  0
VERTEX
  5
4908
  8
240
 10
-80.028099999999995
 20
23.050699999999999
 30
0.0
 70
    32
  0
VERTEX
  5
4909
  8
240
 10
-79.669799999999995
 20
22.863299999999999
 30
0.0
 70
    32
  0
VERTEX
  5
490A
  8
240
 10
-79.312799999999996
 20
22.672899999999998
 30
0.0
 70
    32
  0
VERTEX
  5
490B
  8
240
 10
-78.957099999999997
 20
22.479399999999998
 30
0.0
 70
    32
  0
VERTEX
  5
490C
  8
240
 10
-78.602800000000002
 20
22.283000000000001
 30
0.0
 70
    32
  0
VERTEX
  5
490D
  8
240
 10
-78.25
 20
22.083600000000001
 30
0.0
 70
    32
  0
SEQEND
  5
490E
  8
240
  0
POLYLINE
  5
490F
  8
240
 66
     1
 10
0.0
 20
0.0
 30
0.0
 70
     8
  0
VERTEX
  5
4910
  8
240
 10
-78.25
 20
-22.083600000000001
 30
0.0
 70
    32
  0
VERTEX
  5
4911
  8
240
 10
-78.602699999999984
 20
-22.2882
 30
0.0
 70
    32
  0
VERTEX
  5
4912
  8
240
 10
-78.956900000000005
 20
-22.489599999999999
 30
0.0
 70
    32
  0
VERTEX
  5
4913
  8
240
 10
-79.3125
 20
-22.687799999999999
 30
0.0
 70
    32
  0
VERTEX
  5
4914
  8
240
 10
-79.669399999999996
 20
-22.8828
 30
0.0
 70
    32
  0
VERTEX
  5
4915
  8
240
 10
-80.027699999999996
 20
-23.0746
 30
0.0
 70
    32
  0
VERTEX
  5
4916
  8
240
 10
-80.387200000000007
 20
-23.263100000000001
 30
0.0
 70
    32
  0
VERTEX
  5
4917
  8
240
 10
-80.747799999999998
 20
-23.4483
 30
0.0
 70
    32
  0
VERTEX
  5
4918
  8
240
 10
-81.1096
 20
-23.630099999999999
 30
0.0
 70
    32
  0
VERTEX
  5
4919
  8
240
 10
-81.472300000000004
 20
-23.808599999999998
 30
0.0
 70
    32
  0
VERTEX
  5
491A
  8
240
 10
-81.836099999999988
 20
-23.983599999999999
 30
0.0
 70
    32
  0
VERTEX
  5
491B
  8
240
 10
-82.200699999999983
 20
-24.155100000000001
 30
0.0
 70
    32
  0
VERTEX
  5
491C
  8
240
 10
-82.566199999999995
 20
-24.3232
 30
0.0
 70
    32
  0
VERTEX
  5
491D
  8
240
 10
-82.932500000000005
 20
-24.4877
 30
0.0
 70
    32
  0
VERTEX
  5
491E
  8
240
 10
-83.299499999999995
 20
-24.648599999999998
 30
0.0
 70
    32
  0
VERTEX
  5
491F
  8
240
 10
-83.667100000000005
 20
-24.805900000000001
 30
0.0
 70
    32
  0
VERTEX
  5
4920
  8
240
 10
-84.035399999999996
 20
-24.959499999999998
 30
0.0
 70
    32
  0
VERTEX
  5
4921
  8
240
 10
-84.404099999999985
 20
-25.109400000000001
 30
0.0
 70
    32
  0
VERTEX
  5
4922
  8
240
 10
-84.773300000000006
 20
-25.255700000000001
 30
0.0
 70
    32
  0
VERTEX
  5
4923
  8
240
 10
-85.142899999999997
 20
-25.398099999999999
 30
0.0
 70
    32
  0
VERTEX
  5
4924
  8
240
 10
-85.512799999999999
 20
-25.5367
 30
0.0
 70
    32
  0
VERTEX
  5
4925
  8
240
 10
-85.882999999999996
 20
-25.671500000000002
 30
0.0
 70
    32
  0
VERTEX
  5
4926
  8
240
 10
-86.253399999999985
 20
-25.802399999999999
 30
0.0
 70
    32
  0
VERTEX
  5
4927
  8
240
 10
-86.623999999999995
 20
-25.929400000000001
 30
0.0
 70
    32
  0
VERTEX
  5
4928
  8
240
 10
-86.994600000000005
 20
-26.052499999999998
 30
0.0
 70
    32
  0
VERTEX
  5
4929
  8
240
 10
-87.365200000000002
 20
-26.171500000000002
 30
0.0
 70
    32
  0
VERTEX
  5
492A
  8
240
 10
-87.735699999999994
 20
-26.2865
 30
0.0
 70
    32
  0
VERTEX
  5
492B
  8
240
 10
-88.106200000000001
 20
-26.397500000000001
 30
0.0
 70
    32
  0
VERTEX
  5
492C
  8
240
 10
-88.476399999999998
 20
-26.504300000000001
 30
0.0
 70
    32
  0
VERTEX
  5
492D
  8
240
 10
-88.846500000000006
 20
-26.606999999999999
 30
0.0
 70
    32
  0
VERTEX
  5
492E
  8
240
 10
-89.216099999999983
 20
-26.705500000000001
 30
0.0
 70
    32
  0
VERTEX
  5
492F
  8
240
 10
-89.585499999999996
 20
-26.799800000000001
 30
0.0
 70
    32
  0
VERTEX
  5
4930
  8
240
 10
-89.954300000000003
 20
-26.889800000000001
 30
0.0
 70
    32
  0
VERTEX
  5
4931
  8
240
 10
-90.322699999999998
 20
-26.9755
 30
0.0
 70
    32
  0
VERTEX
  5
4932
  8
240
 10
-90.6905
 20
-27.056899999999999
 30
0.0
 70
    32
  0
VERTEX
  5
4933
  8
240
 10
-91.057699999999997
 20
-27.134
 30
0.0
 70
    32
  0
VERTEX
  5
4934
  8
240
 10
-91.424199999999985
 20
-27.206600000000002
 30
0.0
 70
    32
  0
VERTEX
  5
4935
  8
240
 10
-91.789900000000003
 20
-27.274799999999999
 30
0.0
 70
    32
  0
VERTEX
  5
4936
  8
240
 10
-92.154799999999994
 20
-27.3385
 30
0.0
 70
    32
  0
VERTEX
  5
4937
  8
240
 10
-92.518799999999985
 20
-27.397600000000001
 30
0.0
 70
    32
  0
VERTEX
  5
4938
  8
240
 10
-92.881799999999998
 20
-27.452200000000001
 30
0.0
 70
    32
  0
VERTEX
  5
4939
  8
240
 10
-93.243899999999996
 20
-27.502300000000002
 30
0.0
 70
    32
  0
VERTEX
  5
493A
  8
240
 10
-93.604799999999997
 20
-27.547699999999999
 30
0.0
 70
    32
  0
VERTEX
  5
493B
  8
240
 10
-93.964600000000004
 20
-27.5884
 30
0.0
 70
    32
  0
VERTEX
  5
493C
  8
240
 10
-94.3232
 20
-27.624400000000001
 30
0.0
 70
    32
  0
VERTEX
  5
493D
  8
240
 10
-94.680499999999995
 20
-27.6556
 30
0.0
 70
    32
  0
VERTEX
  5
493E
  8
240
 10
-95.036500000000004
 20
-27.682099999999998
 30
0.0
 70
    32
  0
VERTEX
  5
493F
  8
240
 10
-95.391099999999994
 20
-27.703800000000001
 30
0.0
 70
    32
  0
VERTEX
  5
4940
  8
240
 10
-95.744200000000006
 20
-27.720600000000001
 30
0.0
 70
    32
  0
VERTEX
  5
4941
  8
240
 10
-96.095800000000011
 20
-27.732500000000002
 30
0.0
 70
    32
  0
VERTEX
  5
4942
  8
240
 10
-96.445800000000006
 20
-27.7394
 30
0.0
 70
    32
  0
VERTEX
  5
4943
  8
240
 10
-96.7941
 20
-27.741399999999999
 30
0.0
 70
    32
  0
VERTEX
  5
4944
  8
240
 10
-97.140699999999995
 20
-27.738399999999999
 30
0.0
 70
    32
  0
VERTEX
  5
4945
  8
240
 10
-97.485500000000016
 20
-27.730399999999999
 30
0.0
 70
    32
  0
VERTEX
  5
4946
  8
240
 10
-97.828500000000005
 20
-27.717199999999998
 30
0.0
 70
    32
  0
VERTEX
  5
4947
  8
240
 10
-98.169600000000017
 20
-27.699000000000002
 30
0.0
 70
    32
  0
VERTEX
  5
4948
  8
240
 10
-98.508600000000001
 20
-27.6755
 30
0.0
 70
    32
  0
VERTEX
  5
4949
  8
240
 10
-98.845699999999994
 20
-27.646899999999999
 30
0.0
 70
    32
  0
VERTEX
  5
494A
  8
240
 10
-99.180599999999998
 20
-27.613
 30
0.0
 70
    32
  0
VERTEX
  5
494B
  8
240
 10
-99.513300000000001
 20
-27.573899999999998
 30
0.0
 70
    32
  0
VERTEX
  5
494C
  8
240
 10
-99.843800000000016
 20
-27.529499999999999
 30
0.0
 70
    32
  0
VERTEX
  5
494D
  8
240
 10
-100.172
 20
-27.479700000000001
 30
0.0
 70
    32
  0
VERTEX
  5
494E
  8
240
 10
-100.498
 20
-27.424499999999998
 30
0.0
 70
    32
  0
VERTEX
  5
494F
  8
240
 10
-100.821
 20
-27.363900000000001
 30
0.0
 70
    32
  0
VERTEX
  5
4950
  8
240
 10
-101.142
 20
-27.297899999999998
 30
0.0
 70
    32
  0
VERTEX
  5
4951
  8
240
 10
-101.461
 20
-27.226299999999998
 30
0.0
 70
    32
  0
VERTEX
  5
4952
  8
240
 10
-101.776
 20
-27.1492
 30
0.0
 70
    32
  0
VERTEX
  5
4953
  8
240
 10
-102.089
 20
-27.066600000000001
 30
0.0
 70
    32
  0
VERTEX
  5
4954
  8
240
 10
-102.40000000000001
 20
-26.978300000000001
 30
0.0
 70
    32
  0
VERTEX
  5
4955
  8
240
 10
-102.70699999999999
 20
-26.884399999999999
 30
0.0
 70
    32
  0
VERTEX
  5
4956
  8
240
 10
-103.012
 20
-26.784800000000001
 30
0.0
 70
    32
  0
VERTEX
  5
4957
  8
240
 10
-103.31399999999999
 20
-26.679400000000001
 30
0.0
 70
    32
  0
VERTEX
  5
4958
  8
240
 10
-103.61199999999999
 20
-26.568300000000001
 30
0.0
 70
    32
  0
VERTEX
  5
4959
  8
240
 10
-103.908
 20
-26.451499999999999
 30
0.0
 70
    32
  0
VERTEX
  5
495A
  8
240
 10
-104.2
 20
-26.328700000000001
 30
0.0
 70
    32
  0
VERTEX
  5
495B
  8
240
 10
-104.48999999999999
 20
-26.200099999999999
 30
0.0
 70
    32
  0
VERTEX
  5
495C
  8
240
 10
-104.776
 20
-26.0656
 30
0.0
 70
    32
  0
VERTEX
  5
495D
  8
240
 10
-105.05800000000001
 20
-25.9252
 30
0.0
 70
    32
  0
VERTEX
  5
495E
  8
240
 10
-105.33799999999999
 20
-25.778700000000001
 30
0.0
 70
    32
  0
VERTEX
  5
495F
  8
240
 10
-105.613
 20
-25.626300000000001
 30
0.0
 70
    32
  0
VERTEX
  5
4960
  8
240
 10
-105.886
 20
-25.467700000000001
 30
0.0
 70
    32
  0
VERTEX
  5
4961
  8
240
 10
-106.154
 20
-25.3032
 30
0.0
 70
    32
  0
VERTEX
  5
4962
  8
240
 10
-106.42
 20
-25.1326
 30
0.0
 70
    32
  0
VERTEX
  5
4963
  8
240
 10
-106.681
 20
-24.956199999999999
 30
0.0
 70
    32
  0
VERTEX
  5
4964
  8
240
 10
-106.94
 20
-24.773900000000001
 30
0.0
 70
    32
  0
VERTEX
  5
4965
  8
240
 10
-107.194
 20
-24.585899999999999
 30
0.0
 70
    32
  0
VERTEX
  5
4966
  8
240
 10
-107.44499999999999
 20
-24.392299999999999
 30
0.0
 70
    32
  0
VERTEX
  5
4967
  8
240
 10
-107.693
 20
-24.193000000000001
 30
0.0
 70
    32
  0
VERTEX
  5
4968
  8
240
 10
-107.937
 20
-23.988299999999999
 30
0.0
 70
    32
  0
VERTEX
  5
4969
  8
240
 10
-108.17700000000001
 20
-23.777999999999999
 30
0.0
 70
    32
  0
VERTEX
  5
496A
  8
240
 10
-108.414
 20
-23.5625
 30
0.0
 70
    32
  0
VERTEX
  5
496B
  8
240
 10
-108.648
 20
-23.3416
 30
0.0
 70
    32
  0
VERTEX
  5
496C
  8
240
 10
-108.878
 20
-23.115500000000001
 30
0.0
 70
    32
  0
VERTEX
  5
496D
  8
240
 10
-109.104
 20
-22.8842
 30
0.0
 70
    32
  0
VERTEX
  5
496E
  8
240
 10
-109.327
 20
-22.6479
 30
0.0
 70
    32
  0
VERTEX
  5
496F
  8
240
 10
-109.547
 20
-22.406600000000001
 30
0.0
 70
    32
  0
VERTEX
  5
4970
  8
240
 10
-109.76300000000001
 20
-22.160399999999999
 30
0.0
 70
    32
  0
VERTEX
  5
4971
  8
240
 10
-109.97499999999999
 20
-21.909300000000002
 30
0.0
 70
    32
  0
VERTEX
  5
4972
  8
240
 10
-110.184
 20
-21.653500000000001
 30
0.0
 70
    32
  0
VERTEX
  5
4973
  8
240
 10
-110.39
 20
-21.392900000000001
 30
0.0
 70
    32
  0
VERTEX
  5
4974
  8
240
 10
-110.592
 20
-21.127800000000001
 30
0.0
 70
    32
  0
VERTEX
  5
4975
  8
240
 10
-110.791
 20
-20.8581
 30
0.0
 70
    32
  0
VERTEX
  5
4976
  8
240
 10
-110.986
 20
-20.5839
 30
0.0
 70
    32
  0
VERTEX
  5
4977
  8
240
 10
-111.17700000000001
 20
-20.305299999999999
 30
0.0
 70
    32
  0
VERTEX
  5
4978
  8
240
 10
-111.366
 20
-20.022400000000001
 30
0.0
 70
    32
  0
VERTEX
  5
4979
  8
240
 10
-111.55
 20
-19.735299999999999
 30
0.0
 70
    32
  0
VERTEX
  5
497A
  8
240
 10
-111.732
 20
-19.443999999999999
 30
0.0
 70
    32
  0
VERTEX
  5
497B
  8
240
 10
-111.90900000000001
 20
-19.148599999999998
 30
0.0
 70
    32
  0
VERTEX
  5
497C
  8
240
 10
-112.084
 20
-18.8491
 30
0.0
 70
    32
  0
VERTEX
  5
497D
  8
240
 10
-112.255
 20
-18.5458
 30
0.0
 70
    32
  0
VERTEX
  5
497E
  8
240
 10
-112.422
 20
-18.238499999999998
 30
0.0
 70
    32
  0
VERTEX
  5
497F
  8
240
 10
-112.586
 20
-17.927499999999998
 30
0.0
 70
    32
  0
VERTEX
  5
4980
  8
240
 10
-112.747
 20
-17.6127
 30
0.0
 70
    32
  0
VERTEX
  5
4981
  8
240
 10
-112.904
 20
-17.2943
 30
0.0
 70
    32
  0
VERTEX
  5
4982
  8
240
 10
-113.05800000000001
 20
-16.972300000000001
 30
0.0
 70
    32
  0
VERTEX
  5
4983
  8
240
 10
-113.208
 20
-16.646799999999999
 30
0.0
 70
    32
  0
VERTEX
  5
4984
  8
240
 10
-113.355
 20
-16.317900000000002
 30
0.0
 70
    32
  0
VERTEX
  5
4985
  8
240
 10
-113.499
 20
-15.9857
 30
0.0
 70
    32
  0
VERTEX
  5
4986
  8
240
 10
-113.639
 20
-15.6502
 30
0.0
 70
    32
  0
VERTEX
  5
4987
  8
240
 10
-113.776
 20
-15.311400000000001
 30
0.0
 70
    32
  0
VERTEX
  5
4988
  8
240
 10
-113.90900000000001
 20
-14.9696
 30
0.0
 70
    32
  0
VERTEX
  5
4989
  8
240
 10
-114.039
 20
-14.624700000000001
 30
0.0
 70
    32
  0
VERTEX
  5
498A
  8
240
 10
-114.166
 20
-14.2768
 30
0.0
 70
    32
  0
VERTEX
  5
498B
  8
240
 10
-114.289
 20
-13.9261
 30
0.0
 70
    32
  0
VERTEX
  5
498C
  8
240
 10
-114.40900000000001
 20
-13.5725
 30
0.0
 70
    32
  0
VERTEX
  5
498D
  8
240
 10
-114.52500000000001
 20
-13.216100000000001
 30
0.0
 70
    32
  0
VERTEX
  5
498E
  8
240
 10
-114.63800000000001
 20
-12.857100000000001
 30
0.0
 70
    32
  0
VERTEX
  5
498F
  8
240
 10
-114.748
 20
-12.4955
 30
0.0
 70
    32
  0
VERTEX
  5
4990
  8
240
 10
-114.854
 20
-12.131399999999999
 30
0.0
 70
    32
  0
VERTEX
  5
4991
  8
240
 10
-114.95699999999999
 20
-11.764799999999999
 30
0.0
 70
    32
  0
VERTEX
  5
4992
  8
240
 10
-115.057
 20
-11.395899999999999
 30
0.0
 70
    32
  0
VERTEX
  5
4993
  8
240
 10
-115.15300000000001
 20
-11.0246
 30
0.0
 70
    32
  0
VERTEX
  5
4994
  8
240
 10
-115.246
 20
-10.6511
 30
0.0
 70
    32
  0
VERTEX
  5
4995
  8
240
 10
-115.33499999999999
 20
-10.275499999999999
 30
0.0
 70
    32
  0
VERTEX
  5
4996
  8
240
 10
-115.422
 20
-9.8978099999999998
 30
0.0
 70
    32
  0
VERTEX
  5
4997
  8
240
 10
-115.504
 20
-9.5181000000000004
 30
0.0
 70
    32
  0
VERTEX
  5
4998
  8
240
 10
-115.584
 20
-9.1364800000000006
 30
0.0
 70
    32
  0
VERTEX
  5
4999
  8
240
 10
-115.66
 20
-8.7530000000000001
 30
0.0
 70
    32
  0
VERTEX
  5
499A
  8
240
 10
-115.733
 20
-8.3677499999999991
 30
0.0
 70
    32
  0
VERTEX
  5
499B
  8
240
 10
-115.80200000000001
 20
-7.9808000000000003
 30
0.0
 70
    32
  0
VERTEX
  5
499C
  8
240
 10
-115.869
 20
-7.5922199999999993
 30
0.0
 70
    32
  0
VERTEX
  5
499D
  8
240
 10
-115.931
 20
-7.2020899999999992
 30
0.0
 70
    32
  0
VERTEX
  5
499E
  8
240
 10
-115.991
 20
-6.8104899999999988
 30
0.0
 70
    32
  0
VERTEX
  5
499F
  8
240
 10
-116.047
 20
-6.4174800000000003
 30
0.0
 70
    32
  0
VERTEX
  5
49A0
  8
240
 10
-116.09999999999999
 20
-6.0231500000000002
 30
0.0
 70
    32
  0
VERTEX
  5
49A1
  8
240
 10
-116.15000000000001
 20
-5.6275699999999986
 30
0.0
 70
    32
  0
VERTEX
  5
49A2
  8
240
 10
-116.196
 20
-5.2308099999999991
 30
0.0
 70
    32
  0
VERTEX
  5
49A3
  8
240
 10
-116.239
 20
-4.8329500000000003
 30
0.0
 70
    32
  0
VERTEX
  5
49A4
  8
240
 10
-116.279
 20
-4.4340699999999993
 30
0.0
 70
    32
  0
VERTEX
  5
49A5
  8
240
 10
-116.315
 20
-4.0342299999999991
 30
0.0
 70
    32
  0
VERTEX
  5
49A6
  8
240
 10
-116.349
 20
-3.633519999999999
 30
0.0
 70
    32
  0
VERTEX
  5
49A7
  8
240
 10
-116.378
 20
-3.2320000000000002
 30
0.0
 70
    32
  0
VERTEX
  5
49A8
  8
240
 10
-116.405
 20
-2.8297599999999989
 30
0.0
 70
    32
  0
VERTEX
  5
49A9
  8
240
 10
-116.428
 20
-2.42686
 30
0.0
 70
    32
  0
VERTEX
  5
49AA
  8
240
 10
-116.44799999999999
 20
-2.02339
 30
0.0
 70
    32
  0
VERTEX
  5
49AB
  8
240
 10
-116.465
 20
-1.6194200000000001
 30
0.0
 70
    32
  0
VERTEX
  5
49AC
  8
240
 10
-116.479
 20
-1.2150199999999991
 30
0.0
 70
    32
  0
VERTEX
  5
49AD
  8
240
 10
-116.489
 20
-0.810265
 30
0.0
 70
    32
  0
VERTEX
  5
49AE
  8
240
 10
-116.496
 20
-0.405234
 30
0.0
 70
    32
  0
VERTEX
  5
49AF
  8
240
 10
-116.5
 20
-0.000000000003528
 30
0.0
 70
    32
  0
SEQEND
  5
49B0
  8
240
  0
VIEWPORT
  5
22
 67
     1
  8
0
 10
261.51769911504419
 20
148.5
 30
0.0
 40
523.0353982300885
 41
297.0
 68
     1
 69
     1
1001
ACAD
1000
MVIEW
1002
{
1070
    16
1010
0.0
1020
0.0
1030
0.0
1010
0.0
1020
0.0
1030
1.0
1040
0.0
1040
297.0
1040
261.51769911504419
1040
148.5
1040
50.0
1040
0.0
1040
0.0
1070
     0
1070
   100
1070
     1
1070
     1
1070
     0
1070
     0
1070
     0
1070
     0
1040
0.0
1040
0.0
1040
0.0
1040
1.0
1040
1.0
1040
10.0
1040
10.0
1070
     0
1002
{
1002
}
1002
}
1001
GENIUS_GENODEF_13
1002
{
1000
HIER
1070
     0
1002
}
1002
{
1000
MANEDIT
1070
     0
1002
}
1002
{
1000
NOSEL
1070
     0
1002
}
1002
{
1000
BEHIND
1070
     0
1002
}
1002
{
1000
OTHER
1070
     0
1002
}
1002
{
1000
REACTOR
1002
}
1001
GENIUS_GENOBJ-N-SDF_13
1002
{
1000
OWNER
1000
GEN
1002
}
1001
GENIUS_GENSCREG_15
1000
PF
1040
1.0
1000
DF
1040
1.0
1000
MIN
1011
0.0
1021
0.0
1031
0.0
1021
0.0
1031
0.0
1000
MAX
1011
523.0353982300885
1021
0.0
1031
0.0
1021
297.0
1031
0.0
1000
FLAGS
1070
     4
  0
ENDSEC
  0
EOF
